  0
SECTION
  2
HEADER
  9
$ACADVER
  1
AC1009
  9
$INSBASE
 10
0.0
 20
0.0
 30
0.0
  9
$EXTMIN
 10
-59.5000000000000071
 20
-212.500000000000199
 30
-0.0000000000000142
  9
$EXTMAX
 10
112.5
 20
39.5000000000000284
 30
0.0000000000000341
  9
$LIMMIN
 10
0.0
 20
0.0
  9
$LIMMAX
 10
420.0
 20
297.0
  9
$ORTHOMODE
 70
     1
  9
$REGENMODE
 70
     1
  9
$FILLMODE
 70
     1
  9
$QTEXTMODE
 70
     0
  9
$MIRRTEXT
 70
     1
  9
$DRAGMODE
 70
     2
  9
$LTSCALE
 40
10.0
  9
$OSMODE
 70
   511
  9
$ATTMODE
 70
     1
  9
$TEXTSIZE
 40
3.5
  9
$TRACEWID
 40
1.0
  9
$TEXTSTYLE
  7
STANDARD
  9
$CLAYER
  8
STEMPEL
  9
$CELTYPE
  6
BYLAYER
  9
$CECOLOR
 62
   256
  9
$DIMSCALE
 40
1.0
  9
$DIMASZ
 40
3.5
  9
$DIMEXO
 40
1.0
  9
$DIMDLI
 40
0.38
  9
$DIMRND
 40
0.0
  9
$DIMDLE
 40
0.0
  9
$DIMEXE
 40
1.0
  9
$DIMTP
 40
0.0
  9
$DIMTM
 40
0.000000001
  9
$DIMTXT
 40
3.5
  9
$DIMCEN
 40
0.09
  9
$DIMTSZ
 40
0.0
  9
$DIMTOL
 70
     0
  9
$DIMLIM
 70
     0
  9
$DIMTIH
 70
     0
  9
$DIMTOH
 70
     0
  9
$DIMSE1
 70
     0
  9
$DIMSE2
 70
     0
  9
$DIMTAD
 70
     1
  9
$DIMZIN
 70
     8
  9
$DIMBLK
  1

  9
$DIMASO
 70
     1
  9
$DIMSHO
 70
     0
  9
$DIMPOST
  1

  9
$DIMAPOST
  1

  9
$DIMALT
 70
     0
  9
$DIMALTD
 70
     2
  9
$DIMALTF
 40
25.3999999999999986
  9
$DIMLFAC
 40
2.0
  9
$DIMTOFL
 70
     1
  9
$DIMTVP
 40
0.0
  9
$DIMTIX
 70
     0
  9
$DIMSOXD
 70
     0
  9
$DIMSAH
 70
     0
  9
$DIMBLK1
  1

  9
$DIMBLK2
  1

  9
$DIMSTYLE
  2
LORO
  9
$DIMCLRD
 70
     0
  9
$DIMCLRE
 70
     0
  9
$DIMCLRT
 70
     1
  9
$DIMTFAC
 40
0.5
  9
$DIMGAP
 40
1.5
  9
$LUNITS
 70
     2
  9
$LUPREC
 70
     2
  9
$SKETCHINC
 40
1.0
  9
$FILLETRAD
 40
0.0
  9
$AUNITS
 70
     0
  9
$AUPREC
 70
     0
  9
$MENU
  1
ACAD
  9
$ELEVATION
 40
0.0
  9
$PELEVATION
 40
0.0
  9
$THICKNESS
 40
0.0
  9
$LIMCHECK
 70
     0
  9
$BLIPMODE
 70
     0
  9
$CHAMFERA
 40
0.0
  9
$CHAMFERB
 40
0.0
  9
$SKPOLY
 70
     0
  9
$TDCREATE
 40
2455397.867048610933125
  9
$TDUPDATE
 40
2460243.3250925932079554
  9
$TDINDWG
 40
1.5385010764
  9
$TDUSRTIMER
 40
1.5385010764
  9
$USRTIMER
 70
     1
  9
$ANGBASE
 50
0.0
  9
$ANGDIR
 70
     0
  9
$PDMODE
 70
     0
  9
$PDSIZE
 40
0.0
  9
$PLINEWID
 40
0.0
  9
$COORDS
 70
     1
  9
$SPLFRAME
 70
     0
  9
$SPLINETYPE
 70
     6
  9
$SPLINESEGS
 70
     8
  9
$ATTDIA
 70
     1
  9
$ATTREQ
 70
     1
  9
$HANDLING
 70
     1
  9
$HANDSEED
  5
10EC1
  9
$SURFTAB1
 70
     6
  9
$SURFTAB2
 70
     6
  9
$SURFTYPE
 70
     6
  9
$SURFU
 70
     6
  9
$SURFV
 70
     6
  9
$UCSNAME
  2

  9
$UCSORG
 10
0.0
 20
0.0
 30
0.0
  9
$UCSXDIR
 10
1.0
 20
0.0
 30
0.0
  9
$UCSYDIR
 10
0.0
 20
1.0
 30
0.0
  9
$PUCSNAME
  2

  9
$PUCSORG
 10
0.0
 20
0.0
 30
0.0
  9
$PUCSXDIR
 10
1.0
 20
0.0
 30
0.0
  9
$PUCSYDIR
 10
0.0
 20
1.0
 30
0.0
  9
$USERI1
 70
     0
  9
$USERI2
 70
     0
  9
$USERI3
 70
     0
  9
$USERI4
 70
     0
  9
$USERI5
 70
     0
  9
$USERR1
 40
0.0
  9
$USERR2
 40
0.0
  9
$USERR3
 40
0.0
  9
$USERR4
 40
0.0
  9
$USERR5
 40
0.0
  9
$WORLDVIEW
 70
     1
  9
$SHADEDGE
 70
     3
  9
$SHADEDIF
 70
    70
  9
$TILEMODE
 70
     1
  9
$MAXACTVP
 70
    16
  9
$PLIMCHECK
 70
     0
  9
$PEXTMIN
 10
1.0000000000000000E+20
 20
1.0000000000000000E+20
 30
1.0000000000000000E+20
  9
$PEXTMAX
 10
-1.0000000000000000E+20
 20
-1.0000000000000000E+20
 30
-1.0000000000000000E+20
  9
$PLIMMIN
 10
-0.2015103965117078
 20
-0.2558095397212128
  9
$PLIMMAX
 10
209.7984896034882922
 20
296.7441904602787872
  9
$UNITMODE
 70
     0
  9
$VISRETAIN
 70
     0
  9
$PLINEGEN
 70
     0
  9
$PSLTSCALE
 70
     0
  0
ENDSEC
  0
SECTION
  2
TABLES
  0
TABLE
  2
VPORT
 70
     1
  0
VPORT
  2
*ACTIVE
 70
     0
 10
0.0
 20
0.0
 11
1.0
 21
1.0
 12
18.6104631835416399
 22
33.3561577886396634
 13
0.0
 23
0.0
 14
1.0
 24
1.0
 15
10.0
 25
10.0
 16
0.0000000000002034
 26
0.0
 36
916.5906214321398693
 17
7.8895368164583948
 27
-119.856157788639706
 37
0.0000000000000082
 40
253.2890025575449897
 41
1.8720136518771331
 42
50.0
 43
0.0
 44
0.0
 50
0.0
 51
0.0
 71
     0
 72
  1500
 73
     1
 74
     0
 75
     0
 76
     0
 77
     0
 78
     0
  0
ENDTAB
  0
TABLE
  2
LTYPE
 70
     6
  0
LTYPE
  2
CONTINUOUS
 70
     0
  3
Solid line
 72
    65
 73
     0
 40
0.0
  0
LTYPE
  2
STRICHPUNKT
 70
     0
  3
__ . __ . __ . __ . __ . __ . __ . __ . __ . __
 72
    65
 73
     4
 40
1.0
 49
0.5
 49
-0.25
 49
0.0
 49
-0.25
  0
LTYPE
  2
AUSGEZOGEN
 70
     0
  3
Ausgezogene Linie
 72
    65
 73
     0
 40
0.0
  0
LTYPE
  2
VERDECKT
 70
     0
  3
Verdeckt __ __ __ __ __ __ __ __ __ __ __ __ __
 72
    65
 73
     2
 40
0.375
 49
0.25
 49
-0.125
  0
ENDTAB
  0
TABLE
  2
LAYER
 70
    14
  0
LAYER
  2
0
 70
     0
 62
     7
  6
CONTINUOUS
  0
LAYER
  2
STEMPEL
 70
     0
 62
     3
  6
CONTINUOUS
  0
LAYER
  2
DEFPOINTS
 70
     0
 62
     7
  6
AUSGEZOGEN
  0
LAYER
  2
ADSK_ASSOC_ENTITY_BACKUPS
 70
     1
 62
    -7
  6
CONTINUOUS
  0
ENDTAB
  0
TABLE
  2
STYLE
 70
     4
  0
STYLE
  2
STANDARD
 70
     0
 40
0.0
 41
0.8
 50
0.0
 71
     0
 42
3.5
  3
simplex.shx
  4

  0
ENDTAB
  0
TABLE
  2
VIEW
 70
     2
  0
ENDTAB
  0
TABLE
  2
UCS
 70
     0
  0
ENDTAB
  0
TABLE
  2
APPID
 70
    28
  0
APPID
  2
ACAD
 70
     0
  0
APPID
  2
ACAD_NAV_VCDISPLAY
 70
     0
  0
APPID
  2
GRADIENTCOLOR1ACI
 70
     0
  0
APPID
  2
GRADIENTCOLOR2ACI
 70
     0
  0
APPID
  2
ACAD_DSTYLE_DIMRADIAL_EXTENSION
 70
     0
  0
APPID
  2
ACADANNOMONITORALERTICONDI
 70
     0
  0
APPID
  2
ACAD_EXEMPT_FROM_CAD_STANDARDS
 70
     0
  0
APPID
  2
ACAD_MLEADERVER
 70
     0
  0
APPID
  2
ACAD_PSEXT
 70
     0
  0
APPID
  2
ACAECLAYERSTANDARD
 70
     0
  0
APPID
  2
ACAUTHENVIRON
 70
     0
  0
APPID
  2
ACCMTRANSPARENCY
 70
     0
  0
APPID
  2
ACAD_STEPID
 70
     0
  0
APPID
  2
ACSYNERGY
 70
     0
  0
APPID
  2
SYNERGY_BODY_TBR_ID
 70
     0
  0
APPID
  2
ACAD_VIEW_EDGE_ID
 70
     0
  0
APPID
  2
ACAD_MODELDOC_XFORM
 70
     0
  0
APPID
  2
ACAD_DIMASSOC_CALC_DIMLFAC
 70
     0
  0
APPID
  2
ACAD_DIMASSOC_DIMLFAC
 70
     0
  0
APPID
  2
ACAD_DIMASSOC_OVERRIDDEN_D
 70
     0
  0
APPID
  2
ACSYNERGYSKETCH
 70
     0
  0
APPID
  2
ACAD_DSTYLE_DIMJAG
 70
     0
  0
APPID
  2
ACAD_DSTYLE_DIMTALN
 70
     0
  0
APPID
  2
ACDBDYNAMICBLOCKGUID
 70
     0
  0
APPID
  2
ACAD_DSTYLE_DIMBREAK
 70
     0
  0
APPID
  2
PLOTTRANSPARENCY
 70
     0
  0
APPID
  2
ACADANNOPO
 70
     0
  0
APPID
  2
AcDbAttr
 70
     0
  0
ENDTAB
  0
TABLE
  2
DIMSTYLE
 70
     1
  0
DIMSTYLE
  2
LORO
 70
     0
  3

  4

  5

  6

  7

 40
1.0
 41
3.5
 42
1.0
 43
0.38
 44
1.0
 45
0.0
 46
0.0
 47
0.0
 48
0.000000001
140
3.5
141
0.09
142
0.0
143
25.3999999999999986
144
2.0
145
0.0
146
0.5
147
1.5
 71
     0
 72
     0
 73
     0
 74
     0
 75
     0
 76
     0
 77
     1
 78
     8
170
     0
171
     2
172
     1
173
     0
174
     0
175
     0
176
     0
177
     0
178
     1
  0
ENDTAB
  0
ENDSEC
  0
SECTION
  2
BLOCKS
  0
BLOCK
  8
0
  2
$MODEL_SPACE
 70
     0
 10
0.0
 20
0.0
 30
0.0
  3
$MODEL_SPACE
  1

  0
ENDBLK
  5
38
  8
0
  0
BLOCK
 67
     1
  8
0
  2
$PAPER_SPACE
 70
     0
 10
0.0
 20
0.0
 30
0.0
  3
$PAPER_SPACE
  1

  0
ENDBLK
  5
36
 67
     1
  8
0
  0
BLOCK
  8
0
  2
*S0
 70
     1
 10
0.0
 20
0.0
 30
0.0
  3
*S0
  1

  0
ENDBLK
  5
D6E
  8
0
  0
BLOCK
  8
0
  2
A$C3E7A49EC
 70
     0
 10
0.0
 20
0.0
 30
0.0
  3
A$C3E7A49EC
  1

  0
LINE
  5
103A8
  8
0
  6
CONTINUOUS
 62
     3
 10
-55.150635094610962
 20
1.4999999999999969
 30
-0.0000000000000003
 11
-40.1248052954777776
 21
1.5000000000000011
 31
-0.0000000000000003
210
0.0
220
1.0
230
-0.0000000000000002
  0
LINE
  5
103A9
  8
0
  6
CONTINUOUS
 62
     3
 10
-55.1506350946109478
 20
1.5000000000000051
 30
-0.0000000000000003
 11
-58.5000000000000071
 21
1.5000000000000051
 31
-0.0000000000000003
210
0.0
220
1.0
230
-0.0000000000000002
  0
LINE
  5
103AA
  8
0
  6
CONTINUOUS
 62
     3
 10
-58.5000000000000071
 20
3.5000000000000049
 30
-0.0000000000000008
 11
-55.1506350946109478
 21
3.5000000000000049
 31
-0.0000000000000008
210
0.0
220
1.0
230
-0.0000000000000002
  0
LINE
  5
103AB
  8
0
  6
CONTINUOUS
 62
     3
 10
-40.1248052954777705
 20
3.5000000000000022
 30
-0.0000000000000008
 11
-55.1506350946109478
 21
3.5000000000000062
 31
-0.0000000000000008
210
0.0
220
1.0
230
-0.0000000000000002
  0
LINE
  5
103AC
  8
0
  6
CONTINUOUS
 62
     3
 10
-55.1506350946109478
 20
1.500000000000004
 30
-0.0000000000000003
 11
-55.1506350946109478
 21
3.5000000000000062
 31
-0.0000000000000008
210
0.0
220
1.0
230
-0.0000000000000002
  0
ARC
  5
103AD
  8
0
  6
CONTINUOUS
 62
     3
 10
40.1248052954777705
 20
5.4999999999999982
 30
0.0
 40
4.0
210
0.0
220
-0.0000000000000002
230
-1.0
 50
187.8050253394069955
 51
270.0
  0
ARC
  5
103AE
  8
0
  6
CONTINUOUS
 62
     3
 10
-40.1248052954777705
 20
5.499999999999992
 30
-0.0000000000000012
 40
1.999999999999992
 50
270.0
 51
352.1949746605931182
  0
LINE
  5
103AF
  8
0
  6
CONTINUOUS
 62
     3
 10
55.150635094610827
 20
1.5000000000000051
 30
-0.0000000000000003
 11
58.4999999999999005
 21
1.5000000000000051
 31
-0.0000000000000003
210
0.0
220
1.0
230
-0.0000000000000002
  0
LINE
  5
103B0
  8
0
  6
CONTINUOUS
 62
     3
 10
55.1506350946108412
 20
1.4999999999999969
 30
-0.0000000000000003
 11
40.1248052954776568
 21
1.5000000000000011
 31
-0.0000000000000003
210
0.0
220
1.0
230
-0.0000000000000002
  0
LINE
  5
103B1
  8
0
  6
CONTINUOUS
 62
     3
 10
40.1248052954776497
 20
3.5000000000000022
 30
-0.0000000000000008
 11
55.150635094610827
 21
3.5000000000000062
 31
-0.0000000000000008
210
0.0
220
1.0
230
-0.0000000000000002
  0
LINE
  5
103B2
  8
0
  6
CONTINUOUS
 62
     3
 10
58.4999999999999005
 20
3.5000000000000049
 30
-0.0000000000000008
 11
55.150635094610827
 21
3.5000000000000049
 31
-0.0000000000000008
210
0.0
220
1.0
230
-0.0000000000000002
  0
LINE
  5
103B3
  8
0
  6
CONTINUOUS
 62
     3
 10
55.150635094610827
 20
1.500000000000004
 30
-0.0000000000000003
 11
55.150635094610827
 21
3.5000000000000062
 31
-0.0000000000000008
210
0.0
220
1.0
230
-0.0000000000000002
  0
ARC
  5
103B4
  8
0
  6
CONTINUOUS
 62
     3
 10
40.1248052954776497
 20
5.4999999999999982
 30
-0.0000000000000012
 40
4.0
 50
187.8050253394069955
 51
270.0
  0
ARC
  5
103B5
  8
0
  6
CONTINUOUS
 62
     3
 10
-0.0000000000001137
 20
-0.0000000000000028
 30
0.0
 40
36.5000000000000213
 50
7.8050253394071127
 51
172.1949746605926066
  0
ARC
  5
103B6
  8
0
  6
CONTINUOUS
 62
     3
 10
-40.1248052954776497
 20
5.499999999999992
 30
0.0
 40
1.999999999999992
210
0.0
220
-0.0000000000000002
230
-1.0
 50
270.0
 51
352.1949746605931182
  0
ARC
  5
103B7
  8
0
  6
CONTINUOUS
 62
     3
 10
-0.0000000000001137
 20
-0.0000000000000063
 30
0.0
 40
38.5000000000000071
 50
7.8050253394071261
 51
172.1949746605926066
  0
LINE
  5
103B8
  8
0
  6
CONTINUOUS
 62
     3
 10
-58.5000000000000071
 20
3.5000000000000062
 30
-0.0000000000000008
 11
-58.5000000000000071
 21
1.500000000000004
 31
-0.0000000000000003
210
0.0
220
1.0
230
-0.0000000000000002
  0
ARC
  5
103B9
  8
0
  6
CONTINUOUS
 62
     3
 10
-41.133927602406267
 20
5.499999999999992
 30
-0.0000000000000012
 40
1.999999999999992
 50
270.0
 51
352.3841771288620066
  0
LINE
  5
103BA
  8
0
  6
CONTINUOUS
 62
     3
 10
58.4999999999999005
 20
1.5000000000000051
 30
-0.0000000000000003
 11
58.4999999999999005
 21
3.5000000000000062
 31
-0.0000000000000008
210
0.0
220
1.0
230
-0.0000000000000002
  0
ARC
  5
103BB
  8
0
  6
CONTINUOUS
 62
     3
 10
-41.1339276024061533
 20
5.499999999999992
 30
0.0
 40
1.999999999999992
210
0.0
220
-0.0000000000000002
230
-1.0
 50
270.0
 51
352.3841771288620066
  0
ARC
  5
103BC
  8
0
  6
CONTINUOUS
 62
     3
 10
0.0000000000001172
 20
-0.0000000000000142
 30
0.0
 40
39.5000000000000071
210
0.0
220
-0.0000000000000002
230
-1.0
 50
7.615822871138449
 51
172.384177128861495
  0
LINE
  5
103BD
  8
0
  6
CONTINUOUS
 62
     3
 10
-52.75
 20
-4.9999999999999778
 30
0.0000000000000011
 11
-45.25
 21
-4.9999999999999778
 31
0.0000000000000011
210
0.0
220
1.0
230
-0.0000000000000002
  0
LINE
  5
103BE
  8
0
  6
CONTINUOUS
 62
     3
 10
-40.1248052954777705
 20
-3.5
 30
0.0000000000000008
 11
-55.1506350946109478
 21
-3.500000000000004
 31
0.0000000000000008
210
0.0
220
1.0
230
-0.0000000000000002
  0
LINE
  5
103BF
  8
0
  6
CONTINUOUS
 62
     3
 10
-58.5000000000000071
 20
-3.5000000000000049
 30
0.0000000000000008
 11
-55.1506350946109478
 21
-3.5000000000000031
 31
0.0000000000000008
210
0.0
220
1.0
230
-0.0000000000000002
  0
LINE
  5
103C0
  8
0
  6
CONTINUOUS
 62
     3
 10
52.75
 20
-4.9999999999999778
 30
0.0000000000000011
 11
45.25
 21
-4.9999999999999778
 31
0.0000000000000011
210
0.0
220
1.0
230
-0.0000000000000002
  0
LINE
  5
103C1
  8
0
  6
CONTINUOUS
 62
     3
 10
55.150635094610891
 20
-3.4999999999999751
 30
0.0000000000000008
 11
58.5
 21
-3.4999999999999751
 31
0.0000000000000008
210
0.0
220
1.0
230
-0.0000000000000002
  0
LINE
  5
103C2
  8
0
  6
CONTINUOUS
 62
     3
 10
55.150635094610891
 20
-3.4999999999999738
 30
0.0000000000000008
 11
40.1248052954777776
 21
-3.4999999999999778
 31
0.0000000000000008
210
0.0
220
1.0
230
-0.0000000000000002
  0
ARC
  5
103C3
  8
0
  6
CONTINUOUS
 62
     3
 10
40.1248052954777918
 20
-5.4999999999999707
 30
0.0000000000000012
 40
1.999999999999992
 50
90.0
 51
172.1949746605930898
  0
ARC
  5
103C4
  8
0
  6
CONTINUOUS
 62
     3
 10
0.0000000000000213
 20
0.0000000000000221
 30
0.0
 40
38.5000000000000426
210
0.0
220
-0.0000000000000002
230
-1.0
 50
187.8050253394071092
 51
245.9579240942439071
  0
ARC
  5
103C5
  8
0
  6
CONTINUOUS
 62
     3
 10
16.4999999999999787
 20
-36.9864840178139005
 30
0.0000000000000082
 40
2.0000000000000062
 50
114.0420759057561071
 51
179.999999999999801
  0
ARC
  5
103C6
  8
0
  6
CONTINUOUS
 62
     3
 10
-16.4999999999999609
 20
-36.9864840178138721
 30
0.0000000000000082
 40
1.999999999999978
 50
359.9999999999996021
 51
65.9579240942442198
  0
ARC
  5
103C7
  8
0
  6
CONTINUOUS
 62
     3
 10
0.0
 20
0.0000000000000008
 30
0.0
 40
38.5000000000000071
210
0.0
220
-0.0000000000000002
230
-1.0
 50
294.0420759057561781
 51
352.1949746605928908
  0
ARC
  5
103C8
  8
0
  6
CONTINUOUS
 62
     3
 10
-40.1248052954777705
 20
-5.4999999999999911
 30
0.0000000000000012
 40
1.9999999999999949
 50
7.805025339406872
 51
90.0000000000000284
  0
ARC
  5
103C9
  8
0
  6
CONTINUOUS
 62
     3
 10
-40.1248052954777918
 20
-5.4999999999999742
 30
0.0
 40
4.0
210
0.0
220
-0.0000000000000002
230
-1.0
 50
7.8050253394070372
 51
90.0000000000000284
  0
ARC
  5
103CA
  8
0
  6
CONTINUOUS
 62
     3
 10
0.0000000000000071
 20
0.0000000000000079
 30
0.0
 40
36.5000000000000213
210
0.0
220
-0.0000000000000002
230
-1.0
 50
187.8050253394069955
 51
245.9579240942437934
  0
ARC
  5
103CB
  8
0
  6
CONTINUOUS
 62
     3
 10
-16.5000000000000213
 20
-36.9864840178138792
 30
0.0
 40
4.0000000000000098
210
0.0
220
-0.0000000000000002
230
-1.0
 50
0.0
 51
65.9579240942436513
  0
LINE
  5
103CC
  8
0
  6
CONTINUOUS
 62
     3
 10
12.5000000000000107
 20
-36.9864840178138792
 30
0.0000000000000082
 11
12.5000000000000107
 21
-49.5000000000000213
 31
0.000000000000011
210
0.0
220
1.0
230
-0.0000000000000002
  0
ARC
  5
103CD
  8
0
  6
CONTINUOUS
 62
     3
 10
-10.4999999999999805
 20
-49.5000000000000213
 30
0.0
 40
2.0000000000000009
210
0.0
220
-0.0000000000000002
230
-1.0
 50
180.0
 51
269.9999999999998863
  0
LINE
  5
103CE
  8
0
  6
CONTINUOUS
 62
     3
 10
10.4999999999999893
 20
-51.5000000000000284
 30
0.0000000000000114
 11
-10.4999999999999805
 21
-51.5000000000000426
 31
0.0000000000000114
210
0.0
220
1.0
230
-0.0000000000000002
  0
ARC
  5
103CF
  8
0
  6
CONTINUOUS
 62
     3
 10
10.4999999999999805
 20
-49.5000000000000284
 30
0.0
 40
2.0
210
0.0
220
-0.0000000000000002
230
-1.0
 50
270.0
 51
359.9999999999998863
  0
LINE
  5
103D0
  8
0
  6
CONTINUOUS
 62
     3
 10
-12.4999999999999893
 20
-49.5000000000000284
 30
0.000000000000011
 11
-12.4999999999999893
 21
-36.9864840178138934
 31
0.0000000000000082
210
0.0
220
1.0
230
-0.0000000000000002
  0
ARC
  5
103D1
  8
0
  6
CONTINUOUS
 62
     3
 10
16.5
 20
-36.9864840178138934
 30
0.0
 40
4.0000000000000089
210
0.0
220
-0.0000000000000002
230
-1.0
 50
114.042075905756306
 51
179.9999999999998863
  0
ARC
  5
103D2
  8
0
  6
CONTINUOUS
 62
     3
 10
-0.0000000000000213
 20
0.0000000000000203
 30
0.0
 40
36.5000000000000426
210
0.0
220
-0.0000000000000002
230
-1.0
 50
294.0420759057562918
 51
352.1949746605927771
  0
ARC
  5
103D3
  8
0
  6
CONTINUOUS
 62
     3
 10
40.1248052954777705
 20
-5.4999999999999947
 30
0.0
 40
3.999999999999996
210
0.0
220
-0.0000000000000002
230
-1.0
 50
90.0
 51
172.1949746605928908
  0
LINE
  5
103D4
  8
0
  6
CONTINUOUS
 62
     3
 10
-40.1248052954777705
 20
-1.4999999999999989
 30
0.0000000000000003
 11
-55.150635094610962
 21
-1.5000000000000031
 31
0.0000000000000003
210
0.0
220
1.0
230
-0.0000000000000002
  0
LINE
  5
103D5
  8
0
  6
CONTINUOUS
 62
     3
 10
-55.1506350946109478
 20
-1.5000000000000031
 30
0.0000000000000003
 11
-55.1506350946109478
 21
-3.500000000000004
 31
0.0000000000000008
210
0.0
220
1.0
230
-0.0000000000000002
  0
LINE
  5
103D6
  8
0
  6
CONTINUOUS
 62
     3
 10
-14.4999999999999893
 20
-36.9864840178138934
 30
0.0000000000000082
 11
-14.4999999999999805
 21
-49.5000000000000284
 31
0.000000000000011
210
0.0
220
1.0
230
-0.0000000000000002
  0
ARC
  5
103D7
  8
0
  6
CONTINUOUS
 62
     3
 10
-10.4999999999999893
 20
-49.5000000000000426
 30
0.000000000000011
 40
3.999999999999996
 50
179.9999999999998863
 51
270.0
  0
LINE
  5
103D8
  8
0
  6
CONTINUOUS
 62
     3
 10
-10.4999999999999805
 20
-53.5000000000000426
 30
0.0000000000000119
 11
10.4999999999999893
 21
-53.5000000000000213
 31
0.0000000000000119
210
0.0
220
1.0
230
-0.0000000000000002
  0
ARC
  5
103D9
  8
0
  6
CONTINUOUS
 62
     3
 10
10.4999999999999805
 20
-49.5000000000000213
 30
0.000000000000011
 40
4.0
 50
270.0
 51
359.9999999999997726
  0
LINE
  5
103DA
  8
0
  6
CONTINUOUS
 62
     3
 10
14.4999999999999805
 20
-49.5000000000000213
 30
0.000000000000011
 11
14.4999999999999805
 21
-36.9864840178139005
 31
0.0000000000000082
210
0.0
220
1.0
230
-0.0000000000000002
  0
LINE
  5
103DB
  8
0
  6
CONTINUOUS
 62
     3
 10
55.150635094610891
 20
-1.499999999999974
 30
0.0000000000000003
 11
55.150635094610891
 21
-3.4999999999999751
 31
0.0000000000000008
210
0.0
220
1.0
230
-0.0000000000000002
  0
LINE
  5
103DC
  8
0
  6
CONTINUOUS
 62
     3
 10
55.150635094610891
 20
-1.499999999999974
 30
0.0000000000000003
 11
40.1248052954777776
 21
-1.4999999999999769
 31
0.0000000000000003
210
0.0
220
1.0
230
-0.0000000000000002
  0
LINE
  5
103DD
  8
0
  6
CONTINUOUS
 62
     3
 10
58.5
 20
-1.499999999999974
 30
0.0000000000000003
 11
55.150635094610891
 21
-1.499999999999974
 31
0.0000000000000003
210
0.0
220
1.0
230
-0.0000000000000002
  0
LINE
  5
103DE
  8
0
  6
CONTINUOUS
 62
     3
 10
-55.1506350946109478
 20
-1.5000000000000031
 30
0.0000000000000003
 11
-58.5000000000000071
 21
-1.5000000000000051
 31
0.0000000000000003
210
0.0
220
1.0
230
-0.0000000000000002
  0
LINE
  5
103DF
  8
0
  6
CONTINUOUS
 62
     3
 10
-45.25
 20
-3.9999999999999769
 30
0.0000000000000009
 11
-45.25
 21
-4.9999999999999778
 31
0.0000000000000011
210
0.0
220
1.0
230
-0.0000000000000002
  0
LINE
  5
103E0
  8
0
  6
CONTINUOUS
 62
     3
 10
-52.75
 20
-3.9999999999999769
 30
0.0000000000000009
 11
-52.75
 21
-4.9999999999999769
 31
0.0000000000000011
210
0.0
220
1.0
230
-0.0000000000000002
  0
ARC
  5
103E1
  8
0
  6
CONTINUOUS
 62
     3
 10
44.75
 20
-3.99999999999998
 30
0.0
 40
0.5
210
0.0
220
-0.0000000000000002
230
-1.0
 50
0.0000000000002544
 51
89.9999999999992042
  0
ARC
  5
103E2
  8
0
  6
CONTINUOUS
 62
     3
 10
53.25
 20
-3.9999999999999849
 30
0.0
 40
0.5000000000000058
210
0.0
220
-0.0000000000000002
230
-1.0
 50
90.0
 51
179.9999999999990905
  0
LINE
  5
103E3
  8
0
  6
CONTINUOUS
 62
     3
 10
45.25
 20
-4.9999999999999778
 30
0.0000000000000011
 11
45.25
 21
-3.9999999999999769
 31
0.0000000000000009
210
0.0
220
1.0
230
-0.0000000000000002
  0
LINE
  5
103E4
  8
0
  6
CONTINUOUS
 62
     3
 10
52.75
 20
-4.9999999999999769
 30
0.0000000000000011
 11
52.75
 21
-3.9999999999999769
 31
0.0000000000000009
210
0.0
220
1.0
230
-0.0000000000000002
  0
ARC
  5
103E5
  8
0
  6
CONTINUOUS
 62
     3
 10
-53.25
 20
-3.9999999999999849
 30
0.0
 40
0.5
210
0.0
220
-0.0000000000000002
230
-1.0
 50
0.0000000000008651
 51
90.0
  0
ARC
  5
103E6
  8
0
  6
CONTINUOUS
 62
     3
 10
-44.75
 20
-3.99999999999998
 30
0.0
 40
0.5000000000000006
210
0.0
220
-0.0000000000000002
230
-1.0
 50
90.00000000000081
 51
179.9999999999996874
  0
ARC
  5
103E7
  8
0
  6
CONTINUOUS
 62
     3
 10
41.133927602406267
 20
-5.499999999999976
 30
0.0000000000000012
 40
1.9999999999999969
 50
90.0
 51
172.3841771288616087
  0
ARC
  5
103E8
  8
0
  6
CONTINUOUS
 62
     3
 10
-0.0000000000000071
 20
0.0000000000000036
 30
0.0
 40
39.5000000000000071
210
0.0
220
-0.0000000000000002
230
-1.0
 50
187.615822871138306
 51
246.5723734912807004
  0
ARC
  5
103E9
  8
0
  6
CONTINUOUS
 62
     3
 10
-16.4999999999999787
 20
-38.0788655293195717
 30
0.0
 40
2.0000000000000031
210
0.0
220
-0.0000000000000002
230
-1.0
 50
0.0
 51
66.5723734912806009
  0
ARC
  5
103EA
  8
0
  6
CONTINUOUS
 62
     3
 10
-16.5
 20
-38.0788655293195717
 30
0.0000000000000085
 40
2.0000000000000102
 50
0.0000000000002036
 51
66.5723734912804446
  0
ARC
  5
103EB
  8
0
  6
CONTINUOUS
 62
     3
 10
0.0000000000000071
 20
-0.0000000000000036
 30
0.0
 40
39.5000000000000071
210
0.0
220
-0.0000000000000002
230
-1.0
 50
293.4276265087192996
 51
352.3841771288616087
  0
ARC
  5
103EC
  8
0
  6
CONTINUOUS
 62
     3
 10
41.133927602406267
 20
-5.499999999999992
 30
0.0
 40
1.999999999999992
210
0.0
220
-0.0000000000000002
230
-1.0
 50
89.999999999999801
 51
172.3841771288618077
  0
LINE
  5
103ED
  8
0
  6
CONTINUOUS
 62
     3
 10
58.5
 20
-1.499999999999974
 30
0.0000000000000003
 11
58.5
 21
-3.4999999999999738
 31
0.0000000000000008
210
0.0
220
1.0
230
-0.0000000000000002
  0
LINE
  5
103EE
  8
0
  6
CONTINUOUS
 62
     3
 10
-58.5000000000000071
 20
-1.5000000000000051
 30
0.0000000000000003
 11
-58.5000000000000071
 21
-3.5000000000000062
 31
0.0000000000000008
210
0.0
220
1.0
230
-0.0000000000000002
  0
LINE
  5
103EF
  8
0
  6
CONTINUOUS
 62
     3
 10
-51.5
 20
10.0000000000000693
 30
-0.0000000000000022
 11
-46.5
 21
10.0000000000000693
 31
-0.0000000000000022
210
0.0
220
1.0
230
-0.0000000000000002
  0
LINE
  5
103F0
  8
0
  6
CONTINUOUS
 62
     3
 10
-52.0
 20
9.5000000000000711
 30
-0.0000000000000021
 11
-46.0
 21
9.5000000000000711
 31
-0.0000000000000021
210
0.0
220
1.0
230
-0.0000000000000002
  0
LINE
  5
103F1
  8
0
  6
CONTINUOUS
 62
     3
 10
-51.5
 20
9.0000000000000622
 30
-0.000000000000002
 11
-46.5
 21
9.0000000000000622
 31
-0.000000000000002
210
0.0
220
1.0
230
-0.0000000000000002
  0
LINE
  5
103F2
  8
0
  6
CONTINUOUS
 62
     3
 10
-52.0
 20
8.5000000000000657
 30
-0.0000000000000019
 11
-46.0
 21
8.5000000000000657
 31
-0.0000000000000019
210
0.0
220
1.0
230
-0.0000000000000002
  0
LINE
  5
103F3
  8
0
  6
CONTINUOUS
 62
     3
 10
-51.5
 20
8.0000000000000622
 30
-0.0000000000000018
 11
-46.5
 21
8.0000000000000622
 31
-0.0000000000000018
210
0.0
220
1.0
230
-0.0000000000000002
  0
LINE
  5
103F4
  8
0
  6
CONTINUOUS
 62
     3
 10
-52.0
 20
7.5000000000000631
 30
-0.0000000000000017
 11
-46.0
 21
7.5000000000000631
 31
-0.0000000000000017
210
0.0
220
1.0
230
-0.0000000000000002
  0
LINE
  5
103F5
  8
0
  6
CONTINUOUS
 62
     3
 10
-51.5
 20
7.000000000000056
 30
-0.0000000000000016
 11
-46.5
 21
7.0000000000000577
 31
-0.0000000000000016
210
0.0
220
1.0
230
-0.0000000000000002
  0
LINE
  5
103F6
  8
0
  6
CONTINUOUS
 62
     3
 10
-52.0
 20
6.5000000000000577
 30
-0.0000000000000014
 11
-46.0
 21
6.5000000000000604
 31
-0.0000000000000014
210
0.0
220
1.0
230
-0.0000000000000002
  0
LINE
  5
103F7
  8
0
  6
CONTINUOUS
 62
     3
 10
-51.5
 20
6.0000000000000551
 30
-0.0000000000000013
 11
-46.5
 21
6.0000000000000551
 31
-0.0000000000000013
210
0.0
220
1.0
230
-0.0000000000000002
  0
LINE
  5
103F8
  8
0
  6
CONTINUOUS
 62
     3
 10
-52.0
 20
5.5000000000000551
 30
-0.0000000000000012
 11
-46.0
 21
5.5000000000000551
 31
-0.0000000000000012
210
0.0
220
1.0
230
-0.0000000000000002
  0
LINE
  5
103F9
  8
0
  6
CONTINUOUS
 62
     3
 10
-51.5
 20
5.0000000000000506
 30
-0.0000000000000011
 11
-46.5
 21
5.0000000000000506
 31
-0.0000000000000011
210
0.0
220
1.0
230
-0.0000000000000002
  0
LINE
  5
103FA
  8
0
  6
CONTINUOUS
 62
     3
 10
-52.0
 20
4.5000000000000533
 30
-0.000000000000001
 11
-46.0
 21
4.5000000000000533
 31
-0.000000000000001
210
0.0
220
1.0
230
-0.0000000000000002
  0
LINE
  5
103FB
  8
0
  6
CONTINUOUS
 62
     3
 10
-51.5
 20
4.0000000000000462
 30
-0.0000000000000009
 11
-46.5
 21
4.0000000000000462
 31
-0.0000000000000009
210
0.0
220
1.0
230
-0.0000000000000002
  0
LINE
  5
103FC
  8
0
  6
CONTINUOUS
 62
     3
 10
-51.5
 20
1.0000000000000331
 30
-0.0000000000000002
 11
-46.5
 21
1.0000000000000331
 31
-0.0000000000000002
210
0.0
220
1.0
230
-0.0000000000000002
  0
LINE
  5
103FD
  8
0
  6
CONTINUOUS
 62
     3
 10
-52.0
 20
0.5000000000000357
 30
-0.0000000000000001
 11
-46.0
 21
0.5000000000000357
 31
-0.0000000000000001
210
0.0
220
1.0
230
-0.0000000000000002
  0
LINE
  5
103FE
  8
0
  6
CONTINUOUS
 62
     3
 10
-51.5
 20
0.0000000000000302
 30
0.0
 11
-46.5
 21
0.0000000000000302
 31
0.0
210
0.0
220
1.0
230
-0.0000000000000002
  0
LINE
  5
103FF
  8
0
  6
CONTINUOUS
 62
     3
 10
-52.0
 20
-0.4999999999999682
 30
0.0000000000000001
 11
-46.0
 21
-0.4999999999999682
 31
0.0000000000000001
210
0.0
220
1.0
230
-0.0000000000000002
  0
LINE
  5
10400
  8
0
  6
CONTINUOUS
 62
     3
 10
-51.5
 20
-0.9999999999999717
 30
0.0000000000000002
 11
-46.5
 21
-0.9999999999999717
 31
0.0000000000000002
210
0.0
220
1.0
230
-0.0000000000000002
  0
LINE
  5
10401
  8
0
  6
CONTINUOUS
 62
     3
 10
-52.0
 20
-5.4999999999999858
 30
0.0000000000000012
 11
-46.0
 21
-5.4999999999999858
 31
0.0000000000000012
210
0.0
220
1.0
230
-0.0000000000000002
  0
LINE
  5
10402
  8
0
  6
CONTINUOUS
 62
     3
 10
-51.5
 20
-5.9999999999999902
 30
0.0000000000000013
 11
-46.5
 21
-5.9999999999999902
 31
0.0000000000000013
210
0.0
220
1.0
230
-0.0000000000000002
  0
LINE
  5
10403
  8
0
  6
CONTINUOUS
 62
     3
 10
-52.0
 20
-6.4999999999999911
 30
0.0000000000000014
 11
-46.0
 21
-6.4999999999999911
 31
0.0000000000000014
210
0.0
220
1.0
230
-0.0000000000000002
  0
LINE
  5
10404
  8
0
  6
CONTINUOUS
 62
     3
 10
-51.5
 20
-6.9999999999999982
 30
0.0000000000000016
 11
-46.5
 21
-6.9999999999999982
 31
0.0000000000000016
210
0.0
220
1.0
230
-0.0000000000000002
  0
LINE
  5
10405
  8
0
  6
CONTINUOUS
 62
     3
 10
-52.0
 20
-7.4999999999999938
 30
0.0000000000000017
 11
-46.0
 21
-7.4999999999999938
 31
0.0000000000000017
210
0.0
220
1.0
230
-0.0000000000000002
  0
LINE
  5
10406
  8
0
  6
CONTINUOUS
 62
     3
 10
-51.5
 20
-8.0000000000000018
 30
0.0000000000000018
 11
-46.5
 21
-8.0000000000000018
 31
0.0000000000000018
210
0.0
220
1.0
230
-0.0000000000000002
  0
LINE
  5
10407
  8
0
  6
CONTINUOUS
 62
     3
 10
-52.0
 20
-8.4999999999999982
 30
0.0000000000000019
 11
-46.0
 21
-8.4999999999999982
 31
0.0000000000000019
210
0.0
220
1.0
230
-0.0000000000000002
  0
LINE
  5
10408
  8
0
  6
CONTINUOUS
 62
     3
 10
-51.5
 20
-9.0000000000000018
 30
0.000000000000002
 11
-46.5
 21
-9.0000000000000018
 31
0.000000000000002
210
0.0
220
1.0
230
-0.0000000000000002
  0
LINE
  5
10409
  8
0
  6
CONTINUOUS
 62
     3
 10
-52.0
 20
-9.5000000000000018
 30
0.0000000000000021
 11
-46.0
 21
-9.5000000000000018
 31
0.0000000000000021
210
0.0
220
1.0
230
-0.0000000000000002
  0
LINE
  5
1040A
  8
0
  6
CONTINUOUS
 62
     3
 10
-51.5
 20
-10.0
 30
0.0000000000000022
 11
-46.5
 21
-10.0
 31
0.0000000000000022
210
0.0
220
1.0
230
-0.0000000000000002
  0
LINE
  5
1040B
  8
0
  6
CONTINUOUS
 62
     3
 10
-51.2726159463500792
 20
13.2488919252407005
 30
-0.0000000000000029
 11
-50.1904178766595592
 21
18.1303719608403711
 31
-0.000000000000004
210
0.0
220
1.0
230
-0.0000000000000002
  0
LINE
  5
1040C
  8
0
  6
CONTINUOUS
 62
     3
 10
-46.5
 20
10.0000000000000693
 30
-0.0000000000000022
 11
-46.0
 21
9.5000000000000728
 31
-0.0000000000000021
210
0.0
220
1.0
230
-0.0000000000000002
  0
LINE
  5
1040D
  8
0
  6
CONTINUOUS
 62
     3
 10
-51.5
 20
10.0000000000000693
 30
-0.0000000000000022
 11
-52.0
 21
9.5000000000000728
 31
-0.0000000000000021
210
0.0
220
1.0
230
-0.0000000000000002
  0
LINE
  5
1040E
  8
0
  6
CONTINUOUS
 62
     3
 10
-51.4999999999999929
 20
9.0000000000000693
 30
-0.000000000000002
 11
-52.0
 21
9.5000000000000693
 31
-0.0000000000000021
210
0.0
220
1.0
230
-0.0000000000000002
  0
LINE
  5
1040F
  8
0
  6
CONTINUOUS
 62
     3
 10
-46.5000000000000071
 20
9.0000000000000693
 30
-0.000000000000002
 11
-46.0
 21
9.5000000000000711
 31
-0.0000000000000021
210
0.0
220
1.0
230
-0.0000000000000002
  0
LINE
  5
10410
  8
0
  6
CONTINUOUS
 62
     3
 10
-46.5
 20
9.0000000000000622
 30
-0.000000000000002
 11
-46.0
 21
8.5000000000000675
 31
-0.0000000000000019
210
0.0
220
1.0
230
-0.0000000000000002
  0
LINE
  5
10411
  8
0
  6
CONTINUOUS
 62
     3
 10
-51.5
 20
9.0000000000000622
 30
-0.000000000000002
 11
-52.0
 21
8.5000000000000675
 31
-0.0000000000000019
210
0.0
220
1.0
230
-0.0000000000000002
  0
LINE
  5
10412
  8
0
  6
CONTINUOUS
 62
     3
 10
-51.5
 20
8.0000000000000657
 30
-0.0000000000000018
 11
-52.0
 21
8.5000000000000622
 31
-0.0000000000000019
210
0.0
220
1.0
230
-0.0000000000000002
  0
LINE
  5
10413
  8
0
  6
CONTINUOUS
 62
     3
 10
-46.5
 20
8.0000000000000657
 30
-0.0000000000000018
 11
-46.0
 21
8.5000000000000622
 31
-0.0000000000000019
210
0.0
220
1.0
230
-0.0000000000000002
  0
LINE
  5
10414
  8
0
  6
CONTINUOUS
 62
     3
 10
-46.5
 20
8.0000000000000604
 30
-0.0000000000000018
 11
-46.0
 21
7.5000000000000631
 31
-0.0000000000000017
210
0.0
220
1.0
230
-0.0000000000000002
  0
LINE
  5
10415
  8
0
  6
CONTINUOUS
 62
     3
 10
-51.5
 20
8.0000000000000604
 30
-0.0000000000000018
 11
-52.0
 21
7.5000000000000631
 31
-0.0000000000000017
210
0.0
220
1.0
230
-0.0000000000000002
  0
LINE
  5
10416
  8
0
  6
CONTINUOUS
 62
     3
 10
-51.5
 20
7.0000000000000613
 30
-0.0000000000000016
 11
-52.0
 21
7.5000000000000613
 31
-0.0000000000000017
210
0.0
220
1.0
230
-0.0000000000000002
  0
LINE
  5
10417
  8
0
  6
CONTINUOUS
 62
     3
 10
-46.5
 20
7.0000000000000613
 30
-0.0000000000000016
 11
-46.0
 21
7.5000000000000622
 31
-0.0000000000000017
210
0.0
220
1.0
230
-0.0000000000000002
  0
LINE
  5
10418
  8
0
  6
CONTINUOUS
 62
     3
 10
-46.5
 20
7.0000000000000568
 30
-0.0000000000000016
 11
-46.0
 21
6.5000000000000604
 31
-0.0000000000000014
210
0.0
220
1.0
230
-0.0000000000000002
  0
LINE
  5
10419
  8
0
  6
CONTINUOUS
 62
     3
 10
-51.5
 20
7.0000000000000568
 30
-0.0000000000000016
 11
-52.0
 21
6.5000000000000604
 31
-0.0000000000000014
210
0.0
220
1.0
230
-0.0000000000000002
  0
LINE
  5
1041A
  8
0
  6
CONTINUOUS
 62
     3
 10
-51.5
 20
6.0000000000000568
 30
-0.0000000000000013
 11
-52.0
 21
6.5000000000000577
 31
-0.0000000000000014
210
0.0
220
1.0
230
-0.0000000000000002
  0
LINE
  5
1041B
  8
0
  6
CONTINUOUS
 62
     3
 10
-46.5
 20
6.0000000000000568
 30
-0.0000000000000013
 11
-46.0
 21
6.5000000000000577
 31
-0.0000000000000014
210
0.0
220
1.0
230
-0.0000000000000002
  0
LINE
  5
1041C
  8
0
  6
CONTINUOUS
 62
     3
 10
-46.5
 20
6.0000000000000542
 30
-0.0000000000000013
 11
-46.0
 21
5.500000000000056
 31
-0.0000000000000012
210
0.0
220
1.0
230
-0.0000000000000002
  0
LINE
  5
1041D
  8
0
  6
CONTINUOUS
 62
     3
 10
-51.5
 20
6.0000000000000542
 30
-0.0000000000000013
 11
-52.0
 21
5.500000000000056
 31
-0.0000000000000012
210
0.0
220
1.0
230
-0.0000000000000002
  0
LINE
  5
1041E
  8
0
  6
CONTINUOUS
 62
     3
 10
-51.5
 20
5.0000000000000542
 30
-0.0000000000000011
 11
-52.0
 21
5.5000000000000542
 31
-0.0000000000000012
210
0.0
220
1.0
230
-0.0000000000000002
  0
LINE
  5
1041F
  8
0
  6
CONTINUOUS
 62
     3
 10
-46.5
 20
5.0000000000000542
 30
-0.0000000000000011
 11
-46.0
 21
5.5000000000000542
 31
-0.0000000000000012
210
0.0
220
1.0
230
-0.0000000000000002
  0
LINE
  5
10420
  8
0
  6
CONTINUOUS
 62
     3
 10
-46.5
 20
5.0000000000000497
 30
-0.0000000000000011
 11
-46.0
 21
4.5000000000000542
 31
-0.000000000000001
210
0.0
220
1.0
230
-0.0000000000000002
  0
LINE
  5
10421
  8
0
  6
CONTINUOUS
 62
     3
 10
-51.5
 20
5.0000000000000506
 30
-0.0000000000000011
 11
-52.0
 21
4.5000000000000533
 31
-0.000000000000001
210
0.0
220
1.0
230
-0.0000000000000002
  0
LINE
  5
10422
  8
0
  6
CONTINUOUS
 62
     3
 10
-51.4999999999999929
 20
4.0000000000000488
 30
-0.0000000000000009
 11
-52.0
 21
4.5000000000000506
 31
-0.000000000000001
210
0.0
220
1.0
230
-0.0000000000000002
  0
LINE
  5
10423
  8
0
  6
CONTINUOUS
 62
     3
 10
-46.5000000000000071
 20
4.0000000000000497
 30
-0.0000000000000009
 11
-46.0
 21
4.5000000000000506
 31
-0.000000000000001
210
0.0
220
1.0
230
-0.0000000000000002
  0
LINE
  5
10424
  8
0
  6
CONTINUOUS
 62
     3
 10
-46.5
 20
4.0000000000000453
 30
-0.0000000000000009
 11
-46.0
 21
3.500000000000048
 31
-0.0000000000000008
210
0.0
220
1.0
230
-0.0000000000000002
  0
LINE
  5
10425
  8
0
  6
CONTINUOUS
 62
     3
 10
-51.5
 20
4.0000000000000453
 30
-0.0000000000000009
 11
-52.0
 21
3.5000000000000471
 31
-0.0000000000000008
210
0.0
220
1.0
230
-0.0000000000000002
  0
LINE
  5
10426
  8
0
  6
CONTINUOUS
 62
     3
 10
-51.4999999999999929
 20
1.0000000000000371
 30
-0.0000000000000002
 11
-52.0
 21
1.500000000000038
 31
-0.0000000000000003
210
0.0
220
1.0
230
-0.0000000000000002
  0
LINE
  5
10427
  8
0
  6
CONTINUOUS
 62
     3
 10
-46.5000000000000071
 20
1.0000000000000371
 30
-0.0000000000000002
 11
-46.0
 21
1.5000000000000391
 31
-0.0000000000000003
210
0.0
220
1.0
230
-0.0000000000000002
  0
LINE
  5
10428
  8
0
  6
CONTINUOUS
 62
     3
 10
-46.5
 20
1.0000000000000331
 30
-0.0000000000000002
 11
-46.0
 21
0.500000000000037
 31
-0.0000000000000001
210
0.0
220
1.0
230
-0.0000000000000002
  0
LINE
  5
10429
  8
0
  6
CONTINUOUS
 62
     3
 10
-51.5
 20
1.0000000000000331
 30
-0.0000000000000002
 11
-52.0
 21
0.5000000000000364
 31
-0.0000000000000001
210
0.0
220
1.0
230
-0.0000000000000002
  0
LINE
  5
1042A
  8
0
  6
CONTINUOUS
 62
     3
 10
-51.4999999999999929
 20
0.000000000000034
 30
0.0
 11
-52.0
 21
0.5000000000000339
 31
-0.0000000000000001
210
0.0
220
1.0
230
-0.0000000000000002
  0
LINE
  5
1042B
  8
0
  6
CONTINUOUS
 62
     3
 10
-46.5000000000000071
 20
0.0000000000000345
 30
0.0
 11
-46.0
 21
0.5000000000000345
 31
-0.0000000000000001
210
0.0
220
1.0
230
-0.0000000000000002
  0
LINE
  5
1042C
  8
0
  6
CONTINUOUS
 62
     3
 10
-46.5
 20
0.0000000000000301
 30
0.0
 11
-46.0
 21
-0.4999999999999668
 31
0.0000000000000001
210
0.0
220
1.0
230
-0.0000000000000002
  0
LINE
  5
1042D
  8
0
  6
CONTINUOUS
 62
     3
 10
-51.5
 20
0.0000000000000297
 30
0.0
 11
-52.0
 21
-0.4999999999999675
 31
0.0000000000000001
210
0.0
220
1.0
230
-0.0000000000000002
  0
LINE
  5
1042E
  8
0
  6
CONTINUOUS
 62
     3
 10
-51.5
 20
-0.9999999999999689
 30
0.0000000000000002
 11
-52.0
 21
-0.49999999999997
 31
0.0000000000000001
210
0.0
220
1.0
230
-0.0000000000000002
  0
LINE
  5
1042F
  8
0
  6
CONTINUOUS
 62
     3
 10
-46.5
 20
-0.9999999999999682
 30
0.0000000000000002
 11
-46.0
 21
-0.4999999999999694
 31
0.0000000000000001
210
0.0
220
1.0
230
-0.0000000000000002
  0
LINE
  5
10430
  8
0
  6
CONTINUOUS
 62
     3
 10
-46.5
 20
-0.9999999999999726
 30
0.0000000000000002
 11
-46.0
 21
-1.49999999999997
 31
0.0000000000000003
210
0.0
220
1.0
230
-0.0000000000000002
  0
LINE
  5
10431
  8
0
  6
CONTINUOUS
 62
     3
 10
-51.5
 20
-0.9999999999999731
 30
0.0000000000000002
 11
-52.0
 21
-1.4999999999999709
 31
0.0000000000000003
210
0.0
220
1.0
230
-0.0000000000000002
  0
LINE
  5
10432
  8
0
  6
CONTINUOUS
 62
     3
 10
-46.5
 20
-4.9999999999999876
 30
0.0000000000000011
 11
-46.0
 21
-5.4999999999999849
 31
0.0000000000000012
210
0.0
220
1.0
230
-0.0000000000000002
  0
LINE
  5
10433
  8
0
  6
CONTINUOUS
 62
     3
 10
-51.5
 20
-4.9999999999999876
 30
0.0000000000000011
 11
-52.0
 21
-5.4999999999999849
 31
0.0000000000000012
210
0.0
220
1.0
230
-0.0000000000000002
  0
LINE
  5
10434
  8
0
  6
CONTINUOUS
 62
     3
 10
-51.5
 20
-5.9999999999999858
 30
0.0000000000000013
 11
-52.0
 21
-5.4999999999999876
 31
0.0000000000000012
210
0.0
220
1.0
230
-0.0000000000000002
  0
LINE
  5
10435
  8
0
  6
CONTINUOUS
 62
     3
 10
-46.5
 20
-5.9999999999999858
 30
0.0000000000000013
 11
-46.0
 21
-5.4999999999999876
 31
0.0000000000000012
210
0.0
220
1.0
230
-0.0000000000000002
  0
LINE
  5
10436
  8
0
  6
CONTINUOUS
 62
     3
 10
-46.5
 20
-5.9999999999999911
 30
0.0000000000000013
 11
-46.0
 21
-6.4999999999999902
 31
0.0000000000000014
210
0.0
220
1.0
230
-0.0000000000000002
  0
LINE
  5
10437
  8
0
  6
CONTINUOUS
 62
     3
 10
-51.5
 20
-5.9999999999999911
 30
0.0000000000000013
 11
-52.0
 21
-6.4999999999999902
 31
0.0000000000000014
210
0.0
220
1.0
230
-0.0000000000000002
  0
LINE
  5
10438
  8
0
  6
CONTINUOUS
 62
     3
 10
-51.4999999999999929
 20
-6.9999999999999929
 30
0.0000000000000016
 11
-52.0
 21
-6.499999999999992
 31
0.0000000000000014
210
0.0
220
1.0
230
-0.0000000000000002
  0
LINE
  5
10439
  8
0
  6
CONTINUOUS
 62
     3
 10
-46.5000000000000071
 20
-6.9999999999999929
 30
0.0000000000000016
 11
-46.0
 21
-6.499999999999992
 31
0.0000000000000014
210
0.0
220
1.0
230
-0.0000000000000002
  0
LINE
  5
1043A
  8
0
  6
CONTINUOUS
 62
     3
 10
-46.5
 20
-6.9999999999999973
 30
0.0000000000000016
 11
-46.0
 21
-7.4999999999999929
 31
0.0000000000000017
210
0.0
220
1.0
230
-0.0000000000000002
  0
LINE
  5
1043B
  8
0
  6
CONTINUOUS
 62
     3
 10
-51.5
 20
-6.9999999999999973
 30
0.0000000000000016
 11
-52.0
 21
-7.4999999999999929
 31
0.0000000000000017
210
0.0
220
1.0
230
-0.0000000000000002
  0
LINE
  5
1043C
  8
0
  6
CONTINUOUS
 62
     3
 10
-51.4999999999999929
 20
-7.9999999999999956
 30
0.0000000000000018
 11
-52.0
 21
-7.4999999999999956
 31
0.0000000000000017
210
0.0
220
1.0
230
-0.0000000000000002
  0
LINE
  5
1043D
  8
0
  6
CONTINUOUS
 62
     3
 10
-46.5000000000000071
 20
-7.9999999999999956
 30
0.0000000000000018
 11
-46.0
 21
-7.4999999999999956
 31
0.0000000000000017
210
0.0
220
1.0
230
-0.0000000000000002
  0
LINE
  5
1043E
  8
0
  6
CONTINUOUS
 62
     3
 10
-46.5
 20
-8.0
 30
0.0000000000000018
 11
-46.0
 21
-8.4999999999999964
 31
0.0000000000000019
210
0.0
220
1.0
230
-0.0000000000000002
  0
LINE
  5
1043F
  8
0
  6
CONTINUOUS
 62
     3
 10
-51.5
 20
-8.0
 30
0.0000000000000018
 11
-52.0
 21
-8.4999999999999964
 31
0.0000000000000019
210
0.0
220
1.0
230
-0.0000000000000002
  0
LINE
  5
10440
  8
0
  6
CONTINUOUS
 62
     3
 10
-51.5
 20
-9.0
 30
0.000000000000002
 11
-52.0
 21
-8.5000000000000018
 31
0.0000000000000019
210
0.0
220
1.0
230
-0.0000000000000002
  0
LINE
  5
10441
  8
0
  6
CONTINUOUS
 62
     3
 10
-46.5
 20
-9.0
 30
0.000000000000002
 11
-46.0
 21
-8.5000000000000018
 31
0.0000000000000019
210
0.0
220
1.0
230
-0.0000000000000002
  0
LINE
  5
10442
  8
0
  6
CONTINUOUS
 62
     3
 10
-46.5
 20
-9.0000000000000036
 30
0.000000000000002
 11
-46.0
 21
-9.5
 31
0.0000000000000021
210
0.0
220
1.0
230
-0.0000000000000002
  0
LINE
  5
10443
  8
0
  6
CONTINUOUS
 62
     3
 10
-51.5
 20
-9.0000000000000036
 30
0.000000000000002
 11
-52.0
 21
-9.5
 31
0.0000000000000021
210
0.0
220
1.0
230
-0.0000000000000002
  0
LINE
  5
10444
  8
0
  6
CONTINUOUS
 62
     3
 10
-51.5
 20
-10.0
 30
0.0000000000000022
 11
-52.0
 21
-9.5000000000000036
 31
0.0000000000000021
210
0.0
220
1.0
230
-0.0000000000000002
  0
LINE
  5
10445
  8
0
  6
CONTINUOUS
 62
     3
 10
-46.5
 20
-10.0
 30
0.0000000000000022
 11
-46.0
 21
-9.5000000000000036
 31
0.0000000000000021
210
0.0
220
1.0
230
-0.0000000000000002
  0
ARC
  5
10446
  8
0
  6
CONTINUOUS
 62
     3
 10
48.9999999999999929
 20
23.5
 30
0.0
 40
10.5
210
0.0
220
-0.0000000000000002
230
-1.0
 50
282.5000000000001137
 51
243.3668812508441022
  0
ARC
  5
10447
  8
0
  6
CONTINUOUS
 62
     3
 10
-49.0000000000000071
 20
23.5
 30
-0.0000000000000052
 40
5.5000000000000062
 50
296.6331187491559831
 51
257.5
  0
ARC
  5
10448
  8
0
  6
CONTINUOUS
 62
     3
 10
42.4999999999999787
 20
10.5385186031842704
 30
0.0
 40
9.0000000000000195
210
0.0
220
-0.0000000000000002
230
-1.0
 50
0.0000000000000636
 51
63.3668812508440027
  0
ARC
  5
10449
  8
0
  6
CONTINUOUS
 62
     3
 10
-42.4999999999999787
 20
10.5385186031842704
 30
-0.0000000000000023
 40
4.0000000000000222
 50
116.6331187491560968
 51
179.999999999999801
  0
LINE
  5
1044A
  8
0
  6
CONTINUOUS
 62
     3
 10
-51.5
 20
10.0000000000000693
 30
-0.0000000000000022
 11
-51.5
 21
10.5385186031842792
 31
-0.0000000000000023
210
0.0
220
1.0
230
-0.0000000000000002
  0
LINE
  5
1044B
  8
0
  6
CONTINUOUS
 62
     3
 10
-46.5
 20
10.0000000000000693
 30
-0.0000000000000022
 11
-46.5
 21
10.5385186031842792
 31
-0.0000000000000023
210
0.0
220
1.0
230
-0.0000000000000002
  0
LINE
  5
1044C
  8
0
  6
CONTINUOUS
 62
     3
 10
46.5
 20
10.0000000000000693
 30
-0.0000000000000022
 11
51.5
 21
10.0000000000000693
 31
-0.0000000000000022
210
0.0
220
1.0
230
-0.0000000000000002
  0
LINE
  5
1044D
  8
0
  6
CONTINUOUS
 62
     3
 10
46.0
 20
9.5000000000000711
 30
-0.0000000000000021
 11
52.0
 21
9.5000000000000711
 31
-0.0000000000000021
210
0.0
220
1.0
230
-0.0000000000000002
  0
LINE
  5
1044E
  8
0
  6
CONTINUOUS
 62
     3
 10
46.5
 20
9.0000000000000622
 30
-0.000000000000002
 11
51.5
 21
9.0000000000000622
 31
-0.000000000000002
210
0.0
220
1.0
230
-0.0000000000000002
  0
LINE
  5
1044F
  8
0
  6
CONTINUOUS
 62
     3
 10
46.0
 20
8.5000000000000657
 30
-0.0000000000000019
 11
52.0
 21
8.5000000000000657
 31
-0.0000000000000019
210
0.0
220
1.0
230
-0.0000000000000002
  0
LINE
  5
10450
  8
0
  6
CONTINUOUS
 62
     3
 10
46.5
 20
8.0000000000000622
 30
-0.0000000000000018
 11
51.5
 21
8.0000000000000622
 31
-0.0000000000000018
210
0.0
220
1.0
230
-0.0000000000000002
  0
LINE
  5
10451
  8
0
  6
CONTINUOUS
 62
     3
 10
46.0
 20
7.5000000000000631
 30
-0.0000000000000017
 11
52.0
 21
7.5000000000000631
 31
-0.0000000000000017
210
0.0
220
1.0
230
-0.0000000000000002
  0
LINE
  5
10452
  8
0
  6
CONTINUOUS
 62
     3
 10
46.5
 20
7.000000000000056
 30
-0.0000000000000016
 11
51.5
 21
7.0000000000000577
 31
-0.0000000000000016
210
0.0
220
1.0
230
-0.0000000000000002
  0
LINE
  5
10453
  8
0
  6
CONTINUOUS
 62
     3
 10
46.0
 20
6.5000000000000577
 30
-0.0000000000000014
 11
52.0
 21
6.5000000000000604
 31
-0.0000000000000014
210
0.0
220
1.0
230
-0.0000000000000002
  0
LINE
  5
10454
  8
0
  6
CONTINUOUS
 62
     3
 10
46.5
 20
6.0000000000000551
 30
-0.0000000000000013
 11
51.5
 21
6.0000000000000551
 31
-0.0000000000000013
210
0.0
220
1.0
230
-0.0000000000000002
  0
LINE
  5
10455
  8
0
  6
CONTINUOUS
 62
     3
 10
46.0
 20
5.5000000000000551
 30
-0.0000000000000012
 11
52.0
 21
5.5000000000000551
 31
-0.0000000000000012
210
0.0
220
1.0
230
-0.0000000000000002
  0
LINE
  5
10456
  8
0
  6
CONTINUOUS
 62
     3
 10
46.5
 20
5.0000000000000506
 30
-0.0000000000000011
 11
51.5
 21
5.0000000000000506
 31
-0.0000000000000011
210
0.0
220
1.0
230
-0.0000000000000002
  0
LINE
  5
10457
  8
0
  6
CONTINUOUS
 62
     3
 10
46.0
 20
4.5000000000000533
 30
-0.000000000000001
 11
52.0
 21
4.5000000000000533
 31
-0.000000000000001
210
0.0
220
1.0
230
-0.0000000000000002
  0
LINE
  5
10458
  8
0
  6
CONTINUOUS
 62
     3
 10
46.5
 20
4.0000000000000462
 30
-0.0000000000000009
 11
51.5
 21
4.0000000000000462
 31
-0.0000000000000009
210
0.0
220
1.0
230
-0.0000000000000002
  0
LINE
  5
10459
  8
0
  6
CONTINUOUS
 62
     3
 10
46.5
 20
1.0000000000000331
 30
-0.0000000000000002
 11
51.5
 21
1.0000000000000331
 31
-0.0000000000000002
210
0.0
220
1.0
230
-0.0000000000000002
  0
LINE
  5
1045A
  8
0
  6
CONTINUOUS
 62
     3
 10
46.0
 20
0.5000000000000357
 30
-0.0000000000000001
 11
52.0
 21
0.5000000000000357
 31
-0.0000000000000001
210
0.0
220
1.0
230
-0.0000000000000002
  0
LINE
  5
1045B
  8
0
  6
CONTINUOUS
 62
     3
 10
46.5
 20
0.0000000000000302
 30
0.0
 11
51.5
 21
0.0000000000000302
 31
0.0
210
0.0
220
1.0
230
-0.0000000000000002
  0
LINE
  5
1045C
  8
0
  6
CONTINUOUS
 62
     3
 10
46.0
 20
-0.4999999999999682
 30
0.0000000000000001
 11
52.0
 21
-0.4999999999999682
 31
0.0000000000000001
210
0.0
220
1.0
230
-0.0000000000000002
  0
LINE
  5
1045D
  8
0
  6
CONTINUOUS
 62
     3
 10
46.5
 20
-0.9999999999999717
 30
0.0000000000000002
 11
51.5
 21
-0.9999999999999717
 31
0.0000000000000002
210
0.0
220
1.0
230
-0.0000000000000002
  0
LINE
  5
1045E
  8
0
  6
CONTINUOUS
 62
     3
 10
46.0
 20
-5.4999999999999858
 30
0.0000000000000012
 11
52.0
 21
-5.4999999999999858
 31
0.0000000000000012
210
0.0
220
1.0
230
-0.0000000000000002
  0
LINE
  5
1045F
  8
0
  6
CONTINUOUS
 62
     3
 10
46.5
 20
-5.9999999999999902
 30
0.0000000000000013
 11
51.5
 21
-5.9999999999999902
 31
0.0000000000000013
210
0.0
220
1.0
230
-0.0000000000000002
  0
LINE
  5
10460
  8
0
  6
CONTINUOUS
 62
     3
 10
46.0
 20
-6.4999999999999911
 30
0.0000000000000014
 11
52.0
 21
-6.4999999999999911
 31
0.0000000000000014
210
0.0
220
1.0
230
-0.0000000000000002
  0
LINE
  5
10461
  8
0
  6
CONTINUOUS
 62
     3
 10
46.5
 20
-6.9999999999999982
 30
0.0000000000000016
 11
51.5
 21
-6.9999999999999982
 31
0.0000000000000016
210
0.0
220
1.0
230
-0.0000000000000002
  0
LINE
  5
10462
  8
0
  6
CONTINUOUS
 62
     3
 10
46.0
 20
-7.4999999999999938
 30
0.0000000000000017
 11
52.0
 21
-7.4999999999999938
 31
0.0000000000000017
210
0.0
220
1.0
230
-0.0000000000000002
  0
LINE
  5
10463
  8
0
  6
CONTINUOUS
 62
     3
 10
46.5
 20
-8.0000000000000018
 30
0.0000000000000018
 11
51.5
 21
-8.0000000000000018
 31
0.0000000000000018
210
0.0
220
1.0
230
-0.0000000000000002
  0
LINE
  5
10464
  8
0
  6
CONTINUOUS
 62
     3
 10
46.0
 20
-8.4999999999999982
 30
0.0000000000000019
 11
52.0
 21
-8.4999999999999982
 31
0.0000000000000019
210
0.0
220
1.0
230
-0.0000000000000002
  0
LINE
  5
10465
  8
0
  6
CONTINUOUS
 62
     3
 10
46.5
 20
-9.0000000000000018
 30
0.000000000000002
 11
51.5
 21
-9.0000000000000018
 31
0.000000000000002
210
0.0
220
1.0
230
-0.0000000000000002
  0
LINE
  5
10466
  8
0
  6
CONTINUOUS
 62
     3
 10
46.0
 20
-9.5000000000000018
 30
0.0000000000000021
 11
52.0
 21
-9.5000000000000018
 31
0.0000000000000021
210
0.0
220
1.0
230
-0.0000000000000002
  0
LINE
  5
10467
  8
0
  6
CONTINUOUS
 62
     3
 10
46.5
 20
-10.0
 30
0.0000000000000022
 11
51.5
 21
-10.0
 31
0.0000000000000022
210
0.0
220
1.0
230
-0.0000000000000002
  0
LINE
  5
10468
  8
0
  6
CONTINUOUS
 62
     3
 10
46.7273840536499065
 20
13.2488919252407005
 30
-0.0000000000000029
 11
47.8095821233404266
 21
18.1303719608403711
 31
-0.000000000000004
210
0.0
220
1.0
230
-0.0000000000000002
  0
LINE
  5
10469
  8
0
  6
CONTINUOUS
 62
     3
 10
51.5
 20
10.0000000000000693
 30
-0.0000000000000022
 11
52.0
 21
9.5000000000000728
 31
-0.0000000000000021
210
0.0
220
1.0
230
-0.0000000000000002
  0
LINE
  5
1046A
  8
0
  6
CONTINUOUS
 62
     3
 10
46.5
 20
10.0000000000000693
 30
-0.0000000000000022
 11
46.0
 21
9.5000000000000728
 31
-0.0000000000000021
210
0.0
220
1.0
230
-0.0000000000000002
  0
LINE
  5
1046B
  8
0
  6
CONTINUOUS
 62
     3
 10
46.5000000000000071
 20
9.0000000000000693
 30
-0.000000000000002
 11
46.0
 21
9.5000000000000693
 31
-0.0000000000000021
210
0.0
220
1.0
230
-0.0000000000000002
  0
LINE
  5
1046C
  8
0
  6
CONTINUOUS
 62
     3
 10
51.4999999999999929
 20
9.0000000000000693
 30
-0.000000000000002
 11
52.0
 21
9.5000000000000711
 31
-0.0000000000000021
210
0.0
220
1.0
230
-0.0000000000000002
  0
LINE
  5
1046D
  8
0
  6
CONTINUOUS
 62
     3
 10
51.5
 20
9.0000000000000622
 30
-0.000000000000002
 11
52.0
 21
8.5000000000000675
 31
-0.0000000000000019
210
0.0
220
1.0
230
-0.0000000000000002
  0
LINE
  5
1046E
  8
0
  6
CONTINUOUS
 62
     3
 10
46.5
 20
9.0000000000000622
 30
-0.000000000000002
 11
46.0
 21
8.5000000000000675
 31
-0.0000000000000019
210
0.0
220
1.0
230
-0.0000000000000002
  0
LINE
  5
1046F
  8
0
  6
CONTINUOUS
 62
     3
 10
46.5
 20
8.0000000000000657
 30
-0.0000000000000018
 11
46.0
 21
8.5000000000000622
 31
-0.0000000000000019
210
0.0
220
1.0
230
-0.0000000000000002
  0
LINE
  5
10470
  8
0
  6
CONTINUOUS
 62
     3
 10
51.5
 20
8.0000000000000657
 30
-0.0000000000000018
 11
52.0
 21
8.5000000000000622
 31
-0.0000000000000019
210
0.0
220
1.0
230
-0.0000000000000002
  0
LINE
  5
10471
  8
0
  6
CONTINUOUS
 62
     3
 10
51.5
 20
8.0000000000000604
 30
-0.0000000000000018
 11
52.0
 21
7.5000000000000631
 31
-0.0000000000000017
210
0.0
220
1.0
230
-0.0000000000000002
  0
LINE
  5
10472
  8
0
  6
CONTINUOUS
 62
     3
 10
46.5
 20
8.0000000000000604
 30
-0.0000000000000018
 11
46.0
 21
7.5000000000000631
 31
-0.0000000000000017
210
0.0
220
1.0
230
-0.0000000000000002
  0
LINE
  5
10473
  8
0
  6
CONTINUOUS
 62
     3
 10
46.5
 20
7.0000000000000613
 30
-0.0000000000000016
 11
46.0
 21
7.5000000000000613
 31
-0.0000000000000017
210
0.0
220
1.0
230
-0.0000000000000002
  0
LINE
  5
10474
  8
0
  6
CONTINUOUS
 62
     3
 10
51.5
 20
7.0000000000000613
 30
-0.0000000000000016
 11
52.0
 21
7.5000000000000622
 31
-0.0000000000000017
210
0.0
220
1.0
230
-0.0000000000000002
  0
LINE
  5
10475
  8
0
  6
CONTINUOUS
 62
     3
 10
51.5
 20
7.0000000000000568
 30
-0.0000000000000016
 11
52.0
 21
6.5000000000000604
 31
-0.0000000000000014
210
0.0
220
1.0
230
-0.0000000000000002
  0
LINE
  5
10476
  8
0
  6
CONTINUOUS
 62
     3
 10
46.5
 20
7.0000000000000568
 30
-0.0000000000000016
 11
46.0
 21
6.5000000000000604
 31
-0.0000000000000014
210
0.0
220
1.0
230
-0.0000000000000002
  0
LINE
  5
10477
  8
0
  6
CONTINUOUS
 62
     3
 10
46.5
 20
6.0000000000000568
 30
-0.0000000000000013
 11
46.0
 21
6.5000000000000577
 31
-0.0000000000000014
210
0.0
220
1.0
230
-0.0000000000000002
  0
LINE
  5
10478
  8
0
  6
CONTINUOUS
 62
     3
 10
51.5
 20
6.0000000000000568
 30
-0.0000000000000013
 11
52.0
 21
6.5000000000000577
 31
-0.0000000000000014
210
0.0
220
1.0
230
-0.0000000000000002
  0
LINE
  5
10479
  8
0
  6
CONTINUOUS
 62
     3
 10
51.5
 20
6.0000000000000542
 30
-0.0000000000000013
 11
52.0
 21
5.500000000000056
 31
-0.0000000000000012
210
0.0
220
1.0
230
-0.0000000000000002
  0
LINE
  5
1047A
  8
0
  6
CONTINUOUS
 62
     3
 10
46.5
 20
6.0000000000000542
 30
-0.0000000000000013
 11
46.0
 21
5.500000000000056
 31
-0.0000000000000012
210
0.0
220
1.0
230
-0.0000000000000002
  0
LINE
  5
1047B
  8
0
  6
CONTINUOUS
 62
     3
 10
46.5
 20
5.0000000000000542
 30
-0.0000000000000011
 11
46.0
 21
5.5000000000000542
 31
-0.0000000000000012
210
0.0
220
1.0
230
-0.0000000000000002
  0
LINE
  5
1047C
  8
0
  6
CONTINUOUS
 62
     3
 10
51.5
 20
5.0000000000000542
 30
-0.0000000000000011
 11
52.0
 21
5.5000000000000542
 31
-0.0000000000000012
210
0.0
220
1.0
230
-0.0000000000000002
  0
LINE
  5
1047D
  8
0
  6
CONTINUOUS
 62
     3
 10
51.5
 20
5.0000000000000497
 30
-0.0000000000000011
 11
52.0
 21
4.5000000000000542
 31
-0.000000000000001
210
0.0
220
1.0
230
-0.0000000000000002
  0
LINE
  5
1047E
  8
0
  6
CONTINUOUS
 62
     3
 10
46.5
 20
5.0000000000000506
 30
-0.0000000000000011
 11
46.0
 21
4.5000000000000533
 31
-0.000000000000001
210
0.0
220
1.0
230
-0.0000000000000002
  0
LINE
  5
1047F
  8
0
  6
CONTINUOUS
 62
     3
 10
46.5000000000000071
 20
4.0000000000000488
 30
-0.0000000000000009
 11
46.0
 21
4.5000000000000506
 31
-0.000000000000001
210
0.0
220
1.0
230
-0.0000000000000002
  0
LINE
  5
10480
  8
0
  6
CONTINUOUS
 62
     3
 10
51.4999999999999929
 20
4.0000000000000497
 30
-0.0000000000000009
 11
52.0
 21
4.5000000000000506
 31
-0.000000000000001
210
0.0
220
1.0
230
-0.0000000000000002
  0
LINE
  5
10481
  8
0
  6
CONTINUOUS
 62
     3
 10
51.5
 20
4.0000000000000453
 30
-0.0000000000000009
 11
52.0
 21
3.500000000000048
 31
-0.0000000000000008
210
0.0
220
1.0
230
-0.0000000000000002
  0
LINE
  5
10482
  8
0
  6
CONTINUOUS
 62
     3
 10
46.5
 20
4.0000000000000453
 30
-0.0000000000000009
 11
46.0
 21
3.5000000000000471
 31
-0.0000000000000008
210
0.0
220
1.0
230
-0.0000000000000002
  0
LINE
  5
10483
  8
0
  6
CONTINUOUS
 62
     3
 10
46.5000000000000071
 20
1.0000000000000371
 30
-0.0000000000000002
 11
46.0
 21
1.500000000000038
 31
-0.0000000000000003
210
0.0
220
1.0
230
-0.0000000000000002
  0
LINE
  5
10484
  8
0
  6
CONTINUOUS
 62
     3
 10
51.4999999999999929
 20
1.0000000000000371
 30
-0.0000000000000002
 11
52.0
 21
1.5000000000000391
 31
-0.0000000000000003
210
0.0
220
1.0
230
-0.0000000000000002
  0
LINE
  5
10485
  8
0
  6
CONTINUOUS
 62
     3
 10
51.5
 20
1.0000000000000331
 30
-0.0000000000000002
 11
52.0
 21
0.500000000000037
 31
-0.0000000000000001
210
0.0
220
1.0
230
-0.0000000000000002
  0
LINE
  5
10486
  8
0
  6
CONTINUOUS
 62
     3
 10
46.5
 20
1.0000000000000331
 30
-0.0000000000000002
 11
46.0
 21
0.5000000000000364
 31
-0.0000000000000001
210
0.0
220
1.0
230
-0.0000000000000002
  0
LINE
  5
10487
  8
0
  6
CONTINUOUS
 62
     3
 10
46.5000000000000071
 20
0.000000000000034
 30
0.0
 11
46.0
 21
0.5000000000000339
 31
-0.0000000000000001
210
0.0
220
1.0
230
-0.0000000000000002
  0
LINE
  5
10488
  8
0
  6
CONTINUOUS
 62
     3
 10
51.4999999999999929
 20
0.0000000000000345
 30
0.0
 11
52.0
 21
0.5000000000000345
 31
-0.0000000000000001
210
0.0
220
1.0
230
-0.0000000000000002
  0
LINE
  5
10489
  8
0
  6
CONTINUOUS
 62
     3
 10
51.5
 20
0.0000000000000301
 30
0.0
 11
52.0
 21
-0.4999999999999668
 31
0.0000000000000001
210
0.0
220
1.0
230
-0.0000000000000002
  0
LINE
  5
1048A
  8
0
  6
CONTINUOUS
 62
     3
 10
46.5
 20
0.0000000000000297
 30
0.0
 11
46.0
 21
-0.4999999999999675
 31
0.0000000000000001
210
0.0
220
1.0
230
-0.0000000000000002
  0
LINE
  5
1048B
  8
0
  6
CONTINUOUS
 62
     3
 10
46.5
 20
-0.9999999999999689
 30
0.0000000000000002
 11
46.0
 21
-0.49999999999997
 31
0.0000000000000001
210
0.0
220
1.0
230
-0.0000000000000002
  0
LINE
  5
1048C
  8
0
  6
CONTINUOUS
 62
     3
 10
51.5
 20
-0.9999999999999682
 30
0.0000000000000002
 11
52.0
 21
-0.4999999999999694
 31
0.0000000000000001
210
0.0
220
1.0
230
-0.0000000000000002
  0
LINE
  5
1048D
  8
0
  6
CONTINUOUS
 62
     3
 10
51.5
 20
-0.9999999999999726
 30
0.0000000000000002
 11
52.0
 21
-1.49999999999997
 31
0.0000000000000003
210
0.0
220
1.0
230
-0.0000000000000002
  0
LINE
  5
1048E
  8
0
  6
CONTINUOUS
 62
     3
 10
46.5
 20
-0.9999999999999731
 30
0.0000000000000002
 11
46.0
 21
-1.4999999999999709
 31
0.0000000000000003
210
0.0
220
1.0
230
-0.0000000000000002
  0
LINE
  5
1048F
  8
0
  6
CONTINUOUS
 62
     3
 10
51.5
 20
-4.9999999999999876
 30
0.0000000000000011
 11
52.0
 21
-5.4999999999999849
 31
0.0000000000000012
210
0.0
220
1.0
230
-0.0000000000000002
  0
LINE
  5
10490
  8
0
  6
CONTINUOUS
 62
     3
 10
46.5
 20
-4.9999999999999876
 30
0.0000000000000011
 11
46.0
 21
-5.4999999999999849
 31
0.0000000000000012
210
0.0
220
1.0
230
-0.0000000000000002
  0
LINE
  5
10491
  8
0
  6
CONTINUOUS
 62
     3
 10
46.5
 20
-5.9999999999999858
 30
0.0000000000000013
 11
46.0
 21
-5.4999999999999876
 31
0.0000000000000012
210
0.0
220
1.0
230
-0.0000000000000002
  0
LINE
  5
10492
  8
0
  6
CONTINUOUS
 62
     3
 10
51.5
 20
-5.9999999999999858
 30
0.0000000000000013
 11
52.0
 21
-5.4999999999999876
 31
0.0000000000000012
210
0.0
220
1.0
230
-0.0000000000000002
  0
LINE
  5
10493
  8
0
  6
CONTINUOUS
 62
     3
 10
51.5
 20
-5.9999999999999911
 30
0.0000000000000013
 11
52.0
 21
-6.4999999999999902
 31
0.0000000000000014
210
0.0
220
1.0
230
-0.0000000000000002
  0
LINE
  5
10494
  8
0
  6
CONTINUOUS
 62
     3
 10
46.5
 20
-5.9999999999999911
 30
0.0000000000000013
 11
46.0
 21
-6.4999999999999902
 31
0.0000000000000014
210
0.0
220
1.0
230
-0.0000000000000002
  0
LINE
  5
10495
  8
0
  6
CONTINUOUS
 62
     3
 10
46.5000000000000071
 20
-6.9999999999999929
 30
0.0000000000000016
 11
46.0
 21
-6.499999999999992
 31
0.0000000000000014
210
0.0
220
1.0
230
-0.0000000000000002
  0
LINE
  5
10496
  8
0
  6
CONTINUOUS
 62
     3
 10
51.4999999999999929
 20
-6.9999999999999929
 30
0.0000000000000016
 11
52.0
 21
-6.499999999999992
 31
0.0000000000000014
210
0.0
220
1.0
230
-0.0000000000000002
  0
LINE
  5
10497
  8
0
  6
CONTINUOUS
 62
     3
 10
51.5
 20
-6.9999999999999973
 30
0.0000000000000016
 11
52.0
 21
-7.4999999999999929
 31
0.0000000000000017
210
0.0
220
1.0
230
-0.0000000000000002
  0
LINE
  5
10498
  8
0
  6
CONTINUOUS
 62
     3
 10
46.5
 20
-6.9999999999999973
 30
0.0000000000000016
 11
46.0
 21
-7.4999999999999929
 31
0.0000000000000017
210
0.0
220
1.0
230
-0.0000000000000002
  0
LINE
  5
10499
  8
0
  6
CONTINUOUS
 62
     3
 10
46.5000000000000071
 20
-7.9999999999999956
 30
0.0000000000000018
 11
46.0
 21
-7.4999999999999956
 31
0.0000000000000017
210
0.0
220
1.0
230
-0.0000000000000002
  0
LINE
  5
1049A
  8
0
  6
CONTINUOUS
 62
     3
 10
51.4999999999999929
 20
-7.9999999999999956
 30
0.0000000000000018
 11
52.0
 21
-7.4999999999999956
 31
0.0000000000000017
210
0.0
220
1.0
230
-0.0000000000000002
  0
LINE
  5
1049B
  8
0
  6
CONTINUOUS
 62
     3
 10
51.5
 20
-8.0
 30
0.0000000000000018
 11
52.0
 21
-8.4999999999999964
 31
0.0000000000000019
210
0.0
220
1.0
230
-0.0000000000000002
  0
LINE
  5
1049C
  8
0
  6
CONTINUOUS
 62
     3
 10
46.5
 20
-8.0
 30
0.0000000000000018
 11
46.0
 21
-8.4999999999999964
 31
0.0000000000000019
210
0.0
220
1.0
230
-0.0000000000000002
  0
LINE
  5
1049D
  8
0
  6
CONTINUOUS
 62
     3
 10
46.5
 20
-9.0
 30
0.000000000000002
 11
46.0
 21
-8.5000000000000018
 31
0.0000000000000019
210
0.0
220
1.0
230
-0.0000000000000002
  0
LINE
  5
1049E
  8
0
  6
CONTINUOUS
 62
     3
 10
51.5
 20
-9.0
 30
0.000000000000002
 11
52.0
 21
-8.5000000000000018
 31
0.0000000000000019
210
0.0
220
1.0
230
-0.0000000000000002
  0
LINE
  5
1049F
  8
0
  6
CONTINUOUS
 62
     3
 10
51.5
 20
-9.0000000000000036
 30
0.000000000000002
 11
52.0
 21
-9.5
 31
0.0000000000000021
210
0.0
220
1.0
230
-0.0000000000000002
  0
LINE
  5
104A0
  8
0
  6
CONTINUOUS
 62
     3
 10
46.5
 20
-9.0000000000000036
 30
0.000000000000002
 11
46.0
 21
-9.5
 31
0.0000000000000021
210
0.0
220
1.0
230
-0.0000000000000002
  0
LINE
  5
104A1
  8
0
  6
CONTINUOUS
 62
     3
 10
46.5
 20
-10.0
 30
0.0000000000000022
 11
46.0
 21
-9.5000000000000036
 31
0.0000000000000021
210
0.0
220
1.0
230
-0.0000000000000002
  0
LINE
  5
104A2
  8
0
  6
CONTINUOUS
 62
     3
 10
51.5
 20
-10.0
 30
0.0000000000000022
 11
52.0
 21
-9.5000000000000036
 31
0.0000000000000021
210
0.0
220
1.0
230
-0.0000000000000002
  0
ARC
  5
104A3
  8
0
  6
CONTINUOUS
 62
     3
 10
-49.0000000000000071
 20
23.5
 30
0.0
 40
10.5
210
0.0
220
-0.0000000000000002
230
-1.0
 50
282.5000000000001137
 51
243.3668812508441022
  0
ARC
  5
104A4
  8
0
  6
CONTINUOUS
 62
     3
 10
48.9999999999999929
 20
23.5
 30
-0.0000000000000052
 40
5.5000000000000062
 50
296.6331187491559831
 51
257.5
  0
ARC
  5
104A5
  8
0
  6
CONTINUOUS
 62
     3
 10
-55.5000000000000213
 20
10.5385186031842704
 30
0.0
 40
9.0000000000000195
210
0.0
220
-0.0000000000000002
230
-1.0
 50
0.0000000000000636
 51
63.3668812508440027
  0
ARC
  5
104A6
  8
0
  6
CONTINUOUS
 62
     3
 10
55.5000000000000213
 20
10.5385186031842704
 30
-0.0000000000000023
 40
4.0000000000000222
 50
116.6331187491560968
 51
179.999999999999801
  0
LINE
  5
104A7
  8
0
  6
CONTINUOUS
 62
     3
 10
46.5
 20
10.0000000000000693
 30
-0.0000000000000022
 11
46.5
 21
10.5385186031842792
 31
-0.0000000000000023
210
0.0
220
1.0
230
-0.0000000000000002
  0
LINE
  5
104A8
  8
0
  6
CONTINUOUS
 62
     3
 10
51.5
 20
10.0000000000000693
 30
-0.0000000000000022
 11
51.5
 21
10.5385186031842792
 31
-0.0000000000000023
210
0.0
220
1.0
230
-0.0000000000000002
  0
LINE
  5
104A9
  8
0
  6
CONTINUOUS
 62
     3
 10
-3.0000000000000009
 20
-50.5000000000000426
 30
0.0000000000000112
 11
3.0
 21
-50.5000000000000426
 31
0.0000000000000112
210
0.0
220
1.0
230
-0.0000000000000002
  0
POLYLINE
  8
0
  5
10663
  62
3
  66
     1
 10
0.000000
 20
0.000000
 30
0.000000
  70
     8
  0
VERTEX
  8
0
  5
10664
 10
-3.50000
 20
-55.0496
 30
1.22000e-14
  70
    32
  0
VERTEX
  8
0
  5
10665
 10
-3.39700
 20
-55.1357
 30
1.22204e-14
  70
    32
  0
VERTEX
  8
0
  5
10666
 10
-3.29635
 20
-55.2186
 30
1.22401e-14
  70
    32
  0
VERTEX
  8
0
  5
10667
 10
-3.19793
 20
-55.2984
 30
1.22591e-14
  70
    32
  0
VERTEX
  8
0
  5
10668
 10
-3.10163
 20
-55.3752
 30
1.22773e-14
  70
    32
  0
VERTEX
  8
0
  5
10669
 10
-3.00736
 20
-55.4490
 30
1.22948e-14
  70
    32
  0
VERTEX
  8
0
  5
1066A
 10
-2.91501
 20
-55.5201
 30
1.23117e-14
  70
    32
  0
VERTEX
  8
0
  5
1066B
 10
-2.82450
 20
-55.5885
 30
1.23279e-14
  70
    32
  0
VERTEX
  8
0
  5
1066C
 10
-2.73575
 20
-55.6543
 30
1.23435e-14
  70
    32
  0
VERTEX
  8
0
  5
1066D
 10
-2.64866
 20
-55.7176
 30
1.23585e-14
  70
    32
  0
VERTEX
  8
0
  5
1066E
 10
-2.56317
 20
-55.7784
 30
1.23730e-14
  70
    32
  0
VERTEX
  8
0
  5
1066F
 10
-2.47920
 20
-55.8369
 30
1.23869e-14
  70
    32
  0
VERTEX
  8
0
  5
10670
 10
-2.39667
 20
-55.8931
 30
1.24002e-14
  70
    32
  0
VERTEX
  8
0
  5
10671
 10
-2.31553
 20
-55.9471
 30
1.24130e-14
  70
    32
  0
VERTEX
  8
0
  5
10672
 10
-2.23570
 20
-55.9990
 30
1.24253e-14
  70
    32
  0
VERTEX
  8
0
  5
10673
 10
-2.15713
 20
-56.0487
 30
1.24371e-14
  70
    32
  0
VERTEX
  8
0
  5
10674
 10
-2.07975
 20
-56.0965
 30
1.24485e-14
  70
    32
  0
VERTEX
  8
0
  5
10675
 10
-2.00351
 20
-56.1423
 30
1.24593e-14
  70
    32
  0
VERTEX
  8
0
  5
10676
 10
-1.92835
 20
-56.1861
 30
1.24697e-14
  70
    32
  0
VERTEX
  8
0
  5
10677
 10
-1.85423
 20
-56.2281
 30
1.24797e-14
  70
    32
  0
VERTEX
  8
0
  5
10678
 10
-1.78108
 20
-56.2683
 30
1.24892e-14
  70
    32
  0
VERTEX
  8
0
  5
10679
 10
-1.70887
 20
-56.3067
 30
1.24984e-14
  70
    32
  0
VERTEX
  8
0
  5
1067A
 10
-1.63754
 20
-56.3434
 30
1.25071e-14
  70
    32
  0
VERTEX
  8
0
  5
1067B
 10
-1.56706
 20
-56.3783
 30
1.25154e-14
  70
    32
  0
VERTEX
  8
0
  5
1067C
 10
-1.49737
 20
-56.4116
 30
1.25233e-14
  70
    32
  0
VERTEX
  8
0
  5
1067D
 10
-1.42844
 20
-56.4433
 30
1.25308e-14
  70
    32
  0
VERTEX
  8
0
  5
1067E
 10
-1.36022
 20
-56.4734
 30
1.25379e-14
  70
    32
  0
VERTEX
  8
0
  5
1067F
 10
-1.29267
 20
-56.5019
 30
1.25447e-14
  70
    32
  0
VERTEX
  8
0
  5
10680
 10
-1.22576
 20
-56.5289
 30
1.25511e-14
  70
    32
  0
VERTEX
  8
0
  5
10681
 10
-1.15945
 20
-56.5544
 30
1.25571e-14
  70
    32
  0
VERTEX
  8
0
  5
10682
 10
-1.09371
 20
-56.5784
 30
1.25628e-14
  70
    32
  0
VERTEX
  8
0
  5
10683
 10
-1.02849
 20
-56.6010
 30
1.25682e-14
  70
    32
  0
VERTEX
  8
0
  5
10684
 10
-0.963758
 20
-56.6221
 30
1.25732e-14
  70
    32
  0
VERTEX
  8
0
  5
10685
 10
-0.899490
 20
-56.6418
 30
1.25779e-14
  70
    32
  0
VERTEX
  8
0
  5
10686
 10
-0.835648
 20
-56.6601
 30
1.25822e-14
  70
    32
  0
VERTEX
  8
0
  5
10687
 10
-0.772200
 20
-56.6770
 30
1.25862e-14
  70
    32
  0
VERTEX
  8
0
  5
10688
 10
-0.709114
 20
-56.6926
 30
1.25899e-14
  70
    32
  0
VERTEX
  8
0
  5
10689
 10
-0.646360
 20
-56.7068
 30
1.25933e-14
  70
    32
  0
VERTEX
  8
0
  5
1068A
 10
-0.583906
 20
-56.7197
 30
1.25964e-14
  70
    32
  0
VERTEX
  8
0
  5
1068B
 10
-0.521723
 20
-56.7312
 30
1.25991e-14
  70
    32
  0
VERTEX
  8
0
  5
1068C
 10
-0.459782
 20
-56.7415
 30
1.26015e-14
  70
    32
  0
VERTEX
  8
0
  5
1068D
 10
-0.398052
 20
-56.7504
 30
1.26037e-14
  70
    32
  0
VERTEX
  8
0
  5
1068E
 10
-0.336505
 20
-56.7581
 30
1.26055e-14
  70
    32
  0
VERTEX
  8
0
  5
1068F
 10
-0.275113
 20
-56.7645
 30
1.26070e-14
  70
    32
  0
VERTEX
  8
0
  5
10690
 10
-0.213846
 20
-56.7695
 30
1.26082e-14
  70
    32
  0
VERTEX
  8
0
  5
10691
 10
-0.152678
 20
-56.7734
 30
1.26091e-14
  70
    32
  0
VERTEX
  8
0
  5
10692
 10
-0.0915787
 20
-56.7759
 30
1.26097e-14
  70
    32
  0
VERTEX
  8
0
  5
10693
 10
-0.0305216
 20
-56.7772
 30
1.26100e-14
  70
    32
  0
VERTEX
  8
0
  5
10694
 10
0.0305216
 20
-56.7772
 30
1.26100e-14
  70
    32
  0
VERTEX
  8
0
  5
10695
 10
0.0915787
 20
-56.7759
 30
1.26097e-14
  70
    32
  0
VERTEX
  8
0
  5
10696
 10
0.152678
 20
-56.7734
 30
1.26091e-14
  70
    32
  0
VERTEX
  8
0
  5
10697
 10
0.213846
 20
-56.7695
 30
1.26082e-14
  70
    32
  0
VERTEX
  8
0
  5
10698
 10
0.275113
 20
-56.7645
 30
1.26070e-14
  70
    32
  0
VERTEX
  8
0
  5
10699
 10
0.336505
 20
-56.7581
 30
1.26055e-14
  70
    32
  0
VERTEX
  8
0
  5
1069A
 10
0.398052
 20
-56.7504
 30
1.26037e-14
  70
    32
  0
VERTEX
  8
0
  5
1069B
 10
0.459782
 20
-56.7415
 30
1.26015e-14
  70
    32
  0
VERTEX
  8
0
  5
1069C
 10
0.521723
 20
-56.7312
 30
1.25991e-14
  70
    32
  0
VERTEX
  8
0
  5
1069D
 10
0.583906
 20
-56.7197
 30
1.25964e-14
  70
    32
  0
VERTEX
  8
0
  5
1069E
 10
0.646360
 20
-56.7068
 30
1.25933e-14
  70
    32
  0
VERTEX
  8
0
  5
1069F
 10
0.709114
 20
-56.6926
 30
1.25899e-14
  70
    32
  0
VERTEX
  8
0
  5
106A0
 10
0.772200
 20
-56.6770
 30
1.25862e-14
  70
    32
  0
VERTEX
  8
0
  5
106A1
 10
0.835648
 20
-56.6601
 30
1.25822e-14
  70
    32
  0
VERTEX
  8
0
  5
106A2
 10
0.899490
 20
-56.6418
 30
1.25779e-14
  70
    32
  0
VERTEX
  8
0
  5
106A3
 10
0.963758
 20
-56.6221
 30
1.25732e-14
  70
    32
  0
VERTEX
  8
0
  5
106A4
 10
1.02849
 20
-56.6010
 30
1.25682e-14
  70
    32
  0
VERTEX
  8
0
  5
106A5
 10
1.09371
 20
-56.5784
 30
1.25628e-14
  70
    32
  0
VERTEX
  8
0
  5
106A6
 10
1.15945
 20
-56.5544
 30
1.25571e-14
  70
    32
  0
VERTEX
  8
0
  5
106A7
 10
1.22576
 20
-56.5289
 30
1.25511e-14
  70
    32
  0
VERTEX
  8
0
  5
106A8
 10
1.29267
 20
-56.5019
 30
1.25447e-14
  70
    32
  0
VERTEX
  8
0
  5
106A9
 10
1.36022
 20
-56.4734
 30
1.25379e-14
  70
    32
  0
VERTEX
  8
0
  5
106AA
 10
1.42844
 20
-56.4433
 30
1.25308e-14
  70
    32
  0
VERTEX
  8
0
  5
106AB
 10
1.49737
 20
-56.4116
 30
1.25233e-14
  70
    32
  0
VERTEX
  8
0
  5
106AC
 10
1.56706
 20
-56.3783
 30
1.25154e-14
  70
    32
  0
VERTEX
  8
0
  5
106AD
 10
1.63754
 20
-56.3434
 30
1.25071e-14
  70
    32
  0
VERTEX
  8
0
  5
106AE
 10
1.70887
 20
-56.3067
 30
1.24984e-14
  70
    32
  0
VERTEX
  8
0
  5
106AF
 10
1.78108
 20
-56.2683
 30
1.24892e-14
  70
    32
  0
VERTEX
  8
0
  5
106B0
 10
1.85423
 20
-56.2281
 30
1.24797e-14
  70
    32
  0
VERTEX
  8
0
  5
106B1
 10
1.92835
 20
-56.1861
 30
1.24697e-14
  70
    32
  0
VERTEX
  8
0
  5
106B2
 10
2.00351
 20
-56.1423
 30
1.24593e-14
  70
    32
  0
VERTEX
  8
0
  5
106B3
 10
2.07975
 20
-56.0965
 30
1.24485e-14
  70
    32
  0
VERTEX
  8
0
  5
106B4
 10
2.15713
 20
-56.0487
 30
1.24371e-14
  70
    32
  0
VERTEX
  8
0
  5
106B5
 10
2.23570
 20
-55.9990
 30
1.24253e-14
  70
    32
  0
VERTEX
  8
0
  5
106B6
 10
2.31553
 20
-55.9471
 30
1.24130e-14
  70
    32
  0
VERTEX
  8
0
  5
106B7
 10
2.39667
 20
-55.8931
 30
1.24002e-14
  70
    32
  0
VERTEX
  8
0
  5
106B8
 10
2.47920
 20
-55.8369
 30
1.23869e-14
  70
    32
  0
VERTEX
  8
0
  5
106B9
 10
2.56317
 20
-55.7784
 30
1.23730e-14
  70
    32
  0
VERTEX
  8
0
  5
106BA
 10
2.64866
 20
-55.7176
 30
1.23585e-14
  70
    32
  0
VERTEX
  8
0
  5
106BB
 10
2.73575
 20
-55.6543
 30
1.23435e-14
  70
    32
  0
VERTEX
  8
0
  5
106BC
 10
2.82450
 20
-55.5885
 30
1.23279e-14
  70
    32
  0
VERTEX
  8
0
  5
106BD
 10
2.91501
 20
-55.5201
 30
1.23117e-14
  70
    32
  0
VERTEX
  8
0
  5
106BE
 10
3.00736
 20
-55.4490
 30
1.22948e-14
  70
    32
  0
VERTEX
  8
0
  5
106BF
 10
3.10163
 20
-55.3752
 30
1.22773e-14
  70
    32
  0
VERTEX
  8
0
  5
106C0
 10
3.19793
 20
-55.2984
 30
1.22591e-14
  70
    32
  0
VERTEX
  8
0
  5
106C1
 10
3.29635
 20
-55.2186
 30
1.22401e-14
  70
    32
  0
VERTEX
  8
0
  5
106C2
 10
3.39700
 20
-55.1357
 30
1.22204e-14
  70
    32
  0
VERTEX
  8
0
  5
106C3
 10
3.50000
 20
-55.0496
 30
1.22000e-14
  70
    32
  0
SEQEND
  8
0
  5
106C4
  0
LINE
  5
104AB
  8
0
  6
CONTINUOUS
 62
     3
 10
3.5
 20
-55.0495806259262679
 30
0.0000000000000122
 11
3.5
 21
-143.5
 31
0.0000000000000319
210
0.0
220
1.0
230
-0.0000000000000002
  0
LINE
  5
104AC
  8
0
  6
CONTINUOUS
 62
     3
 10
-3.5
 20
-55.0495806259262679
 30
0.0000000000000122
 11
-3.5
 21
-143.5
 31
0.0000000000000319
210
0.0
220
1.0
230
-0.0000000000000002
  0
LINE
  5
104AD
  8
0
  6
CONTINUOUS
 62
     3
 10
3.5
 20
-143.5
 30
0.0000000000000319
 11
-3.5
 21
-143.5
 31
0.0000000000000319
210
0.0
220
1.0
230
-0.0000000000000002
  0
LINE
  5
104AE
  8
0
  6
CONTINUOUS
 62
     3
 10
-3.4999999999999978
 20
-143.5
 30
0.0000000000000319
 11
-0.00000000000004
 21
-153.4944311151600971
 31
0.0000000000000341
210
0.0
220
1.0
230
-0.0000000000000002
  0
LINE
  5
104AF
  8
0
  6
CONTINUOUS
 62
     3
 10
3.4999999999999991
 20
-143.5
 30
0.0000000000000319
 11
0.0000000000000329
 21
-153.4944311151600971
 31
0.0000000000000341
210
0.0
220
1.0
230
-0.0000000000000002
  0
ARC
  5
104B0
  8
0
  6
CONTINUOUS
 62
     3
 10
2.9999999999999978
 20
-51.5000000000000284
 30
0.0
 40
1.0000000000000011
210
0.0
220
-0.0000000000000002
230
-1.0
 50
0.0
 51
89.9999999999998721
  0
ARC
  5
104B1
  8
0
  6
CONTINUOUS
 62
     3
 10
-2.9999999999999978
 20
-51.5000000000000284
 30
0.0
 40
1.0
210
0.0
220
-0.0000000000000002
230
-1.0
 50
90.0000000000000995
 51
180.0
  0
LINE
  5
104B2
  8
0
  6
CONTINUOUS
 62
     3
 10
-3.500000000000016
 20
-56.7773223796340787
 30
0.0000000000000126
 11
-6.2499999999999991
 21
-53.5000000000000284
 31
0.0000000000000119
210
0.0
220
1.0
230
-0.0000000000000002
  0
LINE
  5
104B3
  8
0
  6
CONTINUOUS
 62
     3
 10
3.5000000000000102
 20
-56.7773223796340929
 30
0.0000000000000126
 11
6.2499999999999991
 21
-53.5000000000000284
 31
0.0000000000000119
210
0.0
220
1.0
230
-0.0000000000000002
  0
LINE
  5
104B4
  8
0
  6
VERDECKT
 62
     1
 10
-46.0000000000000213
 20
3.5000000000000022
 30
-0.0000000000000008
 11
-46.0000000000000213
 21
1.5000000000000011
 31
-0.0000000000000003
210
0.0
220
1.0
230
-0.0000000000000002
  0
LINE
  5
104B5
  8
0
  6
VERDECKT
 62
     1
 10
-52.0000000000000213
 20
3.5000000000000031
 30
-0.0000000000000008
 11
-52.0000000000000213
 21
1.5000000000000031
 31
-0.0000000000000003
210
0.0
220
1.0
230
-0.0000000000000002
  0
ARC
  5
104B6
  8
0
  6
VERDECKT
 62
     1
 10
41.1339276024062812
 20
5.5000000000000151
 30
0.0
 40
4.0000000000000107
210
0.0
220
-0.0000000000000002
230
-1.0
 50
187.6158228711385902
 51
269.9999999999997726
  0
LINE
  5
104B7
  8
0
  6
VERDECKT
 62
     1
 10
45.9999999999999005
 20
1.5000000000000011
 30
-0.0000000000000003
 11
45.9999999999999005
 21
3.5000000000000022
 31
-0.0000000000000008
210
0.0
220
1.0
230
-0.0000000000000002
  0
LINE
  5
104B8
  8
0
  6
VERDECKT
 62
     1
 10
51.9999999999999076
 20
1.5000000000000031
 30
-0.0000000000000003
 11
51.9999999999999076
 21
3.5000000000000031
 31
-0.0000000000000008
210
0.0
220
1.0
230
-0.0000000000000002
  0
ARC
  5
104B9
  8
0
  6
VERDECKT
 62
     1
 10
41.1339276024061817
 20
5.5000000000000151
 30
-0.0000000000000012
 40
4.0000000000000178
 50
187.615822871138505
 51
269.9999999999997158
  0
ARC
  5
104BA
  8
0
  6
VERDECKT
 62
     1
 10
0.0000000000001137
 20
0.0
 30
0.0
 40
37.5000000000000213
210
0.0
220
-0.0000000000000002
230
-1.0
 50
7.6158228711384357
 51
172.3841771288616087
  0
ARC
  5
104BB
  8
0
  6
VERDECKT
 62
     1
 10
-41.133927602406267
 20
-5.4999999999999858
 30
0.0
 40
4.0000000000000027
210
0.0
220
-0.0000000000000002
230
-1.0
 50
7.6158228711384872
 51
90.0000000000000284
  0
ARC
  5
104BC
  8
0
  6
VERDECKT
 62
     1
 10
0.0
 20
-0.0000000000000036
 30
0.0
 40
37.5000000000000213
210
0.0
220
-0.0000000000000002
230
-1.0
 50
187.615822871138306
 51
246.5723734912805867
  0
ARC
  5
104BD
  8
0
  6
VERDECKT
 62
     1
 10
16.5000000000000284
 20
-38.0788655293195717
 30
0.0000000000000085
 40
4.0000000000000222
 50
113.4276265087194986
 51
179.9999999999998863
  0
ARC
  5
104BE
  8
0
  6
VERDECKT
 62
     1
 10
16.4999999999999893
 20
-38.0788655293195575
 30
0.0
 40
4.0
210
0.0
220
-0.0000000000000002
230
-1.0
 50
113.4276265087192996
 51
180.0
  0
ARC
  5
104BF
  8
0
  6
VERDECKT
 62
     1
 10
-0.0000000000000071
 20
0.0000000000000107
 30
0.0
 40
37.5000000000000213
210
0.0
220
-0.0000000000000002
230
-1.0
 50
293.4276265087192996
 51
352.3841771288616087
  0
ARC
  5
104C0
  8
0
  6
VERDECKT
 62
     1
 10
-41.133927602406267
 20
-5.5000000000000027
 30
0.0000000000000012
 40
4.0000000000000027
 50
7.6158228711384357
 51
90.0000000000000284
  0
LINE
  5
104C1
  8
0
  6
VERDECKT
 62
     1
 10
3.2500000000000449
 20
-51.5000000000000284
 30
0.0000000000000114
 11
3.2500000000000471
 21
-53.5000000000000284
 31
0.0000000000000119
210
0.0
220
1.0
230
-0.0000000000000002
  0
LINE
  5
104C2
  8
0
  6
VERDECKT
 62
     1
 10
-3.249999999999956
 20
-51.5000000000000284
 30
0.0000000000000114
 11
-3.2499999999999551
 21
-53.5000000000000284
 31
0.0000000000000119
210
0.0
220
1.0
230
-0.0000000000000002
  0
LINE
  5
104C3
  8
0
  6
VERDECKT
 62
     1
 10
52.0
 20
-1.4999999999999749
 30
0.0000000000000003
 11
52.0
 21
-4.9999999999999769
 31
0.0000000000000011
210
0.0
220
1.0
230
-0.0000000000000002
  0
LINE
  5
104C4
  8
0
  6
VERDECKT
 62
     1
 10
46.0
 20
-1.4999999999999769
 30
0.0000000000000003
 11
46.0
 21
-4.9999999999999769
 31
0.0000000000000011
210
0.0
220
1.0
230
-0.0000000000000002
  0
LINE
  5
104C5
  8
0
  6
VERDECKT
 62
     1
 10
-46.0000000000000213
 20
-1.5000000000000011
 30
0.0000000000000003
 11
-46.0000000000000213
 21
-4.9999999999999769
 31
0.0000000000000011
210
0.0
220
1.0
230
-0.0000000000000002
  0
LINE
  5
104C6
  8
0
  6
VERDECKT
 62
     1
 10
-52.0000000000000213
 20
-1.5000000000000031
 30
0.0000000000000003
 11
-52.0000000000000213
 21
-4.9999999999999769
 31
0.0000000000000011
210
0.0
220
1.0
230
-0.0000000000000002
  0
LINE
  5
104C7
  8
0
  6
VERDECKT
 62
     1
 10
-51.5
 20
3.0000000000000431
 30
-0.0000000000000007
 11
-46.5
 21
3.0000000000000431
 31
-0.0000000000000007
210
0.0
220
1.0
230
-0.0000000000000002
  0
LINE
  5
104C8
  8
0
  6
VERDECKT
 62
     1
 10
-52.0
 20
2.500000000000044
 30
-0.0000000000000006
 11
-46.0
 21
2.500000000000044
 31
-0.0000000000000006
210
0.0
220
1.0
230
-0.0000000000000002
  0
LINE
  5
104C9
  8
0
  6
VERDECKT
 62
     1
 10
-51.5
 20
2.0000000000000391
 30
-0.0000000000000004
 11
-46.5
 21
2.0000000000000391
 31
-0.0000000000000004
210
0.0
220
1.0
230
-0.0000000000000002
  0
LINE
  5
104CA
  8
0
  6
VERDECKT
 62
     1
 10
-51.5
 20
-1.9999999999999749
 30
0.0000000000000004
 11
-46.5
 21
-1.9999999999999749
 31
0.0000000000000004
210
0.0
220
1.0
230
-0.0000000000000002
  0
LINE
  5
104CB
  8
0
  6
VERDECKT
 62
     1
 10
-52.0
 20
-2.4999999999999729
 30
0.0000000000000006
 11
-46.0
 21
-2.4999999999999729
 31
0.0000000000000006
210
0.0
220
1.0
230
-0.0000000000000002
  0
LINE
  5
104CC
  8
0
  6
VERDECKT
 62
     1
 10
-51.5
 20
-2.9999999999999791
 30
0.0000000000000007
 11
-46.5
 21
-2.9999999999999791
 31
0.0000000000000007
210
0.0
220
1.0
230
-0.0000000000000002
  0
LINE
  5
104CD
  8
0
  6
VERDECKT
 62
     1
 10
-51.5
 20
-3.999999999999984
 30
0.0000000000000009
 11
-46.5
 21
-3.999999999999984
 31
0.0000000000000009
210
0.0
220
1.0
230
-0.0000000000000002
  0
LINE
  5
104CE
  8
0
  6
VERDECKT
 62
     1
 10
-52.0
 20
-4.4999999999999831
 30
0.000000000000001
 11
-46.0
 21
-4.4999999999999831
 31
0.000000000000001
210
0.0
220
1.0
230
-0.0000000000000002
  0
LINE
  5
104CF
  8
0
  6
VERDECKT
 62
     1
 10
-51.5
 20
3.0000000000000462
 30
-0.0000000000000007
 11
-52.0
 21
3.5000000000000449
 31
-0.0000000000000008
210
0.0
220
1.0
230
-0.0000000000000002
  0
LINE
  5
104D0
  8
0
  6
VERDECKT
 62
     1
 10
-46.5
 20
3.0000000000000462
 30
-0.0000000000000007
 11
-46.0
 21
3.5000000000000462
 31
-0.0000000000000008
210
0.0
220
1.0
230
-0.0000000000000002
  0
LINE
  5
104D1
  8
0
  6
VERDECKT
 62
     1
 10
-46.5
 20
3.0000000000000422
 30
-0.0000000000000007
 11
-46.0
 21
2.5000000000000449
 31
-0.0000000000000006
210
0.0
220
1.0
230
-0.0000000000000002
  0
LINE
  5
104D2
  8
0
  6
VERDECKT
 62
     1
 10
-51.5
 20
3.0000000000000422
 30
-0.0000000000000007
 11
-52.0
 21
2.500000000000044
 31
-0.0000000000000006
210
0.0
220
1.0
230
-0.0000000000000002
  0
LINE
  5
104D3
  8
0
  6
VERDECKT
 62
     1
 10
-51.5
 20
2.0000000000000422
 30
-0.0000000000000004
 11
-52.0
 21
2.5000000000000422
 31
-0.0000000000000006
210
0.0
220
1.0
230
-0.0000000000000002
  0
LINE
  5
104D4
  8
0
  6
VERDECKT
 62
     1
 10
-46.5
 20
2.0000000000000422
 30
-0.0000000000000004
 11
-46.0
 21
2.5000000000000431
 31
-0.0000000000000006
210
0.0
220
1.0
230
-0.0000000000000002
  0
LINE
  5
104D5
  8
0
  6
VERDECKT
 62
     1
 10
-46.5
 20
2.0000000000000382
 30
-0.0000000000000004
 11
-46.0
 21
1.5000000000000411
 31
-0.0000000000000003
210
0.0
220
1.0
230
-0.0000000000000002
  0
LINE
  5
104D6
  8
0
  6
VERDECKT
 62
     1
 10
-51.5
 20
2.0000000000000382
 30
-0.0000000000000004
 11
-52.0
 21
1.5000000000000411
 31
-0.0000000000000003
210
0.0
220
1.0
230
-0.0000000000000002
  0
LINE
  5
104D7
  8
0
  6
VERDECKT
 62
     1
 10
-51.4999999999999929
 20
-1.9999999999999709
 30
0.0000000000000004
 11
-52.0
 21
-1.499999999999972
 31
0.0000000000000003
210
0.0
220
1.0
230
-0.0000000000000002
  0
LINE
  5
104D8
  8
0
  6
VERDECKT
 62
     1
 10
-46.5000000000000071
 20
-1.9999999999999709
 30
0.0000000000000004
 11
-46.0
 21
-1.499999999999972
 31
0.0000000000000003
210
0.0
220
1.0
230
-0.0000000000000002
  0
LINE
  5
104D9
  8
0
  6
VERDECKT
 62
     1
 10
-46.5
 20
-1.999999999999976
 30
0.0000000000000004
 11
-46.0
 21
-2.4999999999999729
 31
0.0000000000000006
210
0.0
220
1.0
230
-0.0000000000000002
  0
LINE
  5
104DA
  8
0
  6
VERDECKT
 62
     1
 10
-51.5
 20
-1.999999999999976
 30
0.0000000000000004
 11
-52.0
 21
-2.4999999999999738
 31
0.0000000000000006
210
0.0
220
1.0
230
-0.0000000000000002
  0
LINE
  5
104DB
  8
0
  6
VERDECKT
 62
     1
 10
-51.5
 20
-2.999999999999976
 30
0.0000000000000007
 11
-52.0
 21
-2.499999999999976
 31
0.0000000000000006
210
0.0
220
1.0
230
-0.0000000000000002
  0
LINE
  5
104DC
  8
0
  6
VERDECKT
 62
     1
 10
-46.5
 20
-2.9999999999999751
 30
0.0000000000000007
 11
-46.0
 21
-2.499999999999976
 31
0.0000000000000006
210
0.0
220
1.0
230
-0.0000000000000002
  0
LINE
  5
104DD
  8
0
  6
VERDECKT
 62
     1
 10
-46.5
 20
-2.99999999999998
 30
0.0000000000000007
 11
-46.0
 21
-3.4999999999999769
 31
0.0000000000000008
210
0.0
220
1.0
230
-0.0000000000000002
  0
LINE
  5
104DE
  8
0
  6
VERDECKT
 62
     1
 10
-51.5
 20
-2.99999999999998
 30
0.0000000000000007
 11
-52.0
 21
-3.4999999999999778
 31
0.0000000000000008
210
0.0
220
1.0
230
-0.0000000000000002
  0
LINE
  5
104DF
  8
0
  6
VERDECKT
 62
     1
 10
-51.4999999999999929
 20
-3.9999999999999809
 30
0.0000000000000009
 11
-52.0
 21
-3.49999999999998
 31
0.0000000000000008
210
0.0
220
1.0
230
-0.0000000000000002
  0
LINE
  5
104E0
  8
0
  6
VERDECKT
 62
     1
 10
-46.5000000000000071
 20
-3.99999999999998
 30
0.0000000000000009
 11
-46.0
 21
-3.4999999999999791
 31
0.0000000000000008
210
0.0
220
1.0
230
-0.0000000000000002
  0
LINE
  5
104E1
  8
0
  6
VERDECKT
 62
     1
 10
-46.5
 20
-3.999999999999984
 30
0.0000000000000009
 11
-46.0
 21
-4.4999999999999822
 31
0.000000000000001
210
0.0
220
1.0
230
-0.0000000000000002
  0
LINE
  5
104E2
  8
0
  6
VERDECKT
 62
     1
 10
-51.5
 20
-3.9999999999999849
 30
0.0000000000000009
 11
-52.0
 21
-4.4999999999999822
 31
0.000000000000001
210
0.0
220
1.0
230
-0.0000000000000002
  0
LINE
  5
104E3
  8
0
  6
VERDECKT
 62
     1
 10
-51.4999999999999929
 20
-4.999999999999984
 30
0.0000000000000011
 11
-52.0
 21
-4.499999999999984
 31
0.000000000000001
210
0.0
220
1.0
230
-0.0000000000000002
  0
LINE
  5
104E4
  8
0
  6
VERDECKT
 62
     1
 10
-46.5000000000000071
 20
-4.999999999999984
 30
0.0000000000000011
 11
-46.0
 21
-4.499999999999984
 31
0.000000000000001
210
0.0
220
1.0
230
-0.0000000000000002
  0
LINE
  5
104E5
  8
0
  6
VERDECKT
 62
     1
 10
46.5
 20
3.0000000000000431
 30
-0.0000000000000007
 11
51.5
 21
3.0000000000000431
 31
-0.0000000000000007
210
0.0
220
1.0
230
-0.0000000000000002
  0
LINE
  5
104E6
  8
0
  6
VERDECKT
 62
     1
 10
46.0
 20
2.500000000000044
 30
-0.0000000000000006
 11
52.0
 21
2.500000000000044
 31
-0.0000000000000006
210
0.0
220
1.0
230
-0.0000000000000002
  0
LINE
  5
104E7
  8
0
  6
VERDECKT
 62
     1
 10
46.5
 20
2.0000000000000391
 30
-0.0000000000000004
 11
51.5
 21
2.0000000000000391
 31
-0.0000000000000004
210
0.0
220
1.0
230
-0.0000000000000002
  0
LINE
  5
104E8
  8
0
  6
VERDECKT
 62
     1
 10
46.5
 20
-1.9999999999999749
 30
0.0000000000000004
 11
51.5
 21
-1.9999999999999749
 31
0.0000000000000004
210
0.0
220
1.0
230
-0.0000000000000002
  0
LINE
  5
104E9
  8
0
  6
VERDECKT
 62
     1
 10
46.0
 20
-2.4999999999999729
 30
0.0000000000000006
 11
52.0
 21
-2.4999999999999729
 31
0.0000000000000006
210
0.0
220
1.0
230
-0.0000000000000002
  0
LINE
  5
104EA
  8
0
  6
VERDECKT
 62
     1
 10
46.5
 20
-2.9999999999999791
 30
0.0000000000000007
 11
51.5
 21
-2.9999999999999791
 31
0.0000000000000007
210
0.0
220
1.0
230
-0.0000000000000002
  0
LINE
  5
104EB
  8
0
  6
VERDECKT
 62
     1
 10
46.5
 20
-3.999999999999984
 30
0.0000000000000009
 11
51.5
 21
-3.999999999999984
 31
0.0000000000000009
210
0.0
220
1.0
230
-0.0000000000000002
  0
LINE
  5
104EC
  8
0
  6
VERDECKT
 62
     1
 10
46.0
 20
-4.4999999999999831
 30
0.000000000000001
 11
52.0
 21
-4.4999999999999831
 31
0.000000000000001
210
0.0
220
1.0
230
-0.0000000000000002
  0
LINE
  5
104ED
  8
0
  6
VERDECKT
 62
     1
 10
46.5
 20
3.0000000000000462
 30
-0.0000000000000007
 11
46.0
 21
3.5000000000000449
 31
-0.0000000000000008
210
0.0
220
1.0
230
-0.0000000000000002
  0
LINE
  5
104EE
  8
0
  6
VERDECKT
 62
     1
 10
51.5
 20
3.0000000000000462
 30
-0.0000000000000007
 11
52.0
 21
3.5000000000000462
 31
-0.0000000000000008
210
0.0
220
1.0
230
-0.0000000000000002
  0
LINE
  5
104EF
  8
0
  6
VERDECKT
 62
     1
 10
51.5
 20
3.0000000000000422
 30
-0.0000000000000007
 11
52.0
 21
2.5000000000000449
 31
-0.0000000000000006
210
0.0
220
1.0
230
-0.0000000000000002
  0
LINE
  5
104F0
  8
0
  6
VERDECKT
 62
     1
 10
46.5
 20
3.0000000000000422
 30
-0.0000000000000007
 11
46.0
 21
2.500000000000044
 31
-0.0000000000000006
210
0.0
220
1.0
230
-0.0000000000000002
  0
LINE
  5
104F1
  8
0
  6
VERDECKT
 62
     1
 10
46.5
 20
2.0000000000000422
 30
-0.0000000000000004
 11
46.0
 21
2.5000000000000422
 31
-0.0000000000000006
210
0.0
220
1.0
230
-0.0000000000000002
  0
LINE
  5
104F2
  8
0
  6
VERDECKT
 62
     1
 10
51.5
 20
2.0000000000000422
 30
-0.0000000000000004
 11
52.0
 21
2.5000000000000431
 31
-0.0000000000000006
210
0.0
220
1.0
230
-0.0000000000000002
  0
LINE
  5
104F3
  8
0
  6
VERDECKT
 62
     1
 10
51.5
 20
2.0000000000000382
 30
-0.0000000000000004
 11
52.0
 21
1.5000000000000411
 31
-0.0000000000000003
210
0.0
220
1.0
230
-0.0000000000000002
  0
LINE
  5
104F4
  8
0
  6
VERDECKT
 62
     1
 10
46.5
 20
2.0000000000000382
 30
-0.0000000000000004
 11
46.0
 21
1.5000000000000411
 31
-0.0000000000000003
210
0.0
220
1.0
230
-0.0000000000000002
  0
LINE
  5
104F5
  8
0
  6
VERDECKT
 62
     1
 10
46.5000000000000071
 20
-1.9999999999999709
 30
0.0000000000000004
 11
46.0
 21
-1.499999999999972
 31
0.0000000000000003
210
0.0
220
1.0
230
-0.0000000000000002
  0
LINE
  5
104F6
  8
0
  6
VERDECKT
 62
     1
 10
51.4999999999999929
 20
-1.9999999999999709
 30
0.0000000000000004
 11
52.0
 21
-1.499999999999972
 31
0.0000000000000003
210
0.0
220
1.0
230
-0.0000000000000002
  0
LINE
  5
104F7
  8
0
  6
VERDECKT
 62
     1
 10
51.5
 20
-1.999999999999976
 30
0.0000000000000004
 11
52.0
 21
-2.4999999999999729
 31
0.0000000000000006
210
0.0
220
1.0
230
-0.0000000000000002
  0
LINE
  5
104F8
  8
0
  6
VERDECKT
 62
     1
 10
46.5
 20
-1.999999999999976
 30
0.0000000000000004
 11
46.0
 21
-2.4999999999999738
 31
0.0000000000000006
210
0.0
220
1.0
230
-0.0000000000000002
  0
LINE
  5
104F9
  8
0
  6
VERDECKT
 62
     1
 10
46.5
 20
-2.999999999999976
 30
0.0000000000000007
 11
46.0
 21
-2.499999999999976
 31
0.0000000000000006
210
0.0
220
1.0
230
-0.0000000000000002
  0
LINE
  5
104FA
  8
0
  6
VERDECKT
 62
     1
 10
51.5
 20
-2.9999999999999751
 30
0.0000000000000007
 11
52.0
 21
-2.499999999999976
 31
0.0000000000000006
210
0.0
220
1.0
230
-0.0000000000000002
  0
LINE
  5
104FB
  8
0
  6
VERDECKT
 62
     1
 10
51.5
 20
-2.99999999999998
 30
0.0000000000000007
 11
52.0
 21
-3.4999999999999769
 31
0.0000000000000008
210
0.0
220
1.0
230
-0.0000000000000002
  0
LINE
  5
104FC
  8
0
  6
VERDECKT
 62
     1
 10
46.5
 20
-2.99999999999998
 30
0.0000000000000007
 11
46.0
 21
-3.4999999999999778
 31
0.0000000000000008
210
0.0
220
1.0
230
-0.0000000000000002
  0
LINE
  5
104FD
  8
0
  6
VERDECKT
 62
     1
 10
46.5000000000000071
 20
-3.9999999999999809
 30
0.0000000000000009
 11
46.0
 21
-3.49999999999998
 31
0.0000000000000008
210
0.0
220
1.0
230
-0.0000000000000002
  0
LINE
  5
104FE
  8
0
  6
VERDECKT
 62
     1
 10
51.4999999999999929
 20
-3.99999999999998
 30
0.0000000000000009
 11
52.0
 21
-3.4999999999999791
 31
0.0000000000000008
210
0.0
220
1.0
230
-0.0000000000000002
  0
LINE
  5
104FF
  8
0
  6
VERDECKT
 62
     1
 10
51.5
 20
-3.999999999999984
 30
0.0000000000000009
 11
52.0
 21
-4.4999999999999822
 31
0.000000000000001
210
0.0
220
1.0
230
-0.0000000000000002
  0
LINE
  5
10500
  8
0
  6
VERDECKT
 62
     1
 10
46.5
 20
-3.9999999999999849
 30
0.0000000000000009
 11
46.0
 21
-4.4999999999999822
 31
0.000000000000001
210
0.0
220
1.0
230
-0.0000000000000002
  0
LINE
  5
10501
  8
0
  6
VERDECKT
 62
     1
 10
46.5000000000000071
 20
-4.999999999999984
 30
0.0000000000000011
 11
46.0
 21
-4.499999999999984
 31
0.000000000000001
210
0.0
220
1.0
230
-0.0000000000000002
  0
LINE
  5
10502
  8
0
  6
VERDECKT
 62
     1
 10
51.4999999999999929
 20
-4.999999999999984
 30
0.0000000000000011
 11
52.0
 21
-4.499999999999984
 31
0.000000000000001
210
0.0
220
1.0
230
-0.0000000000000002
  0
LINE
  5
10503
  8
0
  6
VERDECKT
 62
     1
 10
3.0
 20
-51.5000000000000284
 30
0.0000000000000114
 11
3.0
 21
-53.5000000000000284
 31
0.0000000000000119
210
0.0
220
1.0
230
-0.0000000000000002
  0
LINE
  5
10504
  8
0
  6
VERDECKT
 62
     1
 10
-3.0
 20
-51.5000000000000284
 30
0.0000000000000114
 11
-3.0
 21
-53.5000000000000284
 31
0.0000000000000119
210
0.0
220
1.0
230
-0.0000000000000002
  0
ENDBLK
  5
10506
  8
0
  0
BLOCK
  8
0
  2
A$CCDA131D1
 70
     0
 10
0.0
 20
0.0
 30
0.0
  3
A$CCDA131D1
  1

  0
LINE
  5
1050A
  8
0
  6
CONTINUOUS
 62
     3
 10
12.5000000000000302
 20
1.5000000000000071
 30
-0.0000000000000003
 11
-12.5000000000001492
 21
1.5
 31
-0.0000000000000003
210
-0.0000000000000002
220
1.0
230
-0.0000000000000002
  0
LINE
  5
1050B
  8
0
  6
CONTINUOUS
 62
     3
 10
-12.5000000000001599
 20
3.5000000000000022
 30
-0.0000000000000008
 11
12.5000000000000302
 21
3.5000000000000089
 31
-0.0000000000000008
210
-0.0000000000000002
220
1.0
230
-0.0000000000000002
  0
LINE
  5
1050C
  8
0
  6
CONTINUOUS
 62
     3
 10
12.5000000000000302
 20
1.5000000000000071
 30
-0.0000000000000003
 11
12.5000000000000302
 21
3.5000000000000089
 31
-0.0000000000000008
210
-0.0000000000000002
220
1.0
230
-0.0000000000000002
  0
LINE
  5
1050D
  8
0
  6
CONTINUOUS
 62
     3
 10
-12.5000000000001599
 20
1.5
 30
-0.0000000000000003
 11
-12.5000000000001599
 21
3.5000000000000031
 31
-0.0000000000000008
210
-0.0000000000000002
220
1.0
230
-0.0000000000000002
  0
LINE
  5
1050E
  8
0
  6
CONTINUOUS
 62
     3
 10
12.5000000000000497
 20
3.500000000000004
 30
-0.0000000000000008
 11
12.5000000000000497
 21
5.2283950617284018
 31
-0.0000000000000012
210
-0.0000000000000002
220
1.0
230
-0.0000000000000002
  0
LINE
  5
1050F
  8
0
  6
CONTINUOUS
 62
     3
 10
-12.4999999999999591
 20
5.2283950617283939
 30
-0.0000000000000012
 11
-12.4999999999999503
 21
3.4999999999999929
 31
-0.0000000000000008
210
-0.0000000000000002
220
1.0
230
-0.0000000000000002
  0
LINE
  5
10510
  8
0
  6
CONTINUOUS
 62
     3
 10
12.5000000000000497
 20
5.2283950617285599
 30
-0.0000000000000012
 11
12.5000000000000409
 21
38.5000000000000284
 31
-0.0000000000000085
210
-0.0000000000000002
220
1.0
230
-0.0000000000000002
  0
LINE
  5
10511
  8
0
  6
CONTINUOUS
 62
     3
 10
-12.4999999999999591
 20
38.5000000000000284
 30
-0.0000000000000085
 11
-12.4999999999999503
 21
5.2283950617283841
 31
-0.0000000000000012
210
-0.0000000000000002
220
1.0
230
-0.0000000000000002
  0
ARC
  5
10512
  8
0
  6
CONTINUOUS
 62
     3
 10
-5.3851648071346041
 20
40.5000000000002274
 30
0.0
 40
2.000000000000199
210
0.0
220
-0.0000000000000002
230
-1.0
 50
270.0000000000010232
 51
291.0394697813159723
  0
LINE
  5
10513
  8
0
  6
CONTINUOUS
 62
     3
 10
5.3851648071345677
 20
38.5000000000000284
 30
-0.0000000000000085
 11
12.5000000000000409
 21
38.5000000000000284
 31
-0.0000000000000085
210
-0.0000000000000002
220
1.0
230
-0.0000000000000002
  0
LINE
  5
10514
  8
0
  6
CONTINUOUS
 62
     3
 10
-12.4999999999999591
 20
38.5000000000000284
 30
-0.0000000000000085
 11
-5.3851648071344327
 21
38.5000000000000284
 31
-0.0000000000000085
210
-0.0000000000000002
220
1.0
230
-0.0000000000000002
  0
ARC
  5
10515
  8
0
  6
CONTINUOUS
 62
     3
 10
5.3851648071344682
 20
40.5000000000002203
 30
0.0
 40
2.0000000000001918
210
0.0
220
-0.0000000000000002
230
-1.0
 50
248.9605302186838003
 51
269.9999999999989768
  0
ARC
  5
10516
  8
0
  6
CONTINUOUS
 62
     3
 10
-0.0000000000000714
 20
26.5000000000000391
 30
0.0
 40
12.9999999999999805
210
0.0
220
-0.0000000000000002
230
-1.0
 50
68.9605302186827345
 51
111.0394697813171945
  0
LINE
  5
10517
  8
0
  6
CONTINUOUS
 62
     3
 10
-3.7499999999999418
 20
-4.9999999999999796
 30
0.0000000000000011
 11
3.7500000000000591
 21
-4.9999999999999778
 31
0.0000000000000011
210
-0.0000000000000002
220
1.0
230
-0.0000000000000002
  0
LINE
  5
10518
  8
0
  6
CONTINUOUS
 62
     3
 10
-12.5000000000001599
 20
-3.5000000000000089
 30
0.0000000000000008
 11
12.5000000000000302
 21
-3.5000000000000022
 31
0.0000000000000008
210
-0.0000000000000002
220
1.0
230
-0.0000000000000002
  0
LINE
  5
10519
  8
0
  6
CONTINUOUS
 62
     3
 10
-12.4999999999999396
 20
-35.1599909798971595
 30
0.0000000000000078
 11
-12.4999999999999396
 21
-36.9864840178138934
 31
0.0000000000000082
210
-0.0000000000000002
220
1.0
230
-0.0000000000000002
  0
LINE
  5
1051A
  8
0
  6
CONTINUOUS
 62
     3
 10
12.5000000000000693
 20
-36.9864840178138934
 30
0.0000000000000082
 11
12.5000000000000604
 21
-35.1599909798971595
 31
0.0000000000000078
210
-0.0000000000000002
220
1.0
230
-0.0000000000000002
  0
LINE
  5
1051B
  8
0
  6
CONTINUOUS
 62
     3
 10
-12.4999999999999396
 20
-5.2283950617283921
 30
0.0000000000000012
 11
-12.4999999999999396
 21
-35.1599909798971595
 31
0.0000000000000078
210
-0.0000000000000002
220
1.0
230
-0.0000000000000002
  0
LINE
  5
1051C
  8
0
  6
CONTINUOUS
 62
     3
 10
12.5000000000000604
 20
-5.2283950617283859
 30
0.0000000000000012
 11
12.5000000000000604
 21
-35.1599909798971595
 31
0.0000000000000078
210
-0.0000000000000002
220
1.0
230
-0.0000000000000002
  0
LINE
  5
1051D
  8
0
  6
CONTINUOUS
 62
     3
 10
12.5000000000000604
 20
-5.2283950617283939
 30
0.0000000000000012
 11
12.5000000000000497
 21
-3.4999999999999929
 31
0.0000000000000008
210
-0.0000000000000002
220
1.0
230
-0.0000000000000002
  0
LINE
  5
1051E
  8
0
  6
CONTINUOUS
 62
     3
 10
-12.4999999999999503
 20
-3.500000000000004
 30
0.0000000000000008
 11
-12.4999999999999503
 21
-5.2283950617284018
 31
0.0000000000000012
210
-0.0000000000000002
220
1.0
230
-0.0000000000000002
  0
LINE
  5
1051F
  8
0
  6
CONTINUOUS
 62
     3
 10
12.5000000000000302
 20
-1.5
 30
0.0000000000000003
 11
12.5000000000000302
 21
-3.5000000000000031
 31
0.0000000000000008
210
-0.0000000000000002
220
1.0
230
-0.0000000000000002
  0
LINE
  5
10520
  8
0
  6
CONTINUOUS
 62
     3
 10
12.5000000000000693
 20
-36.9864840178138934
 30
0.0000000000000082
 11
12.5000000000000693
 21
-49.5000000000000426
 31
0.000000000000011
210
-0.0000000000000002
220
1.0
230
-0.0000000000000002
  0
LINE
  5
10521
  8
0
  6
CONTINUOUS
 62
     3
 10
12.5000000000000693
 20
-53.5000000000000426
 30
0.0000000000000119
 11
12.5000000000000693
 21
-49.5000000000000426
 31
0.000000000000011
210
-0.0000000000000002
220
1.0
230
-0.0000000000000002
  0
LINE
  5
10522
  8
0
  6
CONTINUOUS
 62
     3
 10
-12.4999999999999307
 20
-49.5000000000000426
 30
0.000000000000011
 11
-12.4999999999999307
 21
-36.9864840178138934
 31
0.0000000000000082
210
-0.0000000000000002
220
1.0
230
-0.0000000000000002
  0
LINE
  5
10523
  8
0
  6
CONTINUOUS
 62
     3
 10
-12.4999999999999307
 20
-53.5000000000000426
 30
0.0000000000000119
 11
12.5000000000000693
 21
-53.5000000000000426
 31
0.0000000000000119
210
-0.0000000000000002
220
1.0
230
-0.0000000000000002
  0
LINE
  5
10524
  8
0
  6
CONTINUOUS
 62
     3
 10
-12.4999999999999307
 20
-49.5000000000000426
 30
0.000000000000011
 11
-12.4999999999999307
 21
-53.5000000000000426
 31
0.0000000000000119
210
-0.0000000000000002
220
1.0
230
-0.0000000000000002
  0
LINE
  5
10525
  8
0
  6
CONTINUOUS
 62
     3
 10
12.5000000000000302
 20
-1.5
 30
0.0000000000000003
 11
-12.5000000000001492
 21
-1.5000000000000071
 31
0.0000000000000003
210
-0.0000000000000002
220
1.0
230
-0.0000000000000002
  0
LINE
  5
10526
  8
0
  6
CONTINUOUS
 62
     3
 10
-12.5000000000001599
 20
-1.5000000000000071
 30
0.0000000000000003
 11
-12.5000000000001599
 21
-3.5000000000000089
 31
0.0000000000000008
210
-0.0000000000000002
220
1.0
230
-0.0000000000000002
  0
LINE
  5
10527
  8
0
  6
CONTINUOUS
 62
     3
 10
3.7500000000000591
 20
-3.9999999999999769
 30
0.0000000000000009
 11
3.7500000000000591
 21
-4.9999999999999769
 31
0.0000000000000011
210
-0.0000000000000002
220
1.0
230
-0.0000000000000002
  0
LINE
  5
10528
  8
0
  6
CONTINUOUS
 62
     3
 10
-3.7499999999999418
 20
-3.99999999999998
 30
0.0000000000000009
 11
-3.7499999999999418
 21
-4.9999999999999787
 31
0.0000000000000011
210
-0.0000000000000002
220
1.0
230
-0.0000000000000002
  0
ARC
  5
10529
  8
0
  6
CONTINUOUS
 62
     3
 10
-4.2500000000000551
 20
-3.9999999999999769
 30
0.0
 40
0.4999999999999975
210
0.0
220
-0.0000000000000002
230
-1.0
 50
0.0
 51
90.0000000000000711
  0
ARC
  5
1052A
  8
0
  6
CONTINUOUS
 62
     3
 10
4.2499999999999396
 20
-3.99999999999998
 30
0.0
 40
0.4999999999999984
210
0.0
220
-0.0000000000000002
230
-1.0
 50
89.9999999999998863
 51
180.0
  0
LINE
  5
1052B
  8
0
  6
CONTINUOUS
 62
     3
 10
-2.5000000000000031
 20
10.0000000000000693
 30
-0.0000000000000022
 11
2.4999999999999991
 21
10.0000000000000693
 31
-0.0000000000000022
210
-0.0000000000000002
220
1.0
230
-0.0000000000000002
  0
LINE
  5
1052C
  8
0
  6
CONTINUOUS
 62
     3
 10
-3.0000000000000049
 20
9.5000000000000711
 30
-0.0000000000000021
 11
3.0000000000000031
 21
9.5000000000000746
 31
-0.0000000000000021
210
-0.0000000000000002
220
1.0
230
-0.0000000000000002
  0
LINE
  5
1052D
  8
0
  6
CONTINUOUS
 62
     3
 10
-2.5000000000000022
 20
9.0000000000000657
 30
-0.000000000000002
 11
2.5
 21
9.0000000000000657
 31
-0.000000000000002
210
-0.0000000000000002
220
1.0
230
-0.0000000000000002
  0
LINE
  5
1052E
  8
0
  6
CONTINUOUS
 62
     3
 10
-3.000000000000004
 20
8.5000000000000657
 30
-0.0000000000000019
 11
3.0000000000000031
 21
8.5000000000000693
 31
-0.0000000000000019
210
-0.0000000000000002
220
1.0
230
-0.0000000000000002
  0
LINE
  5
1052F
  8
0
  6
CONTINUOUS
 62
     3
 10
-2.5000000000000009
 20
8.0000000000000622
 30
-0.0000000000000018
 11
2.5
 21
8.0000000000000622
 31
-0.0000000000000018
210
-0.0000000000000002
220
1.0
230
-0.0000000000000002
  0
LINE
  5
10530
  8
0
  6
CONTINUOUS
 62
     3
 10
-3.000000000000004
 20
7.5000000000000631
 30
-0.0000000000000017
 11
3.0000000000000031
 21
7.5000000000000666
 31
-0.0000000000000017
210
-0.0000000000000002
220
1.0
230
-0.0000000000000002
  0
LINE
  5
10531
  8
0
  6
CONTINUOUS
 62
     3
 10
-2.5000000000000009
 20
7.0000000000000577
 30
-0.0000000000000016
 11
2.5
 21
7.0000000000000622
 31
-0.0000000000000016
210
-0.0000000000000002
220
1.0
230
-0.0000000000000002
  0
LINE
  5
10532
  8
0
  6
CONTINUOUS
 62
     3
 10
-3.0000000000000031
 20
6.5000000000000586
 30
-0.0000000000000014
 11
3.000000000000004
 21
6.5000000000000631
 31
-0.0000000000000014
210
-0.0000000000000002
220
1.0
230
-0.0000000000000002
  0
LINE
  5
10533
  8
0
  6
CONTINUOUS
 62
     3
 10
-2.5
 20
6.0000000000000542
 30
-0.0000000000000013
 11
2.5000000000000009
 21
6.0000000000000568
 31
-0.0000000000000013
210
-0.0000000000000002
220
1.0
230
-0.0000000000000002
  0
LINE
  5
10534
  8
0
  6
CONTINUOUS
 62
     3
 10
-3.0000000000000031
 20
5.5000000000000551
 30
-0.0000000000000012
 11
3.000000000000004
 21
5.5000000000000586
 31
-0.0000000000000012
210
-0.0000000000000002
220
1.0
230
-0.0000000000000002
  0
LINE
  5
10535
  8
0
  6
CONTINUOUS
 62
     3
 10
-2.5
 20
5.0000000000000506
 30
-0.0000000000000011
 11
2.5000000000000009
 21
5.0000000000000551
 31
-0.0000000000000011
210
-0.0000000000000002
220
1.0
230
-0.0000000000000002
  0
LINE
  5
10536
  8
0
  6
CONTINUOUS
 62
     3
 10
-3.0000000000000031
 20
4.5000000000000524
 30
-0.000000000000001
 11
3.0000000000000049
 21
4.5000000000000551
 31
-0.000000000000001
210
-0.0000000000000002
220
1.0
230
-0.0000000000000002
  0
LINE
  5
10537
  8
0
  6
CONTINUOUS
 62
     3
 10
-2.4999999999999991
 20
4.0000000000000453
 30
-0.0000000000000009
 11
2.5000000000000022
 21
4.000000000000048
 31
-0.0000000000000009
210
-0.0000000000000002
220
1.0
230
-0.0000000000000002
  0
LINE
  5
10538
  8
0
  6
CONTINUOUS
 62
     3
 10
-2.4999999999999969
 20
1.0000000000000331
 30
-0.0000000000000002
 11
2.5000000000000031
 21
1.0000000000000351
 31
-0.0000000000000002
210
-0.0000000000000002
220
1.0
230
-0.0000000000000002
  0
LINE
  5
10539
  8
0
  6
CONTINUOUS
 62
     3
 10
-3.0
 20
0.5000000000000342
 30
-0.0000000000000001
 11
3.0000000000000071
 21
0.5000000000000373
 31
-0.0000000000000001
210
-0.0000000000000002
220
1.0
230
-0.0000000000000002
  0
LINE
  5
1053A
  8
0
  6
CONTINUOUS
 62
     3
 10
-2.499999999999996
 20
0.0000000000000289
 30
0.0
 11
2.5000000000000031
 21
0.0000000000000315
 31
0.0
210
-0.0000000000000002
220
1.0
230
-0.0000000000000002
  0
LINE
  5
1053B
  8
0
  6
CONTINUOUS
 62
     3
 10
-2.9999999999999991
 20
-0.4999999999999699
 30
0.0000000000000001
 11
3.0000000000000071
 21
-0.4999999999999666
 31
0.0000000000000001
210
-0.0000000000000002
220
1.0
230
-0.0000000000000002
  0
LINE
  5
1053C
  8
0
  6
CONTINUOUS
 62
     3
 10
-2.499999999999996
 20
-0.9999999999999734
 30
0.0000000000000002
 11
2.5000000000000031
 21
-0.9999999999999706
 31
0.0000000000000002
210
-0.0000000000000002
220
1.0
230
-0.0000000000000002
  0
LINE
  5
1053D
  8
0
  6
CONTINUOUS
 62
     3
 10
-2.9999999999999951
 20
-5.4999999999999902
 30
0.0000000000000012
 11
3.0000000000000089
 21
-5.4999999999999858
 31
0.0000000000000012
210
-0.0000000000000002
220
1.0
230
-0.0000000000000002
  0
LINE
  5
1053E
  8
0
  6
CONTINUOUS
 62
     3
 10
-2.499999999999992
 20
-5.9999999999999929
 30
0.0000000000000013
 11
2.5000000000000062
 21
-5.9999999999999902
 31
0.0000000000000013
210
-0.0000000000000002
220
1.0
230
-0.0000000000000002
  0
LINE
  5
1053F
  8
0
  6
CONTINUOUS
 62
     3
 10
-2.9999999999999951
 20
-6.4999999999999929
 30
0.0000000000000014
 11
3.0000000000000089
 21
-6.4999999999999902
 31
0.0000000000000014
210
-0.0000000000000002
220
1.0
230
-0.0000000000000002
  0
LINE
  5
10540
  8
0
  6
CONTINUOUS
 62
     3
 10
-2.499999999999992
 20
-7.0
 30
0.0000000000000016
 11
2.5000000000000062
 21
-6.9999999999999973
 31
0.0000000000000016
210
-0.0000000000000002
220
1.0
230
-0.0000000000000002
  0
LINE
  5
10541
  8
0
  6
CONTINUOUS
 62
     3
 10
-2.9999999999999938
 20
-7.4999999999999982
 30
0.0000000000000017
 11
3.0000000000000102
 21
-7.4999999999999938
 31
0.0000000000000017
210
-0.0000000000000002
220
1.0
230
-0.0000000000000002
  0
LINE
  5
10542
  8
0
  6
CONTINUOUS
 62
     3
 10
-2.499999999999992
 20
-8.0000000000000036
 30
0.0000000000000018
 11
2.5000000000000071
 21
-8.0000000000000018
 31
0.0000000000000018
210
-0.0000000000000002
220
1.0
230
-0.0000000000000002
  0
LINE
  5
10543
  8
0
  6
CONTINUOUS
 62
     3
 10
-2.9999999999999951
 20
-8.5000000000000018
 30
0.0000000000000019
 11
3.0000000000000102
 21
-8.4999999999999982
 31
0.0000000000000019
210
-0.0000000000000002
220
1.0
230
-0.0000000000000002
  0
LINE
  5
10544
  8
0
  6
CONTINUOUS
 62
     3
 10
-2.4999999999999889
 20
-9.0000000000000036
 30
0.000000000000002
 11
2.5000000000000071
 21
-9.0000000000000036
 31
0.000000000000002
210
-0.0000000000000002
220
1.0
230
-0.0000000000000002
  0
LINE
  5
10545
  8
0
  6
CONTINUOUS
 62
     3
 10
-2.9999999999999929
 20
-9.5000000000000053
 30
0.0000000000000021
 11
3.0000000000000111
 21
-9.5000000000000018
 31
0.0000000000000021
210
-0.0000000000000002
220
1.0
230
-0.0000000000000002
  0
LINE
  5
10546
  8
0
  6
CONTINUOUS
 62
     3
 10
-2.4999999999999898
 20
-10.0
 30
0.0000000000000022
 11
2.500000000000008
 21
-10.0
 31
0.0000000000000022
210
-0.0000000000000002
220
1.0
230
-0.0000000000000002
  0
POLYLINE
  5
10547
  8
0
  6
CONTINUOUS
 62
     3
 10
2.499999999999996
 20
15.6896319430405367
 30
-0.0000000000000035
 66
     1
 70
     8
  0
VERTEX
  8
0
  5
106C5
 10
2.50000
 20
15.6896
 30
-3.50000e-15
  70
    32
  0
VERTEX
  8
0
  5
106C6
 10
2.49925
 20
15.6297
 30
-3.48802e-15
  70
    32
  0
VERTEX
  8
0
  5
106C7
 10
2.49699
 20
15.5699
 30
-3.47605e-15
  70
    32
  0
VERTEX
  8
0
  5
106C8
 10
2.49323
 20
15.5101
 30
-3.46409e-15
  70
    32
  0
VERTEX
  8
0
  5
106C9
 10
2.48796
 20
15.4504
 30
-3.45215e-15
  70
    32
  0
VERTEX
  8
0
  5
106CA
 10
2.48120
 20
15.3909
 30
-3.44025e-15
  70
    32
  0
VERTEX
  8
0
  5
106CB
 10
2.47294
 20
15.3315
 30
-3.42837e-15
  70
    32
  0
VERTEX
  8
0
  5
106CC
 10
2.46319
 20
15.2724
 30
-3.41655e-15
  70
    32
  0
VERTEX
  8
0
  5
106CD
 10
2.45196
 20
15.2135
 30
-3.40477e-15
  70
    32
  0
VERTEX
  8
0
  5
106CE
 10
2.43926
 20
15.1549
 30
-3.39305e-15
  70
    32
  0
VERTEX
  8
0
  5
106CF
 10
2.42508
 20
15.0966
 30
-3.38139e-15
  70
    32
  0
VERTEX
  8
0
  5
106D0
 10
2.40944
 20
15.0387
 30
-3.36980e-15
  70
    32
  0
VERTEX
  8
0
  5
106D1
 10
2.39235
 20
14.9811
 30
-3.35830e-15
  70
    32
  0
VERTEX
  8
0
  5
106D2
 10
2.37382
 20
14.9240
 30
-3.34688e-15
  70
    32
  0
VERTEX
  8
0
  5
106D3
 10
2.35386
 20
14.8674
 30
-3.33555e-15
  70
    32
  0
VERTEX
  8
0
  5
106D4
 10
2.33248
 20
14.8112
 30
-3.32432e-15
  70
    32
  0
VERTEX
  8
0
  5
106D5
 10
2.30970
 20
14.7556
 30
-3.31319e-15
  70
    32
  0
VERTEX
  8
0
  5
106D6
 10
2.28552
 20
14.7005
 30
-3.30218e-15
  70
    32
  0
VERTEX
  8
0
  5
106D7
 10
2.25997
 20
14.6461
 30
-3.29129e-15
  70
    32
  0
VERTEX
  8
0
  5
106D8
 10
2.23306
 20
14.5922
 30
-3.28052e-15
  70
    32
  0
VERTEX
  8
0
  5
106D9
 10
2.20480
 20
14.5391
 30
-3.26989e-15
  70
    32
  0
VERTEX
  8
0
  5
106DA
 10
2.17522
 20
14.4866
 30
-3.25939e-15
  70
    32
  0
VERTEX
  8
0
  5
106DB
 10
2.14432
 20
14.4348
 30
-3.24904e-15
  70
    32
  0
VERTEX
  8
0
  5
106DC
 10
2.11213
 20
14.3838
 30
-3.23884e-15
  70
    32
  0
VERTEX
  8
0
  5
106DD
 10
2.07867
 20
14.3336
 30
-3.22880e-15
  70
    32
  0
VERTEX
  8
0
  5
106DE
 10
2.04396
 20
14.2842
 30
-3.21892e-15
  70
    32
  0
VERTEX
  8
0
  5
106DF
 10
2.00802
 20
14.2357
 30
-3.20921e-15
  70
    32
  0
VERTEX
  8
0
  5
106E0
 10
1.97087
 20
14.1880
 30
-3.19968e-15
  70
    32
  0
VERTEX
  8
0
  5
106E1
 10
1.93253
 20
14.1412
 30
-3.19032e-15
  70
    32
  0
VERTEX
  8
0
  5
106E2
 10
1.89302
 20
14.0954
 30
-3.18115e-15
  70
    32
  0
VERTEX
  8
0
  5
106E3
 10
1.85238
 20
14.0505
 30
-3.17218e-15
  70
    32
  0
VERTEX
  8
0
  5
106E4
 10
1.81062
 20
14.0066
 30
-3.16340e-15
  70
    32
  0
VERTEX
  8
0
  5
106E5
 10
1.76777
 20
13.9638
 30
-3.15483e-15
  70
    32
  0
VERTEX
  8
0
  5
106E6
 10
1.72385
 20
13.9219
 30
-3.14646e-15
  70
    32
  0
VERTEX
  8
0
  5
106E7
 10
1.67890
 20
13.8812
 30
-3.13831e-15
  70
    32
  0
VERTEX
  8
0
  5
106E8
 10
1.63293
 20
13.8415
 30
-3.13037e-15
  70
    32
  0
VERTEX
  8
0
  5
106E9
 10
1.58598
 20
13.8029
 30
-3.12266e-15
  70
    32
  0
VERTEX
  8
0
  5
106EA
 10
1.53808
 20
13.7655
 30
-3.11517e-15
  70
    32
  0
VERTEX
  8
0
  5
106EB
 10
1.48925
 20
13.7292
 30
-3.10792e-15
  70
    32
  0
VERTEX
  8
0
  5
106EC
 10
1.43952
 20
13.6941
 30
-3.10090e-15
  70
    32
  0
VERTEX
  8
0
  5
106ED
 10
1.38893
 20
13.6602
 30
-3.09412e-15
  70
    32
  0
VERTEX
  8
0
  5
106EE
 10
1.33749
 20
13.6276
 30
-3.08759e-15
  70
    32
  0
VERTEX
  8
0
  5
106EF
 10
1.28526
 20
13.5961
 30
-3.08130e-15
  70
    32
  0
VERTEX
  8
0
  5
106F0
 10
1.23225
 20
13.5660
 30
-3.07527e-15
  70
    32
  0
VERTEX
  8
0
  5
106F1
 10
1.17849
 20
13.5371
 30
-3.06949e-15
  70
    32
  0
VERTEX
  8
0
  5
106F2
 10
1.12403
 20
13.5095
 30
-3.06397e-15
  70
    32
  0
VERTEX
  8
0
  5
106F3
 10
1.06889
 20
13.4832
 30
-3.05872e-15
  70
    32
  0
VERTEX
  8
0
  5
106F4
 10
1.01310
 20
13.4583
 30
-3.05373e-15
  70
    32
  0
VERTEX
  8
0
  5
106F5
 10
0.956709
 20
13.4347
 30
-3.04901e-15
  70
    32
  0
VERTEX
  8
0
  5
106F6
 10
0.899738
 20
13.4124
 30
-3.04456e-15
  70
    32
  0
VERTEX
  8
0
  5
106F7
 10
0.842225
 20
13.3916
 30
-3.04039e-15
  70
    32
  0
VERTEX
  8
0
  5
106F8
 10
0.784204
 20
13.3721
 30
-3.03649e-15
  70
    32
  0
VERTEX
  8
0
  5
106F9
 10
0.725712
 20
13.3540
 30
-3.03287e-15
  70
    32
  0
VERTEX
  8
0
  5
106FA
 10
0.666782
 20
13.3373
 30
-3.02953e-15
  70
    32
  0
VERTEX
  8
0
  5
106FB
 10
0.607450
 20
13.3220
 30
-3.02648e-15
  70
    32
  0
VERTEX
  8
0
  5
106FC
 10
0.547753
 20
13.3082
 30
-3.02371e-15
  70
    32
  0
VERTEX
  8
0
  5
106FD
 10
0.487726
 20
13.2958
 30
-3.02123e-15
  70
    32
  0
VERTEX
  8
0
  5
106FE
 10
0.427405
 20
13.2848
 30
-3.01904e-15
  70
    32
  0
VERTEX
  8
0
  5
106FF
 10
0.366826
 20
13.2753
 30
-3.01714e-15
  70
    32
  0
VERTEX
  8
0
  5
10700
 10
0.306027
 20
13.2672
 30
-3.01552e-15
  70
    32
  0
VERTEX
  8
0
  5
10701
 10
0.245043
 20
13.2606
 30
-3.01420e-15
  70
    32
  0
VERTEX
  8
0
  5
10702
 10
0.183911
 20
13.2555
 30
-3.01317e-15
  70
    32
  0
VERTEX
  8
0
  5
10703
 10
0.122669
 20
13.2518
 30
-3.01244e-15
  70
    32
  0
VERTEX
  8
0
  5
10704
 10
0.0613531
 20
13.2496
 30
-3.01200e-15
  70
    32
  0
VERTEX
  8
0
  5
10705
 10
-6.79477e-15
 20
13.2489
 30
-3.01185e-15
  70
    32
  0
VERTEX
  8
0
  5
10706
 10
-0.0613531
 20
13.2496
 30
-3.01200e-15
  70
    32
  0
VERTEX
  8
0
  5
10707
 10
-0.122669
 20
13.2518
 30
-3.01244e-15
  70
    32
  0
VERTEX
  8
0
  5
10708
 10
-0.183911
 20
13.2555
 30
-3.01317e-15
  70
    32
  0
VERTEX
  8
0
  5
10709
 10
-0.245043
 20
13.2606
 30
-3.01420e-15
  70
    32
  0
VERTEX
  8
0
  5
1070A
 10
-0.306027
 20
13.2672
 30
-3.01552e-15
  70
    32
  0
VERTEX
  8
0
  5
1070B
 10
-0.366826
 20
13.2753
 30
-3.01714e-15
  70
    32
  0
VERTEX
  8
0
  5
1070C
 10
-0.427405
 20
13.2848
 30
-3.01904e-15
  70
    32
  0
VERTEX
  8
0
  5
1070D
 10
-0.487726
 20
13.2958
 30
-3.02123e-15
  70
    32
  0
VERTEX
  8
0
  5
1070E
 10
-0.547753
 20
13.3082
 30
-3.02371e-15
  70
    32
  0
VERTEX
  8
0
  5
1070F
 10
-0.607450
 20
13.3220
 30
-3.02648e-15
  70
    32
  0
VERTEX
  8
0
  5
10710
 10
-0.666782
 20
13.3373
 30
-3.02953e-15
  70
    32
  0
VERTEX
  8
0
  5
10711
 10
-0.725712
 20
13.3540
 30
-3.03287e-15
  70
    32
  0
VERTEX
  8
0
  5
10712
 10
-0.784204
 20
13.3721
 30
-3.03649e-15
  70
    32
  0
VERTEX
  8
0
  5
10713
 10
-0.842225
 20
13.3916
 30
-3.04039e-15
  70
    32
  0
VERTEX
  8
0
  5
10714
 10
-0.899738
 20
13.4124
 30
-3.04456e-15
  70
    32
  0
VERTEX
  8
0
  5
10715
 10
-0.956709
 20
13.4347
 30
-3.04901e-15
  70
    32
  0
VERTEX
  8
0
  5
10716
 10
-1.01310
 20
13.4583
 30
-3.05373e-15
  70
    32
  0
VERTEX
  8
0
  5
10717
 10
-1.06889
 20
13.4832
 30
-3.05872e-15
  70
    32
  0
VERTEX
  8
0
  5
10718
 10
-1.12403
 20
13.5095
 30
-3.06397e-15
  70
    32
  0
VERTEX
  8
0
  5
10719
 10
-1.17849
 20
13.5371
 30
-3.06949e-15
  70
    32
  0
VERTEX
  8
0
  5
1071A
 10
-1.23225
 20
13.5660
 30
-3.07527e-15
  70
    32
  0
VERTEX
  8
0
  5
1071B
 10
-1.28526
 20
13.5961
 30
-3.08130e-15
  70
    32
  0
VERTEX
  8
0
  5
1071C
 10
-1.33749
 20
13.6276
 30
-3.08759e-15
  70
    32
  0
VERTEX
  8
0
  5
1071D
 10
-1.38893
 20
13.6602
 30
-3.09412e-15
  70
    32
  0
VERTEX
  8
0
  5
1071E
 10
-1.43952
 20
13.6941
 30
-3.10090e-15
  70
    32
  0
VERTEX
  8
0
  5
1071F
 10
-1.48925
 20
13.7292
 30
-3.10792e-15
  70
    32
  0
VERTEX
  8
0
  5
10720
 10
-1.53808
 20
13.7655
 30
-3.11517e-15
  70
    32
  0
VERTEX
  8
0
  5
10721
 10
-1.58598
 20
13.8029
 30
-3.12266e-15
  70
    32
  0
VERTEX
  8
0
  5
10722
 10
-1.63293
 20
13.8415
 30
-3.13037e-15
  70
    32
  0
VERTEX
  8
0
  5
10723
 10
-1.67890
 20
13.8812
 30
-3.13831e-15
  70
    32
  0
VERTEX
  8
0
  5
10724
 10
-1.72385
 20
13.9219
 30
-3.14646e-15
  70
    32
  0
VERTEX
  8
0
  5
10725
 10
-1.76777
 20
13.9638
 30
-3.15483e-15
  70
    32
  0
VERTEX
  8
0
  5
10726
 10
-1.81062
 20
14.0066
 30
-3.16340e-15
  70
    32
  0
VERTEX
  8
0
  5
10727
 10
-1.85238
 20
14.0505
 30
-3.17218e-15
  70
    32
  0
VERTEX
  8
0
  5
10728
 10
-1.89302
 20
14.0954
 30
-3.18115e-15
  70
    32
  0
VERTEX
  8
0
  5
10729
 10
-1.93253
 20
14.1412
 30
-3.19032e-15
  70
    32
  0
VERTEX
  8
0
  5
1072A
 10
-1.97087
 20
14.1880
 30
-3.19968e-15
  70
    32
  0
VERTEX
  8
0
  5
1072B
 10
-2.00802
 20
14.2357
 30
-3.20921e-15
  70
    32
  0
VERTEX
  8
0
  5
1072C
 10
-2.04396
 20
14.2842
 30
-3.21892e-15
  70
    32
  0
VERTEX
  8
0
  5
1072D
 10
-2.07867
 20
14.3336
 30
-3.22880e-15
  70
    32
  0
VERTEX
  8
0
  5
1072E
 10
-2.11213
 20
14.3838
 30
-3.23884e-15
  70
    32
  0
VERTEX
  8
0
  5
1072F
 10
-2.14432
 20
14.4348
 30
-3.24904e-15
  70
    32
  0
VERTEX
  8
0
  5
10730
 10
-2.17522
 20
14.4866
 30
-3.25939e-15
  70
    32
  0
VERTEX
  8
0
  5
10731
 10
-2.20480
 20
14.5391
 30
-3.26989e-15
  70
    32
  0
VERTEX
  8
0
  5
10732
 10
-2.23306
 20
14.5922
 30
-3.28052e-15
  70
    32
  0
VERTEX
  8
0
  5
10733
 10
-2.25997
 20
14.6461
 30
-3.29129e-15
  70
    32
  0
VERTEX
  8
0
  5
10734
 10
-2.28552
 20
14.7005
 30
-3.30218e-15
  70
    32
  0
VERTEX
  8
0
  5
10735
 10
-2.30970
 20
14.7556
 30
-3.31319e-15
  70
    32
  0
VERTEX
  8
0
  5
10736
 10
-2.33248
 20
14.8112
 30
-3.32432e-15
  70
    32
  0
VERTEX
  8
0
  5
10737
 10
-2.35386
 20
14.8674
 30
-3.33555e-15
  70
    32
  0
VERTEX
  8
0
  5
10738
 10
-2.37382
 20
14.9240
 30
-3.34688e-15
  70
    32
  0
VERTEX
  8
0
  5
10739
 10
-2.39235
 20
14.9811
 30
-3.35830e-15
  70
    32
  0
VERTEX
  8
0
  5
1073A
 10
-2.40944
 20
15.0387
 30
-3.36980e-15
  70
    32
  0
VERTEX
  8
0
  5
1073B
 10
-2.42508
 20
15.0966
 30
-3.38139e-15
  70
    32
  0
VERTEX
  8
0
  5
1073C
 10
-2.43926
 20
15.1549
 30
-3.39305e-15
  70
    32
  0
VERTEX
  8
0
  5
1073D
 10
-2.45196
 20
15.2135
 30
-3.40477e-15
  70
    32
  0
VERTEX
  8
0
  5
1073E
 10
-2.46319
 20
15.2724
 30
-3.41655e-15
  70
    32
  0
VERTEX
  8
0
  5
1073F
 10
-2.47294
 20
15.3315
 30
-3.42837e-15
  70
    32
  0
VERTEX
  8
0
  5
10740
 10
-2.48120
 20
15.3909
 30
-3.44025e-15
  70
    32
  0
VERTEX
  8
0
  5
10741
 10
-2.48796
 20
15.4504
 30
-3.45215e-15
  70
    32
  0
VERTEX
  8
0
  5
10742
 10
-2.49323
 20
15.5101
 30
-3.46409e-15
  70
    32
  0
VERTEX
  8
0
  5
10743
 10
-2.49699
 20
15.5699
 30
-3.47605e-15
  70
    32
  0
VERTEX
  8
0
  5
10744
 10
-2.49925
 20
15.6297
 30
-3.48802e-15
  70
    32
  0
VERTEX
  8
0
  5
10745
 10
-2.50000
 20
15.6896
 30
-3.50000e-15
  70
    32
  0
SEQEND
  8
0
  5
10746
  0
LINE
  5
10548
  8
0
  6
CONTINUOUS
 62
     3
 10
2.5
 20
10.0000000000000693
 30
-0.0000000000000022
 11
3.0000000000000031
 21
9.5000000000000746
 31
-0.0000000000000021
210
-0.0000000000000002
220
1.0
230
-0.0000000000000002
  0
LINE
  5
10549
  8
0
  6
CONTINUOUS
 62
     3
 10
-2.5000000000000031
 20
10.0000000000000693
 30
-0.0000000000000022
 11
-3.0000000000000071
 21
9.5000000000000728
 31
-0.0000000000000021
210
-0.0000000000000002
220
1.0
230
-0.0000000000000002
  0
LINE
  5
1054A
  8
0
  6
CONTINUOUS
 62
     3
 10
-2.4999999999999969
 20
9.0000000000000711
 30
-0.000000000000002
 11
-3.000000000000004
 21
9.5000000000000728
 31
-0.0000000000000021
210
-0.0000000000000002
220
1.0
230
-0.0000000000000002
  0
LINE
  5
1054B
  8
0
  6
CONTINUOUS
 62
     3
 10
2.4999999999999938
 20
9.0000000000000711
 30
-0.000000000000002
 11
3.0000000000000031
 21
9.5000000000000746
 31
-0.0000000000000021
210
-0.0000000000000002
220
1.0
230
-0.0000000000000002
  0
LINE
  5
1054C
  8
0
  6
CONTINUOUS
 62
     3
 10
2.4999999999999991
 20
9.0000000000000675
 30
-0.000000000000002
 11
3.0000000000000031
 21
8.5000000000000693
 31
-0.0000000000000019
210
-0.0000000000000002
220
1.0
230
-0.0000000000000002
  0
LINE
  5
1054D
  8
0
  6
CONTINUOUS
 62
     3
 10
-2.5000000000000022
 20
9.0000000000000675
 30
-0.000000000000002
 11
-3.0000000000000062
 21
8.5000000000000675
 31
-0.0000000000000019
210
-0.0000000000000002
220
1.0
230
-0.0000000000000002
  0
LINE
  5
1054E
  8
0
  6
CONTINUOUS
 62
     3
 10
-2.4999999999999978
 20
8.0000000000000675
 30
-0.0000000000000018
 11
-3.0000000000000031
 21
8.5000000000000675
 31
-0.0000000000000019
210
-0.0000000000000002
220
1.0
230
-0.0000000000000002
  0
LINE
  5
1054F
  8
0
  6
CONTINUOUS
 62
     3
 10
2.4999999999999969
 20
8.0000000000000657
 30
-0.0000000000000018
 11
3.000000000000004
 21
8.5000000000000693
 31
-0.0000000000000019
210
-0.0000000000000002
220
1.0
230
-0.0000000000000002
  0
LINE
  5
10550
  8
0
  6
CONTINUOUS
 62
     3
 10
2.5
 20
8.0000000000000622
 30
-0.0000000000000018
 11
3.0000000000000031
 21
7.5000000000000657
 31
-0.0000000000000017
210
-0.0000000000000002
220
1.0
230
-0.0000000000000002
  0
LINE
  5
10551
  8
0
  6
CONTINUOUS
 62
     3
 10
-2.5
 20
8.0000000000000622
 30
-0.0000000000000018
 11
-3.000000000000004
 21
7.5000000000000622
 31
-0.0000000000000017
210
-0.0000000000000002
220
1.0
230
-0.0000000000000002
  0
LINE
  5
10552
  8
0
  6
CONTINUOUS
 62
     3
 10
-2.4999999999999978
 20
7.0000000000000622
 30
-0.0000000000000016
 11
-3.0000000000000031
 21
7.5000000000000622
 31
-0.0000000000000017
210
-0.0000000000000002
220
1.0
230
-0.0000000000000002
  0
LINE
  5
10553
  8
0
  6
CONTINUOUS
 62
     3
 10
2.4999999999999969
 20
7.0000000000000639
 30
-0.0000000000000016
 11
3.0000000000000031
 21
7.5000000000000657
 31
-0.0000000000000017
210
-0.0000000000000002
220
1.0
230
-0.0000000000000002
  0
LINE
  5
10554
  8
0
  6
CONTINUOUS
 62
     3
 10
2.5
 20
7.0000000000000622
 30
-0.0000000000000016
 11
3.0000000000000031
 21
6.5000000000000631
 31
-0.0000000000000014
210
-0.0000000000000002
220
1.0
230
-0.0000000000000002
  0
LINE
  5
10555
  8
0
  6
CONTINUOUS
 62
     3
 10
-2.5
 20
7.0000000000000568
 30
-0.0000000000000016
 11
-3.0000000000000031
 21
6.5000000000000577
 31
-0.0000000000000014
210
-0.0000000000000002
220
1.0
230
-0.0000000000000002
  0
LINE
  5
10556
  8
0
  6
CONTINUOUS
 62
     3
 10
-2.4999999999999969
 20
6.0000000000000568
 30
-0.0000000000000013
 11
-3.0000000000000031
 21
6.5000000000000577
 31
-0.0000000000000014
210
-0.0000000000000002
220
1.0
230
-0.0000000000000002
  0
LINE
  5
10557
  8
0
  6
CONTINUOUS
 62
     3
 10
2.4999999999999978
 20
6.0000000000000604
 30
-0.0000000000000013
 11
3.000000000000004
 21
6.5000000000000622
 31
-0.0000000000000014
210
-0.0000000000000002
220
1.0
230
-0.0000000000000002
  0
LINE
  5
10558
  8
0
  6
CONTINUOUS
 62
     3
 10
2.5000000000000009
 20
6.0000000000000568
 30
-0.0000000000000013
 11
3.000000000000004
 21
5.5000000000000586
 31
-0.0000000000000012
210
-0.0000000000000002
220
1.0
230
-0.0000000000000002
  0
LINE
  5
10559
  8
0
  6
CONTINUOUS
 62
     3
 10
-2.5
 20
6.0000000000000542
 30
-0.0000000000000013
 11
-3.0000000000000031
 21
5.5000000000000551
 31
-0.0000000000000012
210
-0.0000000000000002
220
1.0
230
-0.0000000000000002
  0
LINE
  5
1055A
  8
0
  6
CONTINUOUS
 62
     3
 10
-2.499999999999996
 20
5.0000000000000551
 30
-0.0000000000000011
 11
-3.0000000000000031
 21
5.5000000000000551
 31
-0.0000000000000012
210
-0.0000000000000002
220
1.0
230
-0.0000000000000002
  0
LINE
  5
1055B
  8
0
  6
CONTINUOUS
 62
     3
 10
2.4999999999999978
 20
5.0000000000000577
 30
-0.0000000000000011
 11
3.000000000000004
 21
5.5000000000000586
 31
-0.0000000000000012
210
-0.0000000000000002
220
1.0
230
-0.0000000000000002
  0
LINE
  5
1055C
  8
0
  6
CONTINUOUS
 62
     3
 10
2.5000000000000009
 20
5.0000000000000551
 30
-0.0000000000000011
 11
3.0000000000000049
 21
4.5000000000000551
 31
-0.000000000000001
210
-0.0000000000000002
220
1.0
230
-0.0000000000000002
  0
LINE
  5
1055D
  8
0
  6
CONTINUOUS
 62
     3
 10
-2.4999999999999991
 20
5.0000000000000524
 30
-0.0000000000000011
 11
-3.0000000000000031
 21
4.5000000000000506
 31
-0.000000000000001
210
-0.0000000000000002
220
1.0
230
-0.0000000000000002
  0
LINE
  5
1055E
  8
0
  6
CONTINUOUS
 62
     3
 10
-2.4999999999999938
 20
4.0000000000000488
 30
-0.0000000000000009
 11
-3.0000000000000022
 21
4.5000000000000524
 31
-0.000000000000001
210
-0.0000000000000002
220
1.0
230
-0.0000000000000002
  0
LINE
  5
1055F
  8
0
  6
CONTINUOUS
 62
     3
 10
2.4999999999999969
 20
4.0000000000000533
 30
-0.0000000000000009
 11
3.000000000000004
 21
4.5000000000000551
 31
-0.000000000000001
210
-0.0000000000000002
220
1.0
230
-0.0000000000000002
  0
LINE
  5
10560
  8
0
  6
CONTINUOUS
 62
     3
 10
2.5000000000000022
 20
4.000000000000048
 30
-0.0000000000000009
 11
3.0000000000000049
 21
3.5000000000000511
 31
-0.0000000000000008
210
-0.0000000000000002
220
1.0
230
-0.0000000000000002
  0
LINE
  5
10561
  8
0
  6
CONTINUOUS
 62
     3
 10
-2.4999999999999991
 20
4.0000000000000453
 30
-0.0000000000000009
 11
-3.0000000000000009
 21
3.5000000000000471
 31
-0.0000000000000008
210
-0.0000000000000002
220
1.0
230
-0.0000000000000002
  0
LINE
  5
10562
  8
0
  6
CONTINUOUS
 62
     3
 10
-2.4999999999999929
 20
1.0000000000000371
 30
-0.0000000000000002
 11
-3.0000000000000009
 21
1.5000000000000391
 31
-0.0000000000000003
210
-0.0000000000000002
220
1.0
230
-0.0000000000000002
  0
LINE
  5
10563
  8
0
  6
CONTINUOUS
 62
     3
 10
2.4999999999999991
 20
1.0000000000000391
 30
-0.0000000000000002
 11
3.0000000000000062
 21
1.500000000000042
 31
-0.0000000000000003
210
-0.0000000000000002
220
1.0
230
-0.0000000000000002
  0
LINE
  5
10564
  8
0
  6
CONTINUOUS
 62
     3
 10
2.5000000000000031
 20
1.0000000000000351
 30
-0.0000000000000002
 11
3.0000000000000071
 21
0.5000000000000377
 31
-0.0000000000000001
210
-0.0000000000000002
220
1.0
230
-0.0000000000000002
  0
LINE
  5
10565
  8
0
  6
CONTINUOUS
 62
     3
 10
-2.4999999999999969
 20
1.0000000000000331
 30
-0.0000000000000002
 11
-3.0
 21
0.5000000000000346
 31
-0.0000000000000001
210
-0.0000000000000002
220
1.0
230
-0.0000000000000002
  0
LINE
  5
10566
  8
0
  6
CONTINUOUS
 62
     3
 10
-2.499999999999992
 20
0.000000000000033
 30
0.0
 11
-2.9999999999999991
 21
0.5000000000000342
 31
-0.0000000000000001
210
-0.0000000000000002
220
1.0
230
-0.0000000000000002
  0
LINE
  5
10567
  8
0
  6
CONTINUOUS
 62
     3
 10
2.4999999999999991
 20
0.0000000000000356
 30
0.0
 11
3.0000000000000071
 21
0.5000000000000375
 31
-0.0000000000000001
210
-0.0000000000000002
220
1.0
230
-0.0000000000000002
  0
LINE
  5
10568
  8
0
  6
CONTINUOUS
 62
     3
 10
2.5000000000000031
 20
0.0000000000000322
 30
0.0
 11
3.0000000000000071
 21
-0.4999999999999665
 31
0.0000000000000001
210
-0.0000000000000002
220
1.0
230
-0.0000000000000002
  0
LINE
  5
10569
  8
0
  6
CONTINUOUS
 62
     3
 10
-2.4999999999999969
 20
0.0000000000000296
 30
0.0
 11
-2.9999999999999991
 21
-0.4999999999999693
 31
0.0000000000000001
210
-0.0000000000000002
220
1.0
230
-0.0000000000000002
  0
LINE
  5
1056A
  8
0
  6
CONTINUOUS
 62
     3
 10
-2.499999999999992
 20
-0.9999999999999701
 30
0.0000000000000002
 11
-2.9999999999999991
 21
-0.4999999999999698
 31
0.0000000000000001
210
-0.0000000000000002
220
1.0
230
-0.0000000000000002
  0
LINE
  5
1056B
  8
0
  6
CONTINUOUS
 62
     3
 10
2.5
 20
-0.9999999999999674
 30
0.0000000000000002
 11
3.0000000000000071
 21
-0.4999999999999665
 31
0.0000000000000001
210
-0.0000000000000002
220
1.0
230
-0.0000000000000002
  0
LINE
  5
1056C
  8
0
  6
CONTINUOUS
 62
     3
 10
2.5000000000000031
 20
-0.9999999999999712
 30
0.0000000000000002
 11
3.0000000000000071
 21
-1.49999999999997
 31
0.0000000000000003
210
-0.0000000000000002
220
1.0
230
-0.0000000000000002
  0
LINE
  5
1056D
  8
0
  6
CONTINUOUS
 62
     3
 10
-2.4999999999999951
 20
-0.9999999999999737
 30
0.0000000000000002
 11
-2.9999999999999978
 21
-1.4999999999999729
 31
0.0000000000000003
210
-0.0000000000000002
220
1.0
230
-0.0000000000000002
  0
LINE
  5
1056E
  8
0
  6
CONTINUOUS
 62
     3
 10
2.5000000000000062
 20
-4.9999999999999858
 30
0.0000000000000011
 11
3.0000000000000102
 21
-5.4999999999999849
 31
0.0000000000000012
210
-0.0000000000000002
220
1.0
230
-0.0000000000000002
  0
LINE
  5
1056F
  8
0
  6
CONTINUOUS
 62
     3
 10
-2.4999999999999938
 20
-4.9999999999999902
 30
0.0000000000000011
 11
-2.999999999999996
 21
-5.4999999999999893
 31
0.0000000000000012
210
-0.0000000000000002
220
1.0
230
-0.0000000000000002
  0
LINE
  5
10570
  8
0
  6
CONTINUOUS
 62
     3
 10
-2.4999999999999889
 20
-5.9999999999999902
 30
0.0000000000000013
 11
-2.9999999999999951
 21
-5.4999999999999902
 31
0.0000000000000012
210
-0.0000000000000002
220
1.0
230
-0.0000000000000002
  0
LINE
  5
10571
  8
0
  6
CONTINUOUS
 62
     3
 10
2.5000000000000022
 20
-5.9999999999999858
 30
0.0000000000000013
 11
3.0000000000000089
 21
-5.4999999999999858
 31
0.0000000000000012
210
-0.0000000000000002
220
1.0
230
-0.0000000000000002
  0
LINE
  5
10572
  8
0
  6
CONTINUOUS
 62
     3
 10
2.5000000000000049
 20
-5.9999999999999911
 30
0.0000000000000013
 11
3.0000000000000102
 21
-6.4999999999999902
 31
0.0000000000000014
210
-0.0000000000000002
220
1.0
230
-0.0000000000000002
  0
LINE
  5
10573
  8
0
  6
CONTINUOUS
 62
     3
 10
-2.499999999999992
 20
-5.9999999999999938
 30
0.0000000000000013
 11
-2.9999999999999951
 21
-6.4999999999999929
 31
0.0000000000000014
210
-0.0000000000000002
220
1.0
230
-0.0000000000000002
  0
LINE
  5
10574
  8
0
  6
CONTINUOUS
 62
     3
 10
-2.4999999999999871
 20
-6.9999999999999947
 30
0.0000000000000016
 11
-2.9999999999999938
 21
-6.499999999999992
 31
0.0000000000000014
210
-0.0000000000000002
220
1.0
230
-0.0000000000000002
  0
LINE
  5
10575
  8
0
  6
CONTINUOUS
 62
     3
 10
2.5000000000000009
 20
-6.999999999999992
 30
0.0000000000000016
 11
3.0000000000000089
 21
-6.4999999999999893
 31
0.0000000000000014
210
-0.0000000000000002
220
1.0
230
-0.0000000000000002
  0
LINE
  5
10576
  8
0
  6
CONTINUOUS
 62
     3
 10
2.5000000000000071
 20
-6.9999999999999956
 30
0.0000000000000016
 11
3.0000000000000102
 21
-7.4999999999999938
 31
0.0000000000000017
210
-0.0000000000000002
220
1.0
230
-0.0000000000000002
  0
LINE
  5
10577
  8
0
  6
CONTINUOUS
 62
     3
 10
-2.4999999999999929
 20
-7.0
 30
0.0000000000000016
 11
-2.9999999999999938
 21
-7.4999999999999982
 31
0.0000000000000017
210
-0.0000000000000002
220
1.0
230
-0.0000000000000002
  0
LINE
  5
10578
  8
0
  6
CONTINUOUS
 62
     3
 10
-2.4999999999999858
 20
-8.0
 30
0.0000000000000018
 11
-2.9999999999999938
 21
-7.4999999999999982
 31
0.0000000000000017
210
-0.0000000000000002
220
1.0
230
-0.0000000000000002
  0
LINE
  5
10579
  8
0
  6
CONTINUOUS
 62
     3
 10
2.5000000000000022
 20
-7.9999999999999956
 30
0.0000000000000018
 11
3.0000000000000102
 21
-7.4999999999999938
 31
0.0000000000000017
210
-0.0000000000000002
220
1.0
230
-0.0000000000000002
  0
LINE
  5
1057A
  8
0
  6
CONTINUOUS
 62
     3
 10
2.5000000000000071
 20
-8.0000000000000018
 30
0.0000000000000018
 11
3.0000000000000089
 21
-8.4999999999999982
 31
0.0000000000000019
210
-0.0000000000000002
220
1.0
230
-0.0000000000000002
  0
LINE
  5
1057B
  8
0
  6
CONTINUOUS
 62
     3
 10
-2.499999999999992
 20
-8.0000000000000018
 30
0.0000000000000018
 11
-2.9999999999999951
 21
-8.5
 31
0.0000000000000019
210
-0.0000000000000002
220
1.0
230
-0.0000000000000002
  0
LINE
  5
1057C
  8
0
  6
CONTINUOUS
 62
     3
 10
-2.4999999999999889
 20
-9.0000000000000018
 30
0.000000000000002
 11
-2.9999999999999951
 21
-8.5000000000000036
 31
0.0000000000000019
210
-0.0000000000000002
220
1.0
230
-0.0000000000000002
  0
LINE
  5
1057D
  8
0
  6
CONTINUOUS
 62
     3
 10
2.5000000000000062
 20
-9.0000000000000018
 30
0.000000000000002
 11
3.0000000000000129
 21
-8.5
 31
0.0000000000000019
210
-0.0000000000000002
220
1.0
230
-0.0000000000000002
  0
LINE
  5
1057E
  8
0
  6
CONTINUOUS
 62
     3
 10
2.5000000000000071
 20
-9.0000000000000036
 30
0.000000000000002
 11
3.0000000000000111
 21
-9.5000000000000018
 31
0.0000000000000021
210
-0.0000000000000002
220
1.0
230
-0.0000000000000002
  0
LINE
  5
1057F
  8
0
  6
CONTINUOUS
 62
     3
 10
-2.4999999999999889
 20
-9.0000000000000036
 30
0.000000000000002
 11
-2.9999999999999938
 21
-9.5000000000000036
 31
0.0000000000000021
210
-0.0000000000000002
220
1.0
230
-0.0000000000000002
  0
LINE
  5
10580
  8
0
  6
CONTINUOUS
 62
     3
 10
-2.4999999999999889
 20
-10.0
 30
0.0000000000000022
 11
-2.999999999999992
 21
-9.5000000000000053
 31
0.0000000000000021
210
-0.0000000000000002
220
1.0
230
-0.0000000000000002
  0
LINE
  5
10581
  8
0
  6
CONTINUOUS
 62
     3
 10
2.5000000000000071
 20
-10.0
 30
0.0000000000000022
 11
3.000000000000012
 21
-9.5000000000000036
 31
0.0000000000000021
210
-0.0000000000000002
220
1.0
230
-0.0000000000000002
  0
ARC
  5
10582
  8
0
  6
CONTINUOUS
 62
     3
 10
0.0000000000000128
 20
31.5000000000000107
 30
0.0
 40
2.5
210
0.0
220
-0.0000000000000002
230
-1.0
 50
0.0000000000001527
 51
180.0000000000001137
  0
LINE
  5
10583
  8
0
  6
CONTINUOUS
 62
     3
 10
2.499999999999996
 20
15.6896319430405402
 30
-0.0000000000000035
 11
2.4999999999999871
 21
31.5000000000000213
 31
-0.000000000000007
210
-0.0000000000000002
220
1.0
230
-0.0000000000000002
  0
LINE
  5
10584
  8
0
  6
CONTINUOUS
 62
     3
 10
-2.5000000000000142
 20
31.5000000000000213
 30
-0.000000000000007
 11
-2.5000000000000049
 21
15.6896319430405402
 31
-0.0000000000000035
210
-0.0000000000000002
220
1.0
230
-0.0000000000000002
  0
LINE
  5
10585
  8
0
  6
CONTINUOUS
 62
     3
 10
-2.5000000000000049
 20
15.6896319430405402
 30
-0.0000000000000035
 11
-2.5000000000000022
 21
10.5385186031842792
 31
-0.0000000000000023
210
-0.0000000000000002
220
1.0
230
-0.0000000000000002
  0
LINE
  5
10586
  8
0
  6
CONTINUOUS
 62
     3
 10
2.4999999999999978
 20
10.5385186031842899
 30
-0.0000000000000023
 11
2.4999999999999951
 21
15.6896319430405402
 31
-0.0000000000000035
210
-0.0000000000000002
220
1.0
230
-0.0000000000000002
  0
LINE
  5
10587
  8
0
  6
CONTINUOUS
 62
     3
 10
-2.5000000000000022
 20
10.0000000000000693
 30
-0.0000000000000022
 11
-2.5000000000000022
 21
10.5385186031842792
 31
-0.0000000000000023
210
-0.0000000000000002
220
1.0
230
-0.0000000000000002
  0
LINE
  5
10588
  8
0
  6
CONTINUOUS
 62
     3
 10
2.4999999999999978
 20
10.0000000000000693
 30
-0.0000000000000022
 11
2.4999999999999978
 21
10.5385186031842792
 31
-0.0000000000000023
210
-0.0000000000000002
220
1.0
230
-0.0000000000000002
  0
POLYLINE
  8
0
  5
10747
  62
3
  66
     1
 10
0.000000
 20
0.000000
 30
0.000000
  70
     8
  0
VERTEX
  8
0
  5
10748
 10
-3.50000
 20
-55.0496
 30
1.22000e-14
  70
    32
  0
VERTEX
  8
0
  5
10749
 10
-3.39700
 20
-55.1357
 30
1.22204e-14
  70
    32
  0
VERTEX
  8
0
  5
1074A
 10
-3.29635
 20
-55.2186
 30
1.22401e-14
  70
    32
  0
VERTEX
  8
0
  5
1074B
 10
-3.19793
 20
-55.2984
 30
1.22591e-14
  70
    32
  0
VERTEX
  8
0
  5
1074C
 10
-3.10163
 20
-55.3752
 30
1.22773e-14
  70
    32
  0
VERTEX
  8
0
  5
1074D
 10
-3.00736
 20
-55.4490
 30
1.22948e-14
  70
    32
  0
VERTEX
  8
0
  5
1074E
 10
-2.91501
 20
-55.5201
 30
1.23117e-14
  70
    32
  0
VERTEX
  8
0
  5
1074F
 10
-2.82450
 20
-55.5885
 30
1.23279e-14
  70
    32
  0
VERTEX
  8
0
  5
10750
 10
-2.73575
 20
-55.6543
 30
1.23435e-14
  70
    32
  0
VERTEX
  8
0
  5
10751
 10
-2.64866
 20
-55.7176
 30
1.23585e-14
  70
    32
  0
VERTEX
  8
0
  5
10752
 10
-2.56317
 20
-55.7784
 30
1.23730e-14
  70
    32
  0
VERTEX
  8
0
  5
10753
 10
-2.47920
 20
-55.8369
 30
1.23869e-14
  70
    32
  0
VERTEX
  8
0
  5
10754
 10
-2.39667
 20
-55.8931
 30
1.24002e-14
  70
    32
  0
VERTEX
  8
0
  5
10755
 10
-2.31553
 20
-55.9471
 30
1.24130e-14
  70
    32
  0
VERTEX
  8
0
  5
10756
 10
-2.23570
 20
-55.9990
 30
1.24253e-14
  70
    32
  0
VERTEX
  8
0
  5
10757
 10
-2.15713
 20
-56.0487
 30
1.24371e-14
  70
    32
  0
VERTEX
  8
0
  5
10758
 10
-2.07975
 20
-56.0965
 30
1.24485e-14
  70
    32
  0
VERTEX
  8
0
  5
10759
 10
-2.00351
 20
-56.1423
 30
1.24593e-14
  70
    32
  0
VERTEX
  8
0
  5
1075A
 10
-1.92835
 20
-56.1861
 30
1.24697e-14
  70
    32
  0
VERTEX
  8
0
  5
1075B
 10
-1.85423
 20
-56.2281
 30
1.24797e-14
  70
    32
  0
VERTEX
  8
0
  5
1075C
 10
-1.78108
 20
-56.2683
 30
1.24892e-14
  70
    32
  0
VERTEX
  8
0
  5
1075D
 10
-1.70887
 20
-56.3067
 30
1.24984e-14
  70
    32
  0
VERTEX
  8
0
  5
1075E
 10
-1.63754
 20
-56.3434
 30
1.25071e-14
  70
    32
  0
VERTEX
  8
0
  5
1075F
 10
-1.56706
 20
-56.3783
 30
1.25154e-14
  70
    32
  0
VERTEX
  8
0
  5
10760
 10
-1.49737
 20
-56.4116
 30
1.25233e-14
  70
    32
  0
VERTEX
  8
0
  5
10761
 10
-1.42844
 20
-56.4433
 30
1.25308e-14
  70
    32
  0
VERTEX
  8
0
  5
10762
 10
-1.36022
 20
-56.4734
 30
1.25379e-14
  70
    32
  0
VERTEX
  8
0
  5
10763
 10
-1.29267
 20
-56.5019
 30
1.25447e-14
  70
    32
  0
VERTEX
  8
0
  5
10764
 10
-1.22576
 20
-56.5289
 30
1.25511e-14
  70
    32
  0
VERTEX
  8
0
  5
10765
 10
-1.15945
 20
-56.5544
 30
1.25571e-14
  70
    32
  0
VERTEX
  8
0
  5
10766
 10
-1.09371
 20
-56.5784
 30
1.25628e-14
  70
    32
  0
VERTEX
  8
0
  5
10767
 10
-1.02849
 20
-56.6010
 30
1.25682e-14
  70
    32
  0
VERTEX
  8
0
  5
10768
 10
-0.963758
 20
-56.6221
 30
1.25732e-14
  70
    32
  0
VERTEX
  8
0
  5
10769
 10
-0.899490
 20
-56.6418
 30
1.25779e-14
  70
    32
  0
VERTEX
  8
0
  5
1076A
 10
-0.835648
 20
-56.6601
 30
1.25822e-14
  70
    32
  0
VERTEX
  8
0
  5
1076B
 10
-0.772200
 20
-56.6770
 30
1.25862e-14
  70
    32
  0
VERTEX
  8
0
  5
1076C
 10
-0.709114
 20
-56.6926
 30
1.25899e-14
  70
    32
  0
VERTEX
  8
0
  5
1076D
 10
-0.646360
 20
-56.7068
 30
1.25933e-14
  70
    32
  0
VERTEX
  8
0
  5
1076E
 10
-0.583906
 20
-56.7197
 30
1.25964e-14
  70
    32
  0
VERTEX
  8
0
  5
1076F
 10
-0.521723
 20
-56.7312
 30
1.25991e-14
  70
    32
  0
VERTEX
  8
0
  5
10770
 10
-0.459782
 20
-56.7415
 30
1.26015e-14
  70
    32
  0
VERTEX
  8
0
  5
10771
 10
-0.398052
 20
-56.7504
 30
1.26037e-14
  70
    32
  0
VERTEX
  8
0
  5
10772
 10
-0.336505
 20
-56.7581
 30
1.26055e-14
  70
    32
  0
VERTEX
  8
0
  5
10773
 10
-0.275113
 20
-56.7645
 30
1.26070e-14
  70
    32
  0
VERTEX
  8
0
  5
10774
 10
-0.213846
 20
-56.7695
 30
1.26082e-14
  70
    32
  0
VERTEX
  8
0
  5
10775
 10
-0.152678
 20
-56.7734
 30
1.26091e-14
  70
    32
  0
VERTEX
  8
0
  5
10776
 10
-0.0915787
 20
-56.7759
 30
1.26097e-14
  70
    32
  0
VERTEX
  8
0
  5
10777
 10
-0.0305216
 20
-56.7772
 30
1.26100e-14
  70
    32
  0
VERTEX
  8
0
  5
10778
 10
0.0305216
 20
-56.7772
 30
1.26100e-14
  70
    32
  0
VERTEX
  8
0
  5
10779
 10
0.0915787
 20
-56.7759
 30
1.26097e-14
  70
    32
  0
VERTEX
  8
0
  5
1077A
 10
0.152678
 20
-56.7734
 30
1.26091e-14
  70
    32
  0
VERTEX
  8
0
  5
1077B
 10
0.213846
 20
-56.7695
 30
1.26082e-14
  70
    32
  0
VERTEX
  8
0
  5
1077C
 10
0.275113
 20
-56.7645
 30
1.26070e-14
  70
    32
  0
VERTEX
  8
0
  5
1077D
 10
0.336505
 20
-56.7581
 30
1.26055e-14
  70
    32
  0
VERTEX
  8
0
  5
1077E
 10
0.398052
 20
-56.7504
 30
1.26037e-14
  70
    32
  0
VERTEX
  8
0
  5
1077F
 10
0.459782
 20
-56.7415
 30
1.26015e-14
  70
    32
  0
VERTEX
  8
0
  5
10780
 10
0.521723
 20
-56.7312
 30
1.25991e-14
  70
    32
  0
VERTEX
  8
0
  5
10781
 10
0.583906
 20
-56.7197
 30
1.25964e-14
  70
    32
  0
VERTEX
  8
0
  5
10782
 10
0.646360
 20
-56.7068
 30
1.25933e-14
  70
    32
  0
VERTEX
  8
0
  5
10783
 10
0.709114
 20
-56.6926
 30
1.25899e-14
  70
    32
  0
VERTEX
  8
0
  5
10784
 10
0.772200
 20
-56.6770
 30
1.25862e-14
  70
    32
  0
VERTEX
  8
0
  5
10785
 10
0.835648
 20
-56.6601
 30
1.25822e-14
  70
    32
  0
VERTEX
  8
0
  5
10786
 10
0.899490
 20
-56.6418
 30
1.25779e-14
  70
    32
  0
VERTEX
  8
0
  5
10787
 10
0.963758
 20
-56.6221
 30
1.25732e-14
  70
    32
  0
VERTEX
  8
0
  5
10788
 10
1.02849
 20
-56.6010
 30
1.25682e-14
  70
    32
  0
VERTEX
  8
0
  5
10789
 10
1.09371
 20
-56.5784
 30
1.25628e-14
  70
    32
  0
VERTEX
  8
0
  5
1078A
 10
1.15945
 20
-56.5544
 30
1.25571e-14
  70
    32
  0
VERTEX
  8
0
  5
1078B
 10
1.22576
 20
-56.5289
 30
1.25511e-14
  70
    32
  0
VERTEX
  8
0
  5
1078C
 10
1.29267
 20
-56.5019
 30
1.25447e-14
  70
    32
  0
VERTEX
  8
0
  5
1078D
 10
1.36022
 20
-56.4734
 30
1.25379e-14
  70
    32
  0
VERTEX
  8
0
  5
1078E
 10
1.42844
 20
-56.4433
 30
1.25308e-14
  70
    32
  0
VERTEX
  8
0
  5
1078F
 10
1.49737
 20
-56.4116
 30
1.25233e-14
  70
    32
  0
VERTEX
  8
0
  5
10790
 10
1.56706
 20
-56.3783
 30
1.25154e-14
  70
    32
  0
VERTEX
  8
0
  5
10791
 10
1.63754
 20
-56.3434
 30
1.25071e-14
  70
    32
  0
VERTEX
  8
0
  5
10792
 10
1.70887
 20
-56.3067
 30
1.24984e-14
  70
    32
  0
VERTEX
  8
0
  5
10793
 10
1.78108
 20
-56.2683
 30
1.24892e-14
  70
    32
  0
VERTEX
  8
0
  5
10794
 10
1.85423
 20
-56.2281
 30
1.24797e-14
  70
    32
  0
VERTEX
  8
0
  5
10795
 10
1.92835
 20
-56.1861
 30
1.24697e-14
  70
    32
  0
VERTEX
  8
0
  5
10796
 10
2.00351
 20
-56.1423
 30
1.24593e-14
  70
    32
  0
VERTEX
  8
0
  5
10797
 10
2.07975
 20
-56.0965
 30
1.24485e-14
  70
    32
  0
VERTEX
  8
0
  5
10798
 10
2.15713
 20
-56.0487
 30
1.24371e-14
  70
    32
  0
VERTEX
  8
0
  5
10799
 10
2.23570
 20
-55.9990
 30
1.24253e-14
  70
    32
  0
VERTEX
  8
0
  5
1079A
 10
2.31553
 20
-55.9471
 30
1.24130e-14
  70
    32
  0
VERTEX
  8
0
  5
1079B
 10
2.39667
 20
-55.8931
 30
1.24002e-14
  70
    32
  0
VERTEX
  8
0
  5
1079C
 10
2.47920
 20
-55.8369
 30
1.23869e-14
  70
    32
  0
VERTEX
  8
0
  5
1079D
 10
2.56317
 20
-55.7784
 30
1.23730e-14
  70
    32
  0
VERTEX
  8
0
  5
1079E
 10
2.64866
 20
-55.7176
 30
1.23585e-14
  70
    32
  0
VERTEX
  8
0
  5
1079F
 10
2.73575
 20
-55.6543
 30
1.23435e-14
  70
    32
  0
VERTEX
  8
0
  5
107A0
 10
2.82450
 20
-55.5885
 30
1.23279e-14
  70
    32
  0
VERTEX
  8
0
  5
107A1
 10
2.91501
 20
-55.5201
 30
1.23117e-14
  70
    32
  0
VERTEX
  8
0
  5
107A2
 10
3.00736
 20
-55.4490
 30
1.22948e-14
  70
    32
  0
VERTEX
  8
0
  5
107A3
 10
3.10163
 20
-55.3752
 30
1.22773e-14
  70
    32
  0
VERTEX
  8
0
  5
107A4
 10
3.19793
 20
-55.2984
 30
1.22591e-14
  70
    32
  0
VERTEX
  8
0
  5
107A5
 10
3.29635
 20
-55.2186
 30
1.22401e-14
  70
    32
  0
VERTEX
  8
0
  5
107A6
 10
3.39700
 20
-55.1357
 30
1.22204e-14
  70
    32
  0
VERTEX
  8
0
  5
107A7
 10
3.50000
 20
-55.0496
 30
1.22000e-14
  70
    32
  0
SEQEND
  8
0
  5
107A8
  0
LINE
  5
1058A
  8
0
  6
CONTINUOUS
 62
     3
 10
-3.4999999999999272
 20
-55.0495806259262821
 30
0.0000000000000122
 11
-3.4999999999999019
 21
-143.5
 31
0.0000000000000319
210
-0.0000000000000002
220
1.0
230
-0.0000000000000002
  0
LINE
  5
1058B
  8
0
  6
CONTINUOUS
 62
     3
 10
3.5000000000000751
 20
-55.0495806259262821
 30
0.0000000000000122
 11
3.500000000000099
 21
-143.5
 31
0.0000000000000319
210
-0.0000000000000002
220
1.0
230
-0.0000000000000002
  0
LINE
  5
1058C
  8
0
  6
CONTINUOUS
 62
     3
 10
3.500000000000099
 20
-143.5
 30
0.0000000000000319
 11
-3.4999999999999019
 21
-143.5
 31
0.0000000000000319
210
-0.0000000000000002
220
1.0
230
-0.0000000000000002
  0
LINE
  5
1058D
  8
0
  6
CONTINUOUS
 62
     3
 10
3.500000000000099
 20
-143.5000000000001137
 30
0.0000000000000319
 11
0.000000000000142
 21
-153.4944311151600971
 31
0.0000000000000341
210
-0.0000000000000002
220
1.0
230
-0.0000000000000002
  0
LINE
  5
1058E
  8
0
  6
CONTINUOUS
 62
     3
 10
-3.4999999999999001
 20
-143.5000000000001137
 30
0.0000000000000319
 11
0.0000000000000692
 21
-153.4944311151600971
 31
0.0000000000000341
210
-0.0000000000000002
220
1.0
230
-0.0000000000000002
  0
LINE
  5
1058F
  8
0
  6
CONTINUOUS
 62
     3
 10
-3.4999999999999591
 20
-56.7773223796341
 30
0.0000000000000126
 11
-6.2499999999999432
 21
-53.5000000000000426
 31
0.0000000000000119
210
-0.0000000000000002
220
1.0
230
-0.0000000000000002
  0
LINE
  5
10590
  8
0
  6
CONTINUOUS
 62
     3
 10
3.5000000000000688
 20
-56.7773223796341071
 30
0.0000000000000126
 11
6.2500000000000577
 21
-53.5000000000000426
 31
0.0000000000000119
210
-0.0000000000000002
220
1.0
230
-0.0000000000000002
  0
LINE
  5
10591
  8
0
  6
VERDECKT
 62
     1
 10
2.999999999999948
 20
3.5000000000000031
 30
-0.0000000000000008
 11
2.999999999999948
 21
1.5000000000000031
 31
-0.0000000000000003
210
-0.0000000000000002
220
1.0
230
-0.0000000000000002
  0
LINE
  5
10592
  8
0
  6
VERDECKT
 62
     1
 10
-3.0000000000000542
 20
3.5000000000000022
 30
-0.0000000000000008
 11
-3.0000000000000528
 21
1.5000000000000011
 31
-0.0000000000000003
210
-0.0000000000000002
220
1.0
230
-0.0000000000000002
  0
LINE
  5
10593
  8
0
  6
VERDECKT
 62
     1
 10
5.3851648071345757
 20
36.5000000000000284
 30
-0.0000000000000081
 11
12.5000000000000497
 21
36.5000000000000284
 31
-0.0000000000000081
210
-0.0000000000000002
220
1.0
230
-0.0000000000000002
  0
ARC
  5
10594
  8
0
  6
VERDECKT
 62
     1
 10
-5.385164807134573
 20
40.5000000000000426
 30
0.0
 40
4.0000000000000071
210
0.0
220
-0.0000000000000002
230
-1.0
 50
270.0
 51
291.0394697813172229
  0
ARC
  5
10595
  8
0
  6
VERDECKT
 62
     1
 10
-0.0000000000000714
 20
26.5000000000000284
 30
0.0
 40
11.0
210
0.0
220
-0.0000000000000002
230
-1.0
 50
68.9605302186827345
 51
111.0394697813171945
  0
ARC
  5
10596
  8
0
  6
VERDECKT
 62
     1
 10
5.385164807134438
 20
40.5000000000000426
 30
0.0
 40
4.0000000000000071
210
0.0
220
-0.0000000000000002
230
-1.0
 50
248.9605302186828055
 51
270.0
  0
LINE
  5
10597
  8
0
  6
VERDECKT
 62
     1
 10
-12.4999999999999698
 20
36.5000000000000284
 30
-0.0000000000000081
 11
-5.3851648071344407
 21
36.5000000000000284
 31
-0.0000000000000081
210
-0.0000000000000002
220
1.0
230
-0.0000000000000002
  0
LINE
  5
10598
  8
0
  6
VERDECKT
 62
     1
 10
-12.4999999999999307
 20
-51.5000000000000426
 30
0.0000000000000114
 11
12.5000000000000693
 21
-51.5000000000000426
 31
0.0000000000000114
210
-0.0000000000000002
220
1.0
230
-0.0000000000000002
  0
LINE
  5
10599
  8
0
  6
VERDECKT
 62
     1
 10
3.2500000000000728
 20
-51.5000000000000426
 30
0.0000000000000114
 11
3.2500000000000742
 21
-53.5000000000000426
 31
0.0000000000000119
210
-0.0000000000000002
220
1.0
230
-0.0000000000000002
  0
LINE
  5
1059A
  8
0
  6
VERDECKT
 62
     1
 10
-3.2499999999999298
 20
-51.5000000000000426
 30
0.0000000000000114
 11
-3.2499999999999298
 21
-53.5000000000000426
 31
0.0000000000000119
210
-0.0000000000000002
220
1.0
230
-0.0000000000000002
  0
LINE
  5
1059B
  8
0
  6
VERDECKT
 62
     1
 10
2.9999999999999489
 20
-1.5000000000000011
 30
0.0000000000000003
 11
2.9999999999999489
 21
-4.9999999999999769
 31
0.0000000000000011
210
-0.0000000000000002
220
1.0
230
-0.0000000000000002
  0
LINE
  5
1059C
  8
0
  6
VERDECKT
 62
     1
 10
-3.000000000000052
 20
-1.5000000000000031
 30
0.0000000000000003
 11
-3.000000000000052
 21
-4.9999999999999787
 31
0.0000000000000011
210
-0.0000000000000002
220
1.0
230
-0.0000000000000002
  0
LINE
  5
1059D
  8
0
  6
VERDECKT
 62
     1
 10
-2.4999999999999978
 20
3.0000000000000422
 30
-0.0000000000000007
 11
2.5000000000000022
 21
3.0000000000000449
 31
-0.0000000000000007
210
-0.0000000000000002
220
1.0
230
-0.0000000000000002
  0
LINE
  5
1059E
  8
0
  6
VERDECKT
 62
     1
 10
-3.0000000000000009
 20
2.5000000000000431
 30
-0.0000000000000006
 11
3.0000000000000062
 21
2.5000000000000471
 31
-0.0000000000000006
210
-0.0000000000000002
220
1.0
230
-0.0000000000000002
  0
LINE
  5
1059F
  8
0
  6
VERDECKT
 62
     1
 10
-2.4999999999999978
 20
2.0000000000000382
 30
-0.0000000000000004
 11
2.5000000000000022
 21
2.0000000000000409
 31
-0.0000000000000004
210
-0.0000000000000002
220
1.0
230
-0.0000000000000002
  0
LINE
  5
105A0
  8
0
  6
VERDECKT
 62
     1
 10
-2.499999999999996
 20
-1.9999999999999769
 30
0.0000000000000004
 11
2.500000000000004
 21
-1.999999999999974
 31
0.0000000000000004
210
-0.0000000000000002
220
1.0
230
-0.0000000000000002
  0
LINE
  5
105A1
  8
0
  6
VERDECKT
 62
     1
 10
-2.9999999999999969
 20
-2.4999999999999751
 30
0.0000000000000006
 11
3.0000000000000071
 21
-2.499999999999972
 31
0.0000000000000006
210
-0.0000000000000002
220
1.0
230
-0.0000000000000002
  0
LINE
  5
105A2
  8
0
  6
VERDECKT
 62
     1
 10
-2.4999999999999951
 20
-2.9999999999999809
 30
0.0000000000000007
 11
2.500000000000004
 21
-2.9999999999999778
 31
0.0000000000000007
210
-0.0000000000000002
220
1.0
230
-0.0000000000000002
  0
LINE
  5
105A3
  8
0
  6
VERDECKT
 62
     1
 10
-2.4999999999999951
 20
-3.9999999999999871
 30
0.0000000000000009
 11
2.5000000000000049
 21
-3.999999999999984
 31
0.0000000000000009
210
-0.0000000000000002
220
1.0
230
-0.0000000000000002
  0
LINE
  5
105A4
  8
0
  6
VERDECKT
 62
     1
 10
-2.999999999999996
 20
-4.4999999999999849
 30
0.000000000000001
 11
3.000000000000008
 21
-4.4999999999999822
 31
0.000000000000001
210
-0.0000000000000002
220
1.0
230
-0.0000000000000002
  0
POLYLINE
  5
105A5
  8
0
  6
VERDECKT
 62
     1
 10
-0.000000000000004
 20
18.1303719608403746
 30
-0.000000000000004
 66
     1
 70
     8
  0
VERTEX
  8
0
  5
107A9
 10
-4.01035e-15
 20
18.1304
 30
-3.98815e-15
  70
    32
  0
VERTEX
  8
0
  5
107AA
 10
0.0306788
 20
18.1302
 30
-3.98811e-15
  70
    32
  0
VERTEX
  8
0
  5
107AB
 10
0.0613531
 20
18.1296
 30
-3.98800e-15
  70
    32
  0
VERTEX
  8
0
  5
107AC
 10
0.0920181
 20
18.1287
 30
-3.98782e-15
  70
    32
  0
VERTEX
  8
0
  5
107AD
 10
0.122669
 20
18.1274
 30
-3.98756e-15
  70
    32
  0
VERTEX
  8
0
  5
107AE
 10
0.153302
 20
18.1258
 30
-3.98723e-15
  70
    32
  0
VERTEX
  8
0
  5
107AF
 10
0.183911
 20
18.1238
 30
-3.98683e-15
  70
    32
  0
VERTEX
  8
0
  5
107B0
 10
0.214493
 20
18.1214
 30
-3.98635e-15
  70
    32
  0
VERTEX
  8
0
  5
107B1
 10
0.245043
 20
18.1186
 30
-3.98580e-15
  70
    32
  0
VERTEX
  8
0
  5
107B2
 10
0.275556
 20
18.1155
 30
-3.98517e-15
  70
    32
  0
VERTEX
  8
0
  5
107B3
 10
0.306027
 20
18.1120
 30
-3.98448e-15
  70
    32
  0
VERTEX
  8
0
  5
107B4
 10
0.336452
 20
18.1082
 30
-3.98371e-15
  70
    32
  0
VERTEX
  8
0
  5
107B5
 10
0.366826
 20
18.1040
 30
-3.98286e-15
  70
    32
  0
VERTEX
  8
0
  5
107B6
 10
0.397145
 20
18.0994
 30
-3.98195e-15
  70
    32
  0
VERTEX
  8
0
  5
107B7
 10
0.427405
 20
18.0944
 30
-3.98096e-15
  70
    32
  0
VERTEX
  8
0
  5
107B8
 10
0.457600
 20
18.0891
 30
-3.97990e-15
  70
    32
  0
VERTEX
  8
0
  5
107B9
 10
0.487726
 20
18.0835
 30
-3.97877e-15
  70
    32
  0
VERTEX
  8
0
  5
107BA
 10
0.517778
 20
18.0775
 30
-3.97756e-15
  70
    32
  0
VERTEX
  8
0
  5
107BB
 10
0.547753
 20
18.0711
 30
-3.97629e-15
  70
    32
  0
VERTEX
  8
0
  5
107BC
 10
0.577645
 20
18.0643
 30
-3.97494e-15
  70
    32
  0
VERTEX
  8
0
  5
107BD
 10
0.607450
 20
18.0572
 30
-3.97352e-15
  70
    32
  0
VERTEX
  8
0
  5
107BE
 10
0.637164
 20
18.0498
 30
-3.97203e-15
  70
    32
  0
VERTEX
  8
0
  5
107BF
 10
0.666782
 20
18.0420
 30
-3.97047e-15
  70
    32
  0
VERTEX
  8
0
  5
107C0
 10
0.696299
 20
18.0338
 30
-3.96883e-15
  70
    32
  0
VERTEX
  8
0
  5
107C1
 10
0.725712
 20
18.0253
 30
-3.96713e-15
  70
    32
  0
VERTEX
  8
0
  5
107C2
 10
0.755015
 20
18.0164
 30
-3.96535e-15
  70
    32
  0
VERTEX
  8
0
  5
107C3
 10
0.784204
 20
18.0072
 30
-3.96351e-15
  70
    32
  0
VERTEX
  8
0
  5
107C4
 10
0.813276
 20
17.9976
 30
-3.96160e-15
  70
    32
  0
VERTEX
  8
0
  5
107C5
 10
0.842225
 20
17.9877
 30
-3.95961e-15
  70
    32
  0
VERTEX
  8
0
  5
107C6
 10
0.871047
 20
17.9774
 30
-3.95756e-15
  70
    32
  0
VERTEX
  8
0
  5
107C7
 10
0.899738
 20
17.9668
 30
-3.95544e-15
  70
    32
  0
VERTEX
  8
0
  5
107C8
 10
0.928293
 20
17.9559
 30
-3.95325e-15
  70
    32
  0
VERTEX
  8
0
  5
107C9
 10
0.956709
 20
17.9446
 30
-3.95099e-15
  70
    32
  0
VERTEX
  8
0
  5
107CA
 10
0.984980
 20
17.9329
 30
-3.94866e-15
  70
    32
  0
VERTEX
  8
0
  5
107CB
 10
1.01310
 20
17.9210
 30
-3.94627e-15
  70
    32
  0
VERTEX
  8
0
  5
107CC
 10
1.04107
 20
17.9087
 30
-3.94381e-15
  70
    32
  0
VERTEX
  8
0
  5
107CD
 10
1.06889
 20
17.8960
 30
-3.94128e-15
  70
    32
  0
VERTEX
  8
0
  5
107CE
 10
1.09654
 20
17.8831
 30
-3.93869e-15
  70
    32
  0
VERTEX
  8
0
  5
107CF
 10
1.12403
 20
17.8698
 30
-3.93603e-15
  70
    32
  0
VERTEX
  8
0
  5
107D0
 10
1.15135
 20
17.8561
 30
-3.93330e-15
  70
    32
  0
VERTEX
  8
0
  5
107D1
 10
1.17849
 20
17.8422
 30
-3.93051e-15
  70
    32
  0
VERTEX
  8
0
  5
107D2
 10
1.20546
 20
17.8279
 30
-3.92765e-15
  70
    32
  0
VERTEX
  8
0
  5
107D3
 10
1.23225
 20
17.8133
 30
-3.92473e-15
  70
    32
  0
VERTEX
  8
0
  5
107D4
 10
1.25885
 20
17.7984
 30
-3.92175e-15
  70
    32
  0
VERTEX
  8
0
  5
107D5
 10
1.28526
 20
17.7831
 30
-3.91870e-15
  70
    32
  0
VERTEX
  8
0
  5
107D6
 10
1.31147
 20
17.7676
 30
-3.91559e-15
  70
    32
  0
VERTEX
  8
0
  5
107D7
 10
1.33749
 20
17.7517
 30
-3.91241e-15
  70
    32
  0
VERTEX
  8
0
  5
107D8
 10
1.36331
 20
17.7355
 30
-3.90918e-15
  70
    32
  0
VERTEX
  8
0
  5
107D9
 10
1.38893
 20
17.7190
 30
-3.90588e-15
  70
    32
  0
VERTEX
  8
0
  5
107DA
 10
1.41433
 20
17.7022
 30
-3.90252e-15
  70
    32
  0
VERTEX
  8
0
  5
107DB
 10
1.43952
 20
17.6851
 30
-3.89910e-15
  70
    32
  0
VERTEX
  8
0
  5
107DC
 10
1.46449
 20
17.6677
 30
-3.89562e-15
  70
    32
  0
VERTEX
  8
0
  5
107DD
 10
1.48925
 20
17.6501
 30
-3.89208e-15
  70
    32
  0
VERTEX
  8
0
  5
107DE
 10
1.51378
 20
17.6321
 30
-3.88849e-15
  70
    32
  0
VERTEX
  8
0
  5
107DF
 10
1.53808
 20
17.6138
 30
-3.88483e-15
  70
    32
  0
VERTEX
  8
0
  5
107E0
 10
1.56215
 20
17.5952
 30
-3.88112e-15
  70
    32
  0
VERTEX
  8
0
  5
107E1
 10
1.58598
 20
17.5763
 30
-3.87734e-15
  70
    32
  0
VERTEX
  8
0
  5
107E2
 10
1.60958
 20
17.5572
 30
-3.87351e-15
  70
    32
  0
VERTEX
  8
0
  5
107E3
 10
1.63293
 20
17.5378
 30
-3.86963e-15
  70
    32
  0
VERTEX
  8
0
  5
107E4
 10
1.65604
 20
17.5181
 30
-3.86569e-15
  70
    32
  0
VERTEX
  8
0
  5
107E5
 10
1.67890
 20
17.4981
 30
-3.86169e-15
  70
    32
  0
VERTEX
  8
0
  5
107E6
 10
1.70150
 20
17.4779
 30
-3.85764e-15
  70
    32
  0
VERTEX
  8
0
  5
107E7
 10
1.72385
 20
17.4573
 30
-3.85354e-15
  70
    32
  0
VERTEX
  8
0
  5
107E8
 10
1.74594
 20
17.4365
 30
-3.84938e-15
  70
    32
  0
VERTEX
  8
0
  5
107E9
 10
1.76777
 20
17.4155
 30
-3.84517e-15
  70
    32
  0
VERTEX
  8
0
  5
107EA
 10
1.78933
 20
17.3942
 30
-3.84091e-15
  70
    32
  0
VERTEX
  8
0
  5
107EB
 10
1.81062
 20
17.3726
 30
-3.83660e-15
  70
    32
  0
VERTEX
  8
0
  5
107EC
 10
1.83164
 20
17.3508
 30
-3.83223e-15
  70
    32
  0
VERTEX
  8
0
  5
107ED
 10
1.85238
 20
17.3287
 30
-3.82782e-15
  70
    32
  0
VERTEX
  8
0
  5
107EE
 10
1.87284
 20
17.3064
 30
-3.82336e-15
  70
    32
  0
VERTEX
  8
0
  5
107EF
 10
1.89302
 20
17.2839
 30
-3.81885e-15
  70
    32
  0
VERTEX
  8
0
  5
107F0
 10
1.91292
 20
17.2611
 30
-3.81429e-15
  70
    32
  0
VERTEX
  8
0
  5
107F1
 10
1.93253
 20
17.2380
 30
-3.80968e-15
  70
    32
  0
VERTEX
  8
0
  5
107F2
 10
1.95184
 20
17.2148
 30
-3.80502e-15
  70
    32
  0
VERTEX
  8
0
  5
107F3
 10
1.97087
 20
17.1913
 30
-3.80032e-15
  70
    32
  0
VERTEX
  8
0
  5
107F4
 10
1.98959
 20
17.1675
 30
-3.79558e-15
  70
    32
  0
VERTEX
  8
0
  5
107F5
 10
2.00802
 20
17.1436
 30
-3.79079e-15
  70
    32
  0
VERTEX
  8
0
  5
107F6
 10
2.02614
 20
17.1194
 30
-3.78596e-15
  70
    32
  0
VERTEX
  8
0
  5
107F7
 10
2.04396
 20
17.0950
 30
-3.78108e-15
  70
    32
  0
VERTEX
  8
0
  5
107F8
 10
2.06147
 20
17.0704
 30
-3.77616e-15
  70
    32
  0
VERTEX
  8
0
  5
107F9
 10
2.07867
 20
17.0456
 30
-3.77120e-15
  70
    32
  0
VERTEX
  8
0
  5
107FA
 10
2.09556
 20
17.0206
 30
-3.76620e-15
  70
    32
  0
VERTEX
  8
0
  5
107FB
 10
2.11213
 20
16.9954
 30
-3.76116e-15
  70
    32
  0
VERTEX
  8
0
  5
107FC
 10
2.12839
 20
16.9700
 30
-3.75608e-15
  70
    32
  0
VERTEX
  8
0
  5
107FD
 10
2.14432
 20
16.9444
 30
-3.75096e-15
  70
    32
  0
VERTEX
  8
0
  5
107FE
 10
2.15993
 20
16.9186
 30
-3.74580e-15
  70
    32
  0
VERTEX
  8
0
  5
107FF
 10
2.17522
 20
16.8927
 30
-3.74061e-15
  70
    32
  0
VERTEX
  8
0
  5
10800
 10
2.19018
 20
16.8665
 30
-3.73538e-15
  70
    32
  0
VERTEX
  8
0
  5
10801
 10
2.20480
 20
16.8402
 30
-3.73011e-15
  70
    32
  0
VERTEX
  8
0
  5
10802
 10
2.21910
 20
16.8137
 30
-3.72481e-15
  70
    32
  0
VERTEX
  8
0
  5
10803
 10
2.23306
 20
16.7870
 30
-3.71948e-15
  70
    32
  0
VERTEX
  8
0
  5
10804
 10
2.24669
 20
16.7602
 30
-3.71411e-15
  70
    32
  0
VERTEX
  8
0
  5
10805
 10
2.25997
 20
16.7332
 30
-3.70871e-15
  70
    32
  0
VERTEX
  8
0
  5
10806
 10
2.27292
 20
16.7060
 30
-3.70328e-15
  70
    32
  0
VERTEX
  8
0
  5
10807
 10
2.28552
 20
16.6787
 30
-3.69782e-15
  70
    32
  0
VERTEX
  8
0
  5
10808
 10
2.29778
 20
16.6513
 30
-3.69233e-15
  70
    32
  0
VERTEX
  8
0
  5
10809
 10
2.30970
 20
16.6237
 30
-3.68681e-15
  70
    32
  0
VERTEX
  8
0
  5
1080A
 10
2.32127
 20
16.5959
 30
-3.68126e-15
  70
    32
  0
VERTEX
  8
0
  5
1080B
 10
2.33248
 20
16.5680
 30
-3.67568e-15
  70
    32
  0
VERTEX
  8
0
  5
1080C
 10
2.34335
 20
16.5400
 30
-3.67008e-15
  70
    32
  0
VERTEX
  8
0
  5
1080D
 10
2.35386
 20
16.5119
 30
-3.66445e-15
  70
    32
  0
VERTEX
  8
0
  5
1080E
 10
2.36402
 20
16.4836
 30
-3.65880e-15
  70
    32
  0
VERTEX
  8
0
  5
1080F
 10
2.37382
 20
16.4552
 30
-3.65312e-15
  70
    32
  0
VERTEX
  8
0
  5
10810
 10
2.38327
 20
16.4267
 30
-3.64742e-15
  70
    32
  0
VERTEX
  8
0
  5
10811
 10
2.39235
 20
16.3981
 30
-3.64170e-15
  70
    32
  0
VERTEX
  8
0
  5
10812
 10
2.40108
 20
16.3694
 30
-3.63596e-15
  70
    32
  0
VERTEX
  8
0
  5
10813
 10
2.40944
 20
16.3406
 30
-3.63020e-15
  70
    32
  0
VERTEX
  8
0
  5
10814
 10
2.41744
 20
16.3117
 30
-3.62441e-15
  70
    32
  0
VERTEX
  8
0
  5
10815
 10
2.42508
 20
16.2827
 30
-3.61861e-15
  70
    32
  0
VERTEX
  8
0
  5
10816
 10
2.43235
 20
16.2536
 30
-3.61279e-15
  70
    32
  0
VERTEX
  8
0
  5
10817
 10
2.43926
 20
16.2244
 30
-3.60695e-15
  70
    32
  0
VERTEX
  8
0
  5
10818
 10
2.44579
 20
16.1951
 30
-3.60110e-15
  70
    32
  0
VERTEX
  8
0
  5
10819
 10
2.45196
 20
16.1658
 30
-3.59523e-15
  70
    32
  0
VERTEX
  8
0
  5
1081A
 10
2.45776
 20
16.1364
 30
-3.58935e-15
  70
    32
  0
VERTEX
  8
0
  5
1081B
 10
2.46319
 20
16.1069
 30
-3.58345e-15
  70
    32
  0
VERTEX
  8
0
  5
1081C
 10
2.46825
 20
16.0774
 30
-3.57755e-15
  70
    32
  0
VERTEX
  8
0
  5
1081D
 10
2.47294
 20
16.0478
 30
-3.57163e-15
  70
    32
  0
VERTEX
  8
0
  5
1081E
 10
2.47726
 20
16.0181
 30
-3.56570e-15
  70
    32
  0
VERTEX
  8
0
  5
1081F
 10
2.48120
 20
15.9884
 30
-3.55975e-15
  70
    32
  0
VERTEX
  8
0
  5
10820
 10
2.48477
 20
15.9587
 30
-3.55380e-15
  70
    32
  0
VERTEX
  8
0
  5
10821
 10
2.48796
 20
15.9289
 30
-3.54785e-15
  70
    32
  0
VERTEX
  8
0
  5
10822
 10
2.49078
 20
15.8990
 30
-3.54188e-15
  70
    32
  0
VERTEX
  8
0
  5
10823
 10
2.49323
 20
15.8692
 30
-3.53591e-15
  70
    32
  0
VERTEX
  8
0
  5
10824
 10
2.49530
 20
15.8393
 30
-3.52993e-15
  70
    32
  0
VERTEX
  8
0
  5
10825
 10
2.49699
 20
15.8094
 30
-3.52395e-15
  70
    32
  0
VERTEX
  8
0
  5
10826
 10
2.49831
 20
15.7795
 30
-3.51797e-15
  70
    32
  0
VERTEX
  8
0
  5
10827
 10
2.49925
 20
15.7495
 30
-3.51198e-15
  70
    32
  0
VERTEX
  8
0
  5
10828
 10
2.49981
 20
15.7196
 30
-3.50599e-15
  70
    32
  0
VERTEX
  8
0
  5
10829
 10
2.50000
 20
15.6896
 30
-3.50000e-15
  70
    32
  0
SEQEND
  8
0
  5
1082A
  0
POLYLINE
  5
105A6
  8
0
  6
VERDECKT
 62
     1
 10
-2.5000000000000058
 20
15.6896319430405349
 30
-0.0000000000000035
 66
     1
 70
     8
  0
VERTEX
  8
0
  5
1082B
 10
-2.50000
 20
15.6896
 30
-3.50000e-15
  70
    32
  0
VERTEX
  8
0
  5
1082C
 10
-2.49981
 20
15.7196
 30
-3.50599e-15
  70
    32
  0
VERTEX
  8
0
  5
1082D
 10
-2.49925
 20
15.7495
 30
-3.51198e-15
  70
    32
  0
VERTEX
  8
0
  5
1082E
 10
-2.49831
 20
15.7795
 30
-3.51797e-15
  70
    32
  0
VERTEX
  8
0
  5
1082F
 10
-2.49699
 20
15.8094
 30
-3.52395e-15
  70
    32
  0
VERTEX
  8
0
  5
10830
 10
-2.49530
 20
15.8393
 30
-3.52993e-15
  70
    32
  0
VERTEX
  8
0
  5
10831
 10
-2.49323
 20
15.8692
 30
-3.53591e-15
  70
    32
  0
VERTEX
  8
0
  5
10832
 10
-2.49078
 20
15.8990
 30
-3.54188e-15
  70
    32
  0
VERTEX
  8
0
  5
10833
 10
-2.48796
 20
15.9289
 30
-3.54785e-15
  70
    32
  0
VERTEX
  8
0
  5
10834
 10
-2.48477
 20
15.9587
 30
-3.55380e-15
  70
    32
  0
VERTEX
  8
0
  5
10835
 10
-2.48120
 20
15.9884
 30
-3.55975e-15
  70
    32
  0
VERTEX
  8
0
  5
10836
 10
-2.47726
 20
16.0181
 30
-3.56570e-15
  70
    32
  0
VERTEX
  8
0
  5
10837
 10
-2.47294
 20
16.0478
 30
-3.57163e-15
  70
    32
  0
VERTEX
  8
0
  5
10838
 10
-2.46825
 20
16.0774
 30
-3.57755e-15
  70
    32
  0
VERTEX
  8
0
  5
10839
 10
-2.46319
 20
16.1069
 30
-3.58345e-15
  70
    32
  0
VERTEX
  8
0
  5
1083A
 10
-2.45776
 20
16.1364
 30
-3.58935e-15
  70
    32
  0
VERTEX
  8
0
  5
1083B
 10
-2.45196
 20
16.1658
 30
-3.59523e-15
  70
    32
  0
VERTEX
  8
0
  5
1083C
 10
-2.44579
 20
16.1951
 30
-3.60110e-15
  70
    32
  0
VERTEX
  8
0
  5
1083D
 10
-2.43926
 20
16.2244
 30
-3.60695e-15
  70
    32
  0
VERTEX
  8
0
  5
1083E
 10
-2.43235
 20
16.2536
 30
-3.61279e-15
  70
    32
  0
VERTEX
  8
0
  5
1083F
 10
-2.42508
 20
16.2827
 30
-3.61861e-15
  70
    32
  0
VERTEX
  8
0
  5
10840
 10
-2.41744
 20
16.3117
 30
-3.62441e-15
  70
    32
  0
VERTEX
  8
0
  5
10841
 10
-2.40944
 20
16.3406
 30
-3.63020e-15
  70
    32
  0
VERTEX
  8
0
  5
10842
 10
-2.40108
 20
16.3694
 30
-3.63596e-15
  70
    32
  0
VERTEX
  8
0
  5
10843
 10
-2.39235
 20
16.3981
 30
-3.64170e-15
  70
    32
  0
VERTEX
  8
0
  5
10844
 10
-2.38327
 20
16.4267
 30
-3.64742e-15
  70
    32
  0
VERTEX
  8
0
  5
10845
 10
-2.37382
 20
16.4552
 30
-3.65312e-15
  70
    32
  0
VERTEX
  8
0
  5
10846
 10
-2.36402
 20
16.4836
 30
-3.65880e-15
  70
    32
  0
VERTEX
  8
0
  5
10847
 10
-2.35386
 20
16.5119
 30
-3.66445e-15
  70
    32
  0
VERTEX
  8
0
  5
10848
 10
-2.34335
 20
16.5400
 30
-3.67008e-15
  70
    32
  0
VERTEX
  8
0
  5
10849
 10
-2.33248
 20
16.5680
 30
-3.67568e-15
  70
    32
  0
VERTEX
  8
0
  5
1084A
 10
-2.32127
 20
16.5959
 30
-3.68126e-15
  70
    32
  0
VERTEX
  8
0
  5
1084B
 10
-2.30970
 20
16.6237
 30
-3.68681e-15
  70
    32
  0
VERTEX
  8
0
  5
1084C
 10
-2.29778
 20
16.6513
 30
-3.69233e-15
  70
    32
  0
VERTEX
  8
0
  5
1084D
 10
-2.28552
 20
16.6787
 30
-3.69782e-15
  70
    32
  0
VERTEX
  8
0
  5
1084E
 10
-2.27292
 20
16.7060
 30
-3.70328e-15
  70
    32
  0
VERTEX
  8
0
  5
1084F
 10
-2.25997
 20
16.7332
 30
-3.70871e-15
  70
    32
  0
VERTEX
  8
0
  5
10850
 10
-2.24669
 20
16.7602
 30
-3.71411e-15
  70
    32
  0
VERTEX
  8
0
  5
10851
 10
-2.23306
 20
16.7870
 30
-3.71948e-15
  70
    32
  0
VERTEX
  8
0
  5
10852
 10
-2.21910
 20
16.8137
 30
-3.72481e-15
  70
    32
  0
VERTEX
  8
0
  5
10853
 10
-2.20480
 20
16.8402
 30
-3.73011e-15
  70
    32
  0
VERTEX
  8
0
  5
10854
 10
-2.19018
 20
16.8665
 30
-3.73538e-15
  70
    32
  0
VERTEX
  8
0
  5
10855
 10
-2.17522
 20
16.8927
 30
-3.74061e-15
  70
    32
  0
VERTEX
  8
0
  5
10856
 10
-2.15993
 20
16.9186
 30
-3.74580e-15
  70
    32
  0
VERTEX
  8
0
  5
10857
 10
-2.14432
 20
16.9444
 30
-3.75096e-15
  70
    32
  0
VERTEX
  8
0
  5
10858
 10
-2.12839
 20
16.9700
 30
-3.75608e-15
  70
    32
  0
VERTEX
  8
0
  5
10859
 10
-2.11213
 20
16.9954
 30
-3.76116e-15
  70
    32
  0
VERTEX
  8
0
  5
1085A
 10
-2.09556
 20
17.0206
 30
-3.76620e-15
  70
    32
  0
VERTEX
  8
0
  5
1085B
 10
-2.07867
 20
17.0456
 30
-3.77120e-15
  70
    32
  0
VERTEX
  8
0
  5
1085C
 10
-2.06147
 20
17.0704
 30
-3.77616e-15
  70
    32
  0
VERTEX
  8
0
  5
1085D
 10
-2.04396
 20
17.0950
 30
-3.78108e-15
  70
    32
  0
VERTEX
  8
0
  5
1085E
 10
-2.02614
 20
17.1194
 30
-3.78596e-15
  70
    32
  0
VERTEX
  8
0
  5
1085F
 10
-2.00802
 20
17.1436
 30
-3.79079e-15
  70
    32
  0
VERTEX
  8
0
  5
10860
 10
-1.98959
 20
17.1675
 30
-3.79558e-15
  70
    32
  0
VERTEX
  8
0
  5
10861
 10
-1.97087
 20
17.1913
 30
-3.80032e-15
  70
    32
  0
VERTEX
  8
0
  5
10862
 10
-1.95184
 20
17.2148
 30
-3.80502e-15
  70
    32
  0
VERTEX
  8
0
  5
10863
 10
-1.93253
 20
17.2380
 30
-3.80968e-15
  70
    32
  0
VERTEX
  8
0
  5
10864
 10
-1.91292
 20
17.2611
 30
-3.81429e-15
  70
    32
  0
VERTEX
  8
0
  5
10865
 10
-1.89302
 20
17.2839
 30
-3.81885e-15
  70
    32
  0
VERTEX
  8
0
  5
10866
 10
-1.87284
 20
17.3064
 30
-3.82336e-15
  70
    32
  0
VERTEX
  8
0
  5
10867
 10
-1.85238
 20
17.3287
 30
-3.82782e-15
  70
    32
  0
VERTEX
  8
0
  5
10868
 10
-1.83164
 20
17.3508
 30
-3.83223e-15
  70
    32
  0
VERTEX
  8
0
  5
10869
 10
-1.81062
 20
17.3726
 30
-3.83660e-15
  70
    32
  0
VERTEX
  8
0
  5
1086A
 10
-1.78933
 20
17.3942
 30
-3.84091e-15
  70
    32
  0
VERTEX
  8
0
  5
1086B
 10
-1.76777
 20
17.4155
 30
-3.84517e-15
  70
    32
  0
VERTEX
  8
0
  5
1086C
 10
-1.74594
 20
17.4365
 30
-3.84938e-15
  70
    32
  0
VERTEX
  8
0
  5
1086D
 10
-1.72385
 20
17.4573
 30
-3.85354e-15
  70
    32
  0
VERTEX
  8
0
  5
1086E
 10
-1.70150
 20
17.4779
 30
-3.85764e-15
  70
    32
  0
VERTEX
  8
0
  5
1086F
 10
-1.67890
 20
17.4981
 30
-3.86169e-15
  70
    32
  0
VERTEX
  8
0
  5
10870
 10
-1.65604
 20
17.5181
 30
-3.86569e-15
  70
    32
  0
VERTEX
  8
0
  5
10871
 10
-1.63293
 20
17.5378
 30
-3.86963e-15
  70
    32
  0
VERTEX
  8
0
  5
10872
 10
-1.60958
 20
17.5572
 30
-3.87351e-15
  70
    32
  0
VERTEX
  8
0
  5
10873
 10
-1.58598
 20
17.5763
 30
-3.87734e-15
  70
    32
  0
VERTEX
  8
0
  5
10874
 10
-1.56215
 20
17.5952
 30
-3.88112e-15
  70
    32
  0
VERTEX
  8
0
  5
10875
 10
-1.53808
 20
17.6138
 30
-3.88483e-15
  70
    32
  0
VERTEX
  8
0
  5
10876
 10
-1.51378
 20
17.6321
 30
-3.88849e-15
  70
    32
  0
VERTEX
  8
0
  5
10877
 10
-1.48925
 20
17.6501
 30
-3.89208e-15
  70
    32
  0
VERTEX
  8
0
  5
10878
 10
-1.46449
 20
17.6677
 30
-3.89562e-15
  70
    32
  0
VERTEX
  8
0
  5
10879
 10
-1.43952
 20
17.6851
 30
-3.89910e-15
  70
    32
  0
VERTEX
  8
0
  5
1087A
 10
-1.41433
 20
17.7022
 30
-3.90252e-15
  70
    32
  0
VERTEX
  8
0
  5
1087B
 10
-1.38893
 20
17.7190
 30
-3.90588e-15
  70
    32
  0
VERTEX
  8
0
  5
1087C
 10
-1.36331
 20
17.7355
 30
-3.90918e-15
  70
    32
  0
VERTEX
  8
0
  5
1087D
 10
-1.33749
 20
17.7517
 30
-3.91241e-15
  70
    32
  0
VERTEX
  8
0
  5
1087E
 10
-1.31147
 20
17.7676
 30
-3.91559e-15
  70
    32
  0
VERTEX
  8
0
  5
1087F
 10
-1.28526
 20
17.7831
 30
-3.91870e-15
  70
    32
  0
VERTEX
  8
0
  5
10880
 10
-1.25885
 20
17.7984
 30
-3.92175e-15
  70
    32
  0
VERTEX
  8
0
  5
10881
 10
-1.23225
 20
17.8133
 30
-3.92473e-15
  70
    32
  0
VERTEX
  8
0
  5
10882
 10
-1.20546
 20
17.8279
 30
-3.92765e-15
  70
    32
  0
VERTEX
  8
0
  5
10883
 10
-1.17849
 20
17.8422
 30
-3.93051e-15
  70
    32
  0
VERTEX
  8
0
  5
10884
 10
-1.15135
 20
17.8561
 30
-3.93330e-15
  70
    32
  0
VERTEX
  8
0
  5
10885
 10
-1.12403
 20
17.8698
 30
-3.93603e-15
  70
    32
  0
VERTEX
  8
0
  5
10886
 10
-1.09654
 20
17.8831
 30
-3.93869e-15
  70
    32
  0
VERTEX
  8
0
  5
10887
 10
-1.06889
 20
17.8960
 30
-3.94128e-15
  70
    32
  0
VERTEX
  8
0
  5
10888
 10
-1.04107
 20
17.9087
 30
-3.94381e-15
  70
    32
  0
VERTEX
  8
0
  5
10889
 10
-1.01310
 20
17.9210
 30
-3.94627e-15
  70
    32
  0
VERTEX
  8
0
  5
1088A
 10
-0.984980
 20
17.9329
 30
-3.94866e-15
  70
    32
  0
VERTEX
  8
0
  5
1088B
 10
-0.956709
 20
17.9446
 30
-3.95099e-15
  70
    32
  0
VERTEX
  8
0
  5
1088C
 10
-0.928293
 20
17.9559
 30
-3.95325e-15
  70
    32
  0
VERTEX
  8
0
  5
1088D
 10
-0.899738
 20
17.9668
 30
-3.95544e-15
  70
    32
  0
VERTEX
  8
0
  5
1088E
 10
-0.871047
 20
17.9774
 30
-3.95756e-15
  70
    32
  0
VERTEX
  8
0
  5
1088F
 10
-0.842225
 20
17.9877
 30
-3.95961e-15
  70
    32
  0
VERTEX
  8
0
  5
10890
 10
-0.813276
 20
17.9976
 30
-3.96160e-15
  70
    32
  0
VERTEX
  8
0
  5
10891
 10
-0.784204
 20
18.0072
 30
-3.96351e-15
  70
    32
  0
VERTEX
  8
0
  5
10892
 10
-0.755015
 20
18.0164
 30
-3.96535e-15
  70
    32
  0
VERTEX
  8
0
  5
10893
 10
-0.725712
 20
18.0253
 30
-3.96713e-15
  70
    32
  0
VERTEX
  8
0
  5
10894
 10
-0.696299
 20
18.0338
 30
-3.96883e-15
  70
    32
  0
VERTEX
  8
0
  5
10895
 10
-0.666782
 20
18.0420
 30
-3.97047e-15
  70
    32
  0
VERTEX
  8
0
  5
10896
 10
-0.637164
 20
18.0498
 30
-3.97203e-15
  70
    32
  0
VERTEX
  8
0
  5
10897
 10
-0.607450
 20
18.0572
 30
-3.97352e-15
  70
    32
  0
VERTEX
  8
0
  5
10898
 10
-0.577645
 20
18.0643
 30
-3.97494e-15
  70
    32
  0
VERTEX
  8
0
  5
10899
 10
-0.547753
 20
18.0711
 30
-3.97629e-15
  70
    32
  0
VERTEX
  8
0
  5
1089A
 10
-0.517778
 20
18.0775
 30
-3.97756e-15
  70
    32
  0
VERTEX
  8
0
  5
1089B
 10
-0.487726
 20
18.0835
 30
-3.97877e-15
  70
    32
  0
VERTEX
  8
0
  5
1089C
 10
-0.457600
 20
18.0891
 30
-3.97990e-15
  70
    32
  0
VERTEX
  8
0
  5
1089D
 10
-0.427405
 20
18.0944
 30
-3.98096e-15
  70
    32
  0
VERTEX
  8
0
  5
1089E
 10
-0.397145
 20
18.0994
 30
-3.98195e-15
  70
    32
  0
VERTEX
  8
0
  5
1089F
 10
-0.366826
 20
18.1040
 30
-3.98286e-15
  70
    32
  0
VERTEX
  8
0
  5
108A0
 10
-0.336452
 20
18.1082
 30
-3.98371e-15
  70
    32
  0
VERTEX
  8
0
  5
108A1
 10
-0.306027
 20
18.1120
 30
-3.98448e-15
  70
    32
  0
VERTEX
  8
0
  5
108A2
 10
-0.275556
 20
18.1155
 30
-3.98517e-15
  70
    32
  0
VERTEX
  8
0
  5
108A3
 10
-0.245043
 20
18.1186
 30
-3.98580e-15
  70
    32
  0
VERTEX
  8
0
  5
108A4
 10
-0.214493
 20
18.1214
 30
-3.98635e-15
  70
    32
  0
VERTEX
  8
0
  5
108A5
 10
-0.183911
 20
18.1238
 30
-3.98683e-15
  70
    32
  0
VERTEX
  8
0
  5
108A6
 10
-0.153302
 20
18.1258
 30
-3.98723e-15
  70
    32
  0
VERTEX
  8
0
  5
108A7
 10
-0.122669
 20
18.1274
 30
-3.98756e-15
  70
    32
  0
VERTEX
  8
0
  5
108A8
 10
-0.0920181
 20
18.1287
 30
-3.98782e-15
  70
    32
  0
VERTEX
  8
0
  5
108A9
 10
-0.0613531
 20
18.1296
 30
-3.98800e-15
  70
    32
  0
VERTEX
  8
0
  5
108AA
 10
-0.0306788
 20
18.1302
 30
-3.98811e-15
  70
    32
  0
VERTEX
  8
0
  5
108AB
 10
-6.09041e-15
 20
18.1304
 30
-3.98815e-15
  70
    32
  0
SEQEND
  8
0
  5
108AC
  0
LINE
  5
105A7
  8
0
  6
VERDECKT
 62
     1
 10
-2.4999999999999951
 20
3.0000000000000449
 30
-0.0000000000000007
 11
-3.0000000000000009
 21
3.5000000000000471
 31
-0.0000000000000008
210
-0.0000000000000002
220
1.0
230
-0.0000000000000002
  0
LINE
  5
105A8
  8
0
  6
VERDECKT
 62
     1
 10
2.4999999999999991
 20
3.000000000000048
 30
-0.0000000000000007
 11
3.0000000000000049
 21
3.5000000000000502
 31
-0.0000000000000008
210
-0.0000000000000002
220
1.0
230
-0.0000000000000002
  0
LINE
  5
105A9
  8
0
  6
VERDECKT
 62
     1
 10
2.5000000000000009
 20
3.000000000000044
 30
-0.0000000000000007
 11
3.0000000000000049
 21
2.5000000000000471
 31
-0.0000000000000006
210
-0.0000000000000002
220
1.0
230
-0.0000000000000002
  0
LINE
  5
105AA
  8
0
  6
VERDECKT
 62
     1
 10
-2.4999999999999978
 20
3.0000000000000422
 30
-0.0000000000000007
 11
-3.0
 21
2.5000000000000431
 31
-0.0000000000000006
210
-0.0000000000000002
220
1.0
230
-0.0000000000000002
  0
LINE
  5
105AB
  8
0
  6
VERDECKT
 62
     1
 10
-2.4999999999999938
 20
2.0000000000000409
 30
-0.0000000000000004
 11
-3.0000000000000009
 21
2.5000000000000431
 31
-0.0000000000000006
210
-0.0000000000000002
220
1.0
230
-0.0000000000000002
  0
LINE
  5
105AC
  8
0
  6
VERDECKT
 62
     1
 10
2.5
 20
2.000000000000044
 30
-0.0000000000000004
 11
3.0000000000000062
 21
2.5000000000000471
 31
-0.0000000000000006
210
-0.0000000000000002
220
1.0
230
-0.0000000000000002
  0
LINE
  5
105AD
  8
0
  6
VERDECKT
 62
     1
 10
2.5000000000000022
 20
2.00000000000004
 30
-0.0000000000000004
 11
3.0000000000000049
 21
1.500000000000042
 31
-0.0000000000000003
210
-0.0000000000000002
220
1.0
230
-0.0000000000000002
  0
LINE
  5
105AE
  8
0
  6
VERDECKT
 62
     1
 10
-2.4999999999999969
 20
2.0000000000000382
 30
-0.0000000000000004
 11
-3.0
 21
1.5000000000000391
 31
-0.0000000000000003
210
-0.0000000000000002
220
1.0
230
-0.0000000000000002
  0
LINE
  5
105AF
  8
0
  6
VERDECKT
 62
     1
 10
-2.4999999999999898
 20
-1.999999999999972
 30
0.0000000000000004
 11
-2.9999999999999969
 21
-1.499999999999972
 31
0.0000000000000003
210
-0.0000000000000002
220
1.0
230
-0.0000000000000002
  0
LINE
  5
105B0
  8
0
  6
VERDECKT
 62
     1
 10
2.5
 20
-1.99999999999997
 30
0.0000000000000004
 11
3.0000000000000062
 21
-1.4999999999999689
 31
0.0000000000000003
210
-0.0000000000000002
220
1.0
230
-0.0000000000000002
  0
LINE
  5
105B1
  8
0
  6
VERDECKT
 62
     1
 10
2.500000000000004
 20
-1.9999999999999749
 30
0.0000000000000004
 11
3.0000000000000071
 21
-2.499999999999972
 31
0.0000000000000006
210
-0.0000000000000002
220
1.0
230
-0.0000000000000002
  0
LINE
  5
105B2
  8
0
  6
VERDECKT
 62
     1
 10
-2.4999999999999938
 20
-1.9999999999999769
 30
0.0000000000000004
 11
-2.9999999999999969
 21
-2.499999999999976
 31
0.0000000000000006
210
-0.0000000000000002
220
1.0
230
-0.0000000000000002
  0
LINE
  5
105B3
  8
0
  6
VERDECKT
 62
     1
 10
-2.4999999999999911
 20
-2.9999999999999769
 30
0.0000000000000007
 11
-2.9999999999999978
 21
-2.499999999999976
 31
0.0000000000000006
210
-0.0000000000000002
220
1.0
230
-0.0000000000000002
  0
LINE
  5
105B4
  8
0
  6
VERDECKT
 62
     1
 10
2.5000000000000009
 20
-2.9999999999999751
 30
0.0000000000000007
 11
3.000000000000008
 21
-2.4999999999999729
 31
0.0000000000000006
210
-0.0000000000000002
220
1.0
230
-0.0000000000000002
  0
LINE
  5
105B5
  8
0
  6
VERDECKT
 62
     1
 10
2.500000000000004
 20
-2.9999999999999791
 30
0.0000000000000007
 11
3.000000000000008
 21
-3.499999999999976
 31
0.0000000000000008
210
-0.0000000000000002
220
1.0
230
-0.0000000000000002
  0
LINE
  5
105B6
  8
0
  6
VERDECKT
 62
     1
 10
-2.4999999999999938
 20
-2.9999999999999809
 30
0.0000000000000007
 11
-2.999999999999996
 21
-3.49999999999998
 31
0.0000000000000008
210
-0.0000000000000002
220
1.0
230
-0.0000000000000002
  0
LINE
  5
105B7
  8
0
  6
VERDECKT
 62
     1
 10
-2.4999999999999889
 20
-3.9999999999999818
 30
0.0000000000000009
 11
-2.9999999999999969
 21
-3.49999999999998
 31
0.0000000000000008
210
-0.0000000000000002
220
1.0
230
-0.0000000000000002
  0
LINE
  5
105B8
  8
0
  6
VERDECKT
 62
     1
 10
2.5000000000000009
 20
-3.99999999999998
 30
0.0000000000000009
 11
3.000000000000008
 21
-3.499999999999976
 31
0.0000000000000008
210
-0.0000000000000002
220
1.0
230
-0.0000000000000002
  0
LINE
  5
105B9
  8
0
  6
VERDECKT
 62
     1
 10
2.5000000000000062
 20
-3.999999999999984
 30
0.0000000000000009
 11
3.0000000000000089
 21
-4.4999999999999813
 31
0.000000000000001
210
-0.0000000000000002
220
1.0
230
-0.0000000000000002
  0
LINE
  5
105BA
  8
0
  6
VERDECKT
 62
     1
 10
-2.4999999999999938
 20
-3.9999999999999858
 30
0.0000000000000009
 11
-2.9999999999999969
 21
-4.4999999999999849
 31
0.000000000000001
210
-0.0000000000000002
220
1.0
230
-0.0000000000000002
  0
LINE
  5
105BB
  8
0
  6
VERDECKT
 62
     1
 10
-2.4999999999999889
 20
-4.9999999999999858
 30
0.0000000000000011
 11
-2.999999999999996
 21
-4.4999999999999849
 31
0.000000000000001
210
-0.0000000000000002
220
1.0
230
-0.0000000000000002
  0
LINE
  5
105BC
  8
0
  6
VERDECKT
 62
     1
 10
2.5000000000000009
 20
-4.9999999999999831
 30
0.0000000000000011
 11
3.000000000000008
 21
-4.4999999999999822
 31
0.000000000000001
210
-0.0000000000000002
220
1.0
230
-0.0000000000000002
  0
ARC
  5
105BD
  8
0
  6
VERDECKT
 62
     1
 10
0.0000000000000128
 20
31.5000000000000213
 30
0.0
 40
2.5
210
0.0
220
-0.0000000000000002
230
-1.0
 50
180.0
 51
360.0
  0
LINE
  5
105BE
  8
0
  6
VERDECKT
 62
     1
 10
-2.9999999999999432
 20
-50.5000000000000497
 30
0.0000000000000112
 11
3.0000000000000582
 21
-50.5000000000000497
 31
0.0000000000000112
210
-0.0000000000000002
220
1.0
230
-0.0000000000000002
  0
ARC
  5
105BF
  8
0
  6
VERDECKT
 62
     1
 10
2.9999999999999409
 20
-51.5000000000000284
 30
0.0
 40
1.000000000000002
210
0.0
220
-0.0000000000000002
230
-1.0
 50
0.0
 51
89.9999999999998437
  0
ARC
  5
105C0
  8
0
  6
VERDECKT
 62
     1
 10
-3.0000000000000551
 20
-51.5000000000000284
 30
0.0
 40
1.0
210
0.0
220
-0.0000000000000002
230
-1.0
 50
90.0000000000001705
 51
180.0
  0
LINE
  5
105C1
  8
0
  6
VERDECKT
 62
     1
 10
3.0000000000000582
 20
-51.5000000000000284
 30
0.0000000000000114
 11
3.0000000000000591
 21
-53.5000000000000426
 31
0.0000000000000119
210
-0.0000000000000002
220
1.0
230
-0.0000000000000002
  0
LINE
  5
105C2
  8
0
  6
VERDECKT
 62
     1
 10
-2.9999999999999432
 20
-51.5000000000000284
 30
0.0000000000000114
 11
-2.9999999999999432
 21
-53.5000000000000426
 31
0.0000000000000119
210
-0.0000000000000002
220
1.0
230
-0.0000000000000002
  0
ENDBLK
  5
105C4
  8
0
  0
BLOCK
  8
0
  2
A$C40CF2580
 70
     0
 10
0.0
 20
0.0
 30
0.0
  3
A$C40CF2580
  1

  0
LINE
  5
105C8
  8
0
  6
CONTINUOUS
 62
     3
 10
-55.1506350946108981
 20
12.5000000000001599
 30
0.0000000000000124
 11
-40.1248052954777776
 21
12.4999999999998597
 31
0.0000000000000091
  0
ARC
  5
105C9
  8
0
  6
CONTINUOUS
 62
     3
 10
-33.4999999999999787
 20
0.0000000000000269
 30
0.0000000000000075
 40
25.0000000000000284
 50
184.7290289609240119
 51
210.0000000000001137
  0
ARC
  5
105CA
  8
0
  6
CONTINUOUS
 62
     3
 10
-33.4999999999997513
 20
-0.0000000000000726
 30
0.0000000000000075
 40
25.00000000000027
 50
149.999999999999801
 51
175.2709710390759028
  0
LINE
  5
105CB
  8
0
  6
CONTINUOUS
 62
     3
 10
-40.1248052954777705
 20
-12.5000000000001794
 30
0.0000000000000089
 11
-55.1506350946109478
 21
-12.5000000000000195
 31
0.0000000000000122
  0
LINE
  5
105CC
  8
0
  6
CONTINUOUS
 62
     3
 10
-40.1248052954777705
 20
-12.5000000000000497
 30
0.0000000000000089
 11
-38.1433334290344277
 21
-12.5000000000000497
 31
0.0000000000000089
  0
LINE
  5
105CD
  8
0
  6
CONTINUOUS
 62
     3
 10
-38.1433334290344277
 20
12.4999999999999503
 30
0.0000000000000089
 11
-40.1248052954777705
 21
12.4999999999999503
 31
0.0000000000000089
  0
LINE
  5
105CE
  8
0
  6
CONTINUOUS
 62
     3
 10
40.1248052954776497
 20
-12.5000000000001794
 30
-0.0000000000000089
 11
55.150635094610827
 21
-12.5000000000000195
 31
-0.0000000000000122
  0
ARC
  5
105CF
  8
0
  6
CONTINUOUS
 62
     3
 10
33.4999999999998295
 20
0.0000000000000393
 30
-0.0000000000000075
 40
25.0000000000000711
 50
329.9999999999998863
 51
355.2709710390757891
  0
ARC
  5
105D0
  8
0
  6
CONTINUOUS
 62
     3
 10
33.4999999999995879
 20
-0.0000000000000851
 30
-0.0000000000000075
 40
25.0000000000003197
 50
4.7290289609243041
 51
30.0000000000002203
  0
LINE
  5
105D1
  8
0
  6
CONTINUOUS
 62
     3
 10
55.1506350946107915
 20
12.5000000000001599
 30
-0.0000000000000124
 11
40.1248052954776568
 21
12.4999999999998597
 31
-0.0000000000000091
  0
LINE
  5
105D2
  8
0
  6
CONTINUOUS
 62
     3
 10
40.1248052954776497
 20
-12.5000000000000497
 30
-0.0000000000000089
 11
38.1433334290343069
 21
-12.5000000000000497
 31
-0.0000000000000089
  0
LINE
  5
105D3
  8
0
  6
CONTINUOUS
 62
     3
 10
38.1433334290343069
 20
12.4999999999999503
 30
-0.0000000000000089
 11
40.1248052954776497
 21
12.4999999999999503
 31
-0.0000000000000089
  0
LINE
  5
105D4
  8
0
  6
CONTINUOUS
 62
     3
 10
-38.1433334290345201
 20
-12.5000000000000497
 30
0.0000000000000089
 11
38.1433334290343069
 21
-12.5000000000000497
 31
-0.0000000000000089
  0
LINE
  5
105D5
  8
0
  6
CONTINUOUS
 62
     3
 10
38.1433334290344135
 20
12.4999999999999396
 30
-0.0000000000000089
 11
-38.1433334290344206
 21
12.4999999999999396
 31
0.0000000000000089
  0
ARC
  5
105D6
  8
0
  6
CONTINUOUS
 62
     3
 10
-49.0
 20
-0.0000000000000003
 30
0.0000000000000107
 40
3.0000000000000031
 50
236.4426902380791091
 51
303.5573097619209193
  0
ARC
  5
105D7
  8
0
  6
CONTINUOUS
 62
     3
 10
-49.0
 20
-0.0000000000000017
 30
0.0000000000000107
 40
3.0000000000000031
 50
56.4426902380791233
 51
123.5573097619209051
  0
ARC
  5
105D8
  8
0
  6
CONTINUOUS
 62
     3
 10
-57.0000000000000071
 20
0.0000000000000033
 30
0.0000000000000142
 40
2.5
 50
90.0
 51
270.0
  0
ARC
  5
105D9
  8
0
  6
CONTINUOUS
 62
     3
 10
-41.0
 20
0.0000000000000036
 30
0.0000000000000107
 40
2.5
 50
270.0
 51
90.0
  0
LINE
  5
105DA
  8
0
  6
CONTINUOUS
 62
     3
 10
-57.0000000000000071
 20
-2.499999999999996
 30
0.0000000000000142
 11
-41.0
 21
-2.499999999999996
 31
0.0000000000000107
  0
LINE
  5
105DB
  8
0
  6
CONTINUOUS
 62
     3
 10
-41.0
 20
2.5000000000000031
 30
0.0000000000000107
 11
-57.0000000000000071
 21
2.5000000000000031
 31
0.0000000000000142
  0
ARC
  5
105DC
  8
0
  6
CONTINUOUS
 62
     3
 10
49.0
 20
-0.0000000000000003
 30
-0.0000000000000107
 40
3.0000000000000031
 50
236.4426902380791091
 51
303.5573097619209193
  0
ARC
  5
105DD
  8
0
  6
CONTINUOUS
 62
     3
 10
49.0
 20
-0.0000000000000017
 30
-0.0000000000000107
 40
3.0000000000000031
 50
56.4426902380791233
 51
123.5573097619209051
  0
ARC
  5
105DE
  8
0
  6
CONTINUOUS
 62
     3
 10
40.9999999999999929
 20
0.0000000000000033
 30
-0.0000000000000107
 40
2.5
 50
90.0
 51
270.0
  0
ARC
  5
105DF
  8
0
  6
CONTINUOUS
 62
     3
 10
56.9999999999999929
 20
0.0000000000000036
 30
-0.0000000000000142
 40
2.5
 50
270.0
 51
90.0
  0
LINE
  5
105E0
  8
0
  6
CONTINUOUS
 62
     3
 10
40.9999999999999929
 20
-2.499999999999996
 30
-0.0000000000000107
 11
56.9999999999999929
 21
-2.499999999999996
 31
-0.0000000000000142
  0
LINE
  5
105E1
  8
0
  6
CONTINUOUS
 62
     3
 10
56.9999999999999929
 20
2.5000000000000031
 30
-0.0000000000000142
 11
40.9999999999999929
 21
2.5000000000000031
 31
-0.0000000000000107
  0
ARC
  5
105E2
  8
0
  6
VERDECKT
 62
     1
 10
-33.5000000000009592
 20
0.0000000000000462
 30
0.0000000000000075
 40
24.9999999999990585
 50
175.2709710390759028
 51
184.7290289609242109
  0
ARC
  5
105E3
  8
0
  6
VERDECKT
 62
     1
 10
33.50000000000081
 20
0.0000000000000424
 30
-0.0000000000000075
 40
24.9999999999990905
 50
355.2709710390756186
 51
4.7290289609242526
  0
CIRCLE
  5
105E4
  8
0
  6
VERDECKT
 62
     1
 10
-49.0
 20
-0.0000000000000571
 30
0.0000000000000107
 40
3.75
  0
CIRCLE
  5
105E5
  8
0
  6
VERDECKT
 62
     1
 10
49.0
 20
-0.0000000000000571
 30
-0.0000000000000107
 40
3.75
  0
LINE
  5
105E6
  8
0
  6
VERDECKT
 62
     1
 10
14.4999999999999893
 20
-12.5000000000000604
 30
0.0
 11
14.4999999999999893
 21
-5.3851648071345792
 31
0.0
  0
POLYLINE
  8
0
  5
108AD
  62
1
  66
     1
 10
0.000000
 20
0.000000
 30
0.000000
  70
     8
  0
VERTEX
  8
0
  5
108AE
 10
14.5000
 20
-5.38516
 30
-3.20000e-15
  70
    32
  0
VERTEX
  8
0
  5
108AF
 10
14.5000
 20
-5.33174
 30
-3.20000e-15
  70
    32
  0
VERTEX
  8
0
  5
108B0
 10
14.5000
 20
-5.27822
 30
-3.20000e-15
  70
    32
  0
VERTEX
  8
0
  5
108B1
 10
14.5000
 20
-5.22461
 30
-3.20000e-15
  70
    32
  0
VERTEX
  8
0
  5
108B2
 10
14.5000
 20
-5.17091
 30
-3.20000e-15
  70
    32
  0
VERTEX
  8
0
  5
108B3
 10
14.5000
 20
-5.11712
 30
-3.20000e-15
  70
    32
  0
VERTEX
  8
0
  5
108B4
 10
14.5000
 20
-5.06324
 30
-3.20000e-15
  70
    32
  0
VERTEX
  8
0
  5
108B5
 10
14.5000
 20
-5.00928
 30
-3.20000e-15
  70
    32
  0
VERTEX
  8
0
  5
108B6
 10
14.5000
 20
-4.95522
 30
-3.20000e-15
  70
    32
  0
VERTEX
  8
0
  5
108B7
 10
14.5000
 20
-4.90108
 30
-3.20000e-15
  70
    32
  0
VERTEX
  8
0
  5
108B8
 10
14.5000
 20
-4.84686
 30
-3.20000e-15
  70
    32
  0
VERTEX
  8
0
  5
108B9
 10
14.5000
 20
-4.79255
 30
-3.20000e-15
  70
    32
  0
VERTEX
  8
0
  5
108BA
 10
14.5000
 20
-4.73816
 30
-3.20000e-15
  70
    32
  0
VERTEX
  8
0
  5
108BB
 10
14.5000
 20
-4.68368
 30
-3.20000e-15
  70
    32
  0
VERTEX
  8
0
  5
108BC
 10
14.5000
 20
-4.62913
 30
-3.20000e-15
  70
    32
  0
VERTEX
  8
0
  5
108BD
 10
14.5000
 20
-4.57449
 30
-3.20000e-15
  70
    32
  0
VERTEX
  8
0
  5
108BE
 10
14.5000
 20
-4.51978
 30
-3.20000e-15
  70
    32
  0
VERTEX
  8
0
  5
108BF
 10
14.5000
 20
-4.46498
 30
-3.20000e-15
  70
    32
  0
VERTEX
  8
0
  5
108C0
 10
14.5000
 20
-4.41011
 30
-3.20000e-15
  70
    32
  0
VERTEX
  8
0
  5
108C1
 10
14.5000
 20
-4.35517
 30
-3.20000e-15
  70
    32
  0
VERTEX
  8
0
  5
108C2
 10
14.5000
 20
-4.30015
 30
-3.20000e-15
  70
    32
  0
VERTEX
  8
0
  5
108C3
 10
14.5000
 20
-4.24505
 30
-3.20000e-15
  70
    32
  0
VERTEX
  8
0
  5
108C4
 10
14.5000
 20
-4.18988
 30
-3.20000e-15
  70
    32
  0
VERTEX
  8
0
  5
108C5
 10
14.5000
 20
-4.13464
 30
-3.20000e-15
  70
    32
  0
VERTEX
  8
0
  5
108C6
 10
14.5000
 20
-4.07932
 30
-3.20000e-15
  70
    32
  0
VERTEX
  8
0
  5
108C7
 10
14.5000
 20
-4.02394
 30
-3.20000e-15
  70
    32
  0
VERTEX
  8
0
  5
108C8
 10
14.5000
 20
-3.96848
 30
-3.20000e-15
  70
    32
  0
VERTEX
  8
0
  5
108C9
 10
14.5000
 20
-3.91296
 30
-3.20000e-15
  70
    32
  0
VERTEX
  8
0
  5
108CA
 10
14.5000
 20
-3.85737
 30
-3.20000e-15
  70
    32
  0
VERTEX
  8
0
  5
108CB
 10
14.5000
 20
-3.80171
 30
-3.20000e-15
  70
    32
  0
VERTEX
  8
0
  5
108CC
 10
14.5000
 20
-3.74599
 30
-3.20000e-15
  70
    32
  0
VERTEX
  8
0
  5
108CD
 10
14.5000
 20
-3.69020
 30
-3.20000e-15
  70
    32
  0
VERTEX
  8
0
  5
108CE
 10
14.5000
 20
-3.63435
 30
-3.20000e-15
  70
    32
  0
VERTEX
  8
0
  5
108CF
 10
14.5000
 20
-3.57843
 30
-3.20000e-15
  70
    32
  0
VERTEX
  8
0
  5
108D0
 10
14.5000
 20
-3.52246
 30
-3.20000e-15
  70
    32
  0
VERTEX
  8
0
  5
108D1
 10
14.5000
 20
-3.46642
 30
-3.20000e-15
  70
    32
  0
VERTEX
  8
0
  5
108D2
 10
14.5000
 20
-3.41032
 30
-3.20000e-15
  70
    32
  0
VERTEX
  8
0
  5
108D3
 10
14.5000
 20
-3.35416
 30
-3.20000e-15
  70
    32
  0
VERTEX
  8
0
  5
108D4
 10
14.5000
 20
-3.29795
 30
-3.20000e-15
  70
    32
  0
VERTEX
  8
0
  5
108D5
 10
14.5000
 20
-3.24168
 30
-3.20000e-15
  70
    32
  0
VERTEX
  8
0
  5
108D6
 10
14.5000
 20
-3.18535
 30
-3.20000e-15
  70
    32
  0
VERTEX
  8
0
  5
108D7
 10
14.5000
 20
-3.12896
 30
-3.20000e-15
  70
    32
  0
VERTEX
  8
0
  5
108D8
 10
14.5000
 20
-3.07252
 30
-3.20000e-15
  70
    32
  0
VERTEX
  8
0
  5
108D9
 10
14.5000
 20
-3.01603
 30
-3.20000e-15
  70
    32
  0
VERTEX
  8
0
  5
108DA
 10
14.5000
 20
-2.95949
 30
-3.20000e-15
  70
    32
  0
VERTEX
  8
0
  5
108DB
 10
14.5000
 20
-2.90289
 30
-3.20000e-15
  70
    32
  0
VERTEX
  8
0
  5
108DC
 10
14.5000
 20
-2.84625
 30
-3.20000e-15
  70
    32
  0
VERTEX
  8
0
  5
108DD
 10
14.5000
 20
-2.78955
 30
-3.20000e-15
  70
    32
  0
VERTEX
  8
0
  5
108DE
 10
14.5000
 20
-2.73281
 30
-3.20000e-15
  70
    32
  0
VERTEX
  8
0
  5
108DF
 10
14.5000
 20
-2.67601
 30
-3.20000e-15
  70
    32
  0
VERTEX
  8
0
  5
108E0
 10
14.5000
 20
-2.61918
 30
-3.20000e-15
  70
    32
  0
VERTEX
  8
0
  5
108E1
 10
14.5000
 20
-2.56229
 30
-3.20000e-15
  70
    32
  0
VERTEX
  8
0
  5
108E2
 10
14.5000
 20
-2.50536
 30
-3.20000e-15
  70
    32
  0
VERTEX
  8
0
  5
108E3
 10
14.5000
 20
-2.44839
 30
-3.20000e-15
  70
    32
  0
VERTEX
  8
0
  5
108E4
 10
14.5000
 20
-2.39138
 30
-3.20000e-15
  70
    32
  0
VERTEX
  8
0
  5
108E5
 10
14.5000
 20
-2.33432
 30
-3.20000e-15
  70
    32
  0
VERTEX
  8
0
  5
108E6
 10
14.5000
 20
-2.27722
 30
-3.20000e-15
  70
    32
  0
VERTEX
  8
0
  5
108E7
 10
14.5000
 20
-2.22008
 30
-3.20000e-15
  70
    32
  0
VERTEX
  8
0
  5
108E8
 10
14.5000
 20
-2.16290
 30
-3.20000e-15
  70
    32
  0
VERTEX
  8
0
  5
108E9
 10
14.5000
 20
-2.10569
 30
-3.20000e-15
  70
    32
  0
VERTEX
  8
0
  5
108EA
 10
14.5000
 20
-2.04844
 30
-3.20000e-15
  70
    32
  0
VERTEX
  8
0
  5
108EB
 10
14.5000
 20
-1.99115
 30
-3.20000e-15
  70
    32
  0
VERTEX
  8
0
  5
108EC
 10
14.5000
 20
-1.93383
 30
-3.20000e-15
  70
    32
  0
VERTEX
  8
0
  5
108ED
 10
14.5000
 20
-1.87647
 30
-3.20000e-15
  70
    32
  0
VERTEX
  8
0
  5
108EE
 10
14.5000
 20
-1.81908
 30
-3.20000e-15
  70
    32
  0
VERTEX
  8
0
  5
108EF
 10
14.5000
 20
-1.76165
 30
-3.20000e-15
  70
    32
  0
VERTEX
  8
0
  5
108F0
 10
14.5000
 20
-1.70420
 30
-3.20000e-15
  70
    32
  0
VERTEX
  8
0
  5
108F1
 10
14.5000
 20
-1.64671
 30
-3.20000e-15
  70
    32
  0
VERTEX
  8
0
  5
108F2
 10
14.5000
 20
-1.58920
 30
-3.20000e-15
  70
    32
  0
VERTEX
  8
0
  5
108F3
 10
14.5000
 20
-1.53166
 30
-3.20000e-15
  70
    32
  0
VERTEX
  8
0
  5
108F4
 10
14.5000
 20
-1.47409
 30
-3.20000e-15
  70
    32
  0
VERTEX
  8
0
  5
108F5
 10
14.5000
 20
-1.41649
 30
-3.20000e-15
  70
    32
  0
VERTEX
  8
0
  5
108F6
 10
14.5000
 20
-1.35887
 30
-3.20000e-15
  70
    32
  0
VERTEX
  8
0
  5
108F7
 10
14.5000
 20
-1.30122
 30
-3.20000e-15
  70
    32
  0
VERTEX
  8
0
  5
108F8
 10
14.5000
 20
-1.24355
 30
-3.20000e-15
  70
    32
  0
VERTEX
  8
0
  5
108F9
 10
14.5000
 20
-1.18586
 30
-3.20000e-15
  70
    32
  0
VERTEX
  8
0
  5
108FA
 10
14.5000
 20
-1.12814
 30
-3.20000e-15
  70
    32
  0
VERTEX
  8
0
  5
108FB
 10
14.5000
 20
-1.07041
 30
-3.20000e-15
  70
    32
  0
VERTEX
  8
0
  5
108FC
 10
14.5000
 20
-1.01266
 30
-3.20000e-15
  70
    32
  0
VERTEX
  8
0
  5
108FD
 10
14.5000
 20
-0.954887
 30
-3.20000e-15
  70
    32
  0
VERTEX
  8
0
  5
108FE
 10
14.5000
 20
-0.897102
 30
-3.20000e-15
  70
    32
  0
VERTEX
  8
0
  5
108FF
 10
14.5000
 20
-0.839301
 30
-3.20000e-15
  70
    32
  0
VERTEX
  8
0
  5
10900
 10
14.5000
 20
-0.781487
 30
-3.20000e-15
  70
    32
  0
VERTEX
  8
0
  5
10901
 10
14.5000
 20
-0.723660
 30
-3.20000e-15
  70
    32
  0
VERTEX
  8
0
  5
10902
 10
14.5000
 20
-0.665821
 30
-3.20000e-15
  70
    32
  0
VERTEX
  8
0
  5
10903
 10
14.5000
 20
-0.607971
 30
-3.20000e-15
  70
    32
  0
VERTEX
  8
0
  5
10904
 10
14.5000
 20
-0.550111
 30
-3.20000e-15
  70
    32
  0
VERTEX
  8
0
  5
10905
 10
14.5000
 20
-0.492242
 30
-3.20000e-15
  70
    32
  0
VERTEX
  8
0
  5
10906
 10
14.5000
 20
-0.434365
 30
-3.20000e-15
  70
    32
  0
VERTEX
  8
0
  5
10907
 10
14.5000
 20
-0.376481
 30
-3.20000e-15
  70
    32
  0
VERTEX
  8
0
  5
10908
 10
14.5000
 20
-0.318591
 30
-3.20000e-15
  70
    32
  0
VERTEX
  8
0
  5
10909
 10
14.5000
 20
-0.260696
 30
-3.20000e-15
  70
    32
  0
VERTEX
  8
0
  5
1090A
 10
14.5000
 20
-0.202797
 30
-3.20000e-15
  70
    32
  0
VERTEX
  8
0
  5
1090B
 10
14.5000
 20
-0.144895
 30
-3.20000e-15
  70
    32
  0
VERTEX
  8
0
  5
1090C
 10
14.5000
 20
-0.0869906
 30
-3.20000e-15
  70
    32
  0
VERTEX
  8
0
  5
1090D
 10
14.5000
 20
-0.0290852
 30
-3.20000e-15
  70
    32
  0
VERTEX
  8
0
  5
1090E
 10
14.5000
 20
0.0288203
 30
-3.20000e-15
  70
    32
  0
VERTEX
  8
0
  5
1090F
 10
14.5000
 20
0.0867249
 30
-3.20000e-15
  70
    32
  0
VERTEX
  8
0
  5
10910
 10
14.5000
 20
0.144628
 30
-3.20000e-15
  70
    32
  0
VERTEX
  8
0
  5
10911
 10
14.5000
 20
0.202528
 30
-3.20000e-15
  70
    32
  0
VERTEX
  8
0
  5
10912
 10
14.5000
 20
0.260424
 30
-3.20000e-15
  70
    32
  0
VERTEX
  8
0
  5
10913
 10
14.5000
 20
0.318315
 30
-3.20000e-15
  70
    32
  0
VERTEX
  8
0
  5
10914
 10
14.5000
 20
0.376200
 30
-3.20000e-15
  70
    32
  0
VERTEX
  8
0
  5
10915
 10
14.5000
 20
0.434079
 30
-3.20000e-15
  70
    32
  0
VERTEX
  8
0
  5
10916
 10
14.5000
 20
0.491950
 30
-3.20000e-15
  70
    32
  0
VERTEX
  8
0
  5
10917
 10
14.5000
 20
0.549812
 30
-3.20000e-15
  70
    32
  0
VERTEX
  8
0
  5
10918
 10
14.5000
 20
0.607665
 30
-3.20000e-15
  70
    32
  0
VERTEX
  8
0
  5
10919
 10
14.5000
 20
0.665506
 30
-3.20000e-15
  70
    32
  0
VERTEX
  8
0
  5
1091A
 10
14.5000
 20
0.723336
 30
-3.20000e-15
  70
    32
  0
VERTEX
  8
0
  5
1091B
 10
14.5000
 20
0.781154
 30
-3.20000e-15
  70
    32
  0
VERTEX
  8
0
  5
1091C
 10
14.5000
 20
0.838958
 30
-3.20000e-15
  70
    32
  0
VERTEX
  8
0
  5
1091D
 10
14.5000
 20
0.896747
 30
-3.20000e-15
  70
    32
  0
VERTEX
  8
0
  5
1091E
 10
14.5000
 20
0.954520
 30
-3.20000e-15
  70
    32
  0
VERTEX
  8
0
  5
1091F
 10
14.5000
 20
1.01228
 30
-3.20000e-15
  70
    32
  0
VERTEX
  8
0
  5
10920
 10
14.5000
 20
1.07002
 30
-3.20000e-15
  70
    32
  0
VERTEX
  8
0
  5
10921
 10
14.5000
 20
1.12774
 30
-3.20000e-15
  70
    32
  0
VERTEX
  8
0
  5
10922
 10
14.5000
 20
1.18544
 30
-3.20000e-15
  70
    32
  0
VERTEX
  8
0
  5
10923
 10
14.5000
 20
1.24312
 30
-3.20000e-15
  70
    32
  0
VERTEX
  8
0
  5
10924
 10
14.5000
 20
1.30078
 30
-3.20000e-15
  70
    32
  0
VERTEX
  8
0
  5
10925
 10
14.5000
 20
1.35841
 30
-3.20000e-15
  70
    32
  0
VERTEX
  8
0
  5
10926
 10
14.5000
 20
1.41603
 30
-3.20000e-15
  70
    32
  0
VERTEX
  8
0
  5
10927
 10
14.5000
 20
1.47361
 30
-3.20000e-15
  70
    32
  0
VERTEX
  8
0
  5
10928
 10
14.5000
 20
1.53118
 30
-3.20000e-15
  70
    32
  0
VERTEX
  8
0
  5
10929
 10
14.5000
 20
1.58871
 30
-3.20000e-15
  70
    32
  0
VERTEX
  8
0
  5
1092A
 10
14.5000
 20
1.64622
 30
-3.20000e-15
  70
    32
  0
VERTEX
  8
0
  5
1092B
 10
14.5000
 20
1.70370
 30
-3.20000e-15
  70
    32
  0
VERTEX
  8
0
  5
1092C
 10
14.5000
 20
1.76115
 30
-3.20000e-15
  70
    32
  0
VERTEX
  8
0
  5
1092D
 10
14.5000
 20
1.81857
 30
-3.20000e-15
  70
    32
  0
VERTEX
  8
0
  5
1092E
 10
14.5000
 20
1.87596
 30
-3.20000e-15
  70
    32
  0
VERTEX
  8
0
  5
1092F
 10
14.5000
 20
1.93332
 30
-3.20000e-15
  70
    32
  0
VERTEX
  8
0
  5
10930
 10
14.5000
 20
1.99064
 30
-3.20000e-15
  70
    32
  0
VERTEX
  8
0
  5
10931
 10
14.5000
 20
2.04793
 30
-3.20000e-15
  70
    32
  0
VERTEX
  8
0
  5
10932
 10
14.5000
 20
2.10519
 30
-3.20000e-15
  70
    32
  0
VERTEX
  8
0
  5
10933
 10
14.5000
 20
2.16240
 30
-3.20000e-15
  70
    32
  0
VERTEX
  8
0
  5
10934
 10
14.5000
 20
2.21958
 30
-3.20000e-15
  70
    32
  0
VERTEX
  8
0
  5
10935
 10
14.5000
 20
2.27673
 30
-3.20000e-15
  70
    32
  0
VERTEX
  8
0
  5
10936
 10
14.5000
 20
2.33383
 30
-3.20000e-15
  70
    32
  0
VERTEX
  8
0
  5
10937
 10
14.5000
 20
2.39089
 30
-3.20000e-15
  70
    32
  0
VERTEX
  8
0
  5
10938
 10
14.5000
 20
2.44791
 30
-3.20000e-15
  70
    32
  0
VERTEX
  8
0
  5
10939
 10
14.5000
 20
2.50489
 30
-3.20000e-15
  70
    32
  0
VERTEX
  8
0
  5
1093A
 10
14.5000
 20
2.56183
 30
-3.20000e-15
  70
    32
  0
VERTEX
  8
0
  5
1093B
 10
14.5000
 20
2.61872
 30
-3.20000e-15
  70
    32
  0
VERTEX
  8
0
  5
1093C
 10
14.5000
 20
2.67556
 30
-3.20000e-15
  70
    32
  0
VERTEX
  8
0
  5
1093D
 10
14.5000
 20
2.73236
 30
-3.20000e-15
  70
    32
  0
VERTEX
  8
0
  5
1093E
 10
14.5000
 20
2.78912
 30
-3.20000e-15
  70
    32
  0
VERTEX
  8
0
  5
1093F
 10
14.5000
 20
2.84582
 30
-3.20000e-15
  70
    32
  0
VERTEX
  8
0
  5
10940
 10
14.5000
 20
2.90248
 30
-3.20000e-15
  70
    32
  0
VERTEX
  8
0
  5
10941
 10
14.5000
 20
2.95908
 30
-3.20000e-15
  70
    32
  0
VERTEX
  8
0
  5
10942
 10
14.5000
 20
3.01564
 30
-3.20000e-15
  70
    32
  0
VERTEX
  8
0
  5
10943
 10
14.5000
 20
3.07214
 30
-3.20000e-15
  70
    32
  0
VERTEX
  8
0
  5
10944
 10
14.5000
 20
3.12859
 30
-3.20000e-15
  70
    32
  0
VERTEX
  8
0
  5
10945
 10
14.5000
 20
3.18498
 30
-3.20000e-15
  70
    32
  0
VERTEX
  8
0
  5
10946
 10
14.5000
 20
3.24132
 30
-3.20000e-15
  70
    32
  0
VERTEX
  8
0
  5
10947
 10
14.5000
 20
3.29761
 30
-3.20000e-15
  70
    32
  0
VERTEX
  8
0
  5
10948
 10
14.5000
 20
3.35384
 30
-3.20000e-15
  70
    32
  0
VERTEX
  8
0
  5
10949
 10
14.5000
 20
3.41000
 30
-3.20000e-15
  70
    32
  0
VERTEX
  8
0
  5
1094A
 10
14.5000
 20
3.46611
 30
-3.20000e-15
  70
    32
  0
VERTEX
  8
0
  5
1094B
 10
14.5000
 20
3.52216
 30
-3.20000e-15
  70
    32
  0
VERTEX
  8
0
  5
1094C
 10
14.5000
 20
3.57815
 30
-3.20000e-15
  70
    32
  0
VERTEX
  8
0
  5
1094D
 10
14.5000
 20
3.63408
 30
-3.20000e-15
  70
    32
  0
VERTEX
  8
0
  5
1094E
 10
14.5000
 20
3.68995
 30
-3.20000e-15
  70
    32
  0
VERTEX
  8
0
  5
1094F
 10
14.5000
 20
3.74575
 30
-3.20000e-15
  70
    32
  0
VERTEX
  8
0
  5
10950
 10
14.5000
 20
3.80148
 30
-3.20000e-15
  70
    32
  0
VERTEX
  8
0
  5
10951
 10
14.5000
 20
3.85715
 30
-3.20000e-15
  70
    32
  0
VERTEX
  8
0
  5
10952
 10
14.5000
 20
3.91275
 30
-3.20000e-15
  70
    32
  0
VERTEX
  8
0
  5
10953
 10
14.5000
 20
3.96829
 30
-3.20000e-15
  70
    32
  0
VERTEX
  8
0
  5
10954
 10
14.5000
 20
4.02376
 30
-3.20000e-15
  70
    32
  0
VERTEX
  8
0
  5
10955
 10
14.5000
 20
4.07915
 30
-3.20000e-15
  70
    32
  0
VERTEX
  8
0
  5
10956
 10
14.5000
 20
4.13448
 30
-3.20000e-15
  70
    32
  0
VERTEX
  8
0
  5
10957
 10
14.5000
 20
4.18973
 30
-3.20000e-15
  70
    32
  0
VERTEX
  8
0
  5
10958
 10
14.5000
 20
4.24491
 30
-3.20000e-15
  70
    32
  0
VERTEX
  8
0
  5
10959
 10
14.5000
 20
4.30002
 30
-3.20000e-15
  70
    32
  0
VERTEX
  8
0
  5
1095A
 10
14.5000
 20
4.35505
 30
-3.20000e-15
  70
    32
  0
VERTEX
  8
0
  5
1095B
 10
14.5000
 20
4.41001
 30
-3.20000e-15
  70
    32
  0
VERTEX
  8
0
  5
1095C
 10
14.5000
 20
4.46489
 30
-3.20000e-15
  70
    32
  0
VERTEX
  8
0
  5
1095D
 10
14.5000
 20
4.51969
 30
-3.20000e-15
  70
    32
  0
VERTEX
  8
0
  5
1095E
 10
14.5000
 20
4.57442
 30
-3.20000e-15
  70
    32
  0
VERTEX
  8
0
  5
1095F
 10
14.5000
 20
4.62906
 30
-3.20000e-15
  70
    32
  0
VERTEX
  8
0
  5
10960
 10
14.5000
 20
4.68362
 30
-3.20000e-15
  70
    32
  0
VERTEX
  8
0
  5
10961
 10
14.5000
 20
4.73811
 30
-3.20000e-15
  70
    32
  0
VERTEX
  8
0
  5
10962
 10
14.5000
 20
4.79251
 30
-3.20000e-15
  70
    32
  0
VERTEX
  8
0
  5
10963
 10
14.5000
 20
4.84682
 30
-3.20000e-15
  70
    32
  0
VERTEX
  8
0
  5
10964
 10
14.5000
 20
4.90105
 30
-3.20000e-15
  70
    32
  0
VERTEX
  8
0
  5
10965
 10
14.5000
 20
4.95520
 30
-3.20000e-15
  70
    32
  0
VERTEX
  8
0
  5
10966
 10
14.5000
 20
5.00926
 30
-3.20000e-15
  70
    32
  0
VERTEX
  8
0
  5
10967
 10
14.5000
 20
5.06323
 30
-3.20000e-15
  70
    32
  0
VERTEX
  8
0
  5
10968
 10
14.5000
 20
5.11711
 30
-3.20000e-15
  70
    32
  0
VERTEX
  8
0
  5
10969
 10
14.5000
 20
5.17091
 30
-3.20000e-15
  70
    32
  0
VERTEX
  8
0
  5
1096A
 10
14.5000
 20
5.22461
 30
-3.20000e-15
  70
    32
  0
VERTEX
  8
0
  5
1096B
 10
14.5000
 20
5.27822
 30
-3.20000e-15
  70
    32
  0
VERTEX
  8
0
  5
1096C
 10
14.5000
 20
5.33174
 30
-3.20000e-15
  70
    32
  0
VERTEX
  8
0
  5
1096D
 10
14.5000
 20
5.38516
 30
-3.20000e-15
  70
    32
  0
SEQEND
  8
0
  5
1096E
  0
LINE
  5
105E8
  8
0
  6
VERDECKT
 62
     1
 10
14.4999999999999893
 20
5.3851648071344247
 30
0.0
 11
14.4999999999999893
 21
12.4999999999999396
 31
0.0
  0
LINE
  5
105E9
  8
0
  6
VERDECKT
 62
     1
 10
-14.4999999999999805
 20
12.4999999999999396
 30
0.0
 11
-14.4999999999999805
 21
5.3851648071344167
 31
0.0
  0
POLYLINE
  8
0
  5
1096F
  62
1
  66
     1
 10
0.000000
 20
0.000000
 30
0.000000
  70
     8
  0
VERTEX
  8
0
  5
10970
 10
-14.5000
 20
5.38516
 30
3.20000e-15
  70
    32
  0
VERTEX
  8
0
  5
10971
 10
-14.5000
 20
5.33174
 30
3.20000e-15
  70
    32
  0
VERTEX
  8
0
  5
10972
 10
-14.5000
 20
5.27822
 30
3.20000e-15
  70
    32
  0
VERTEX
  8
0
  5
10973
 10
-14.5000
 20
5.22461
 30
3.20000e-15
  70
    32
  0
VERTEX
  8
0
  5
10974
 10
-14.5000
 20
5.17091
 30
3.20000e-15
  70
    32
  0
VERTEX
  8
0
  5
10975
 10
-14.5000
 20
5.11712
 30
3.20000e-15
  70
    32
  0
VERTEX
  8
0
  5
10976
 10
-14.5000
 20
5.06324
 30
3.20000e-15
  70
    32
  0
VERTEX
  8
0
  5
10977
 10
-14.5000
 20
5.00928
 30
3.20000e-15
  70
    32
  0
VERTEX
  8
0
  5
10978
 10
-14.5000
 20
4.95522
 30
3.20000e-15
  70
    32
  0
VERTEX
  8
0
  5
10979
 10
-14.5000
 20
4.90108
 30
3.20000e-15
  70
    32
  0
VERTEX
  8
0
  5
1097A
 10
-14.5000
 20
4.84686
 30
3.20000e-15
  70
    32
  0
VERTEX
  8
0
  5
1097B
 10
-14.5000
 20
4.79255
 30
3.20000e-15
  70
    32
  0
VERTEX
  8
0
  5
1097C
 10
-14.5000
 20
4.73816
 30
3.20000e-15
  70
    32
  0
VERTEX
  8
0
  5
1097D
 10
-14.5000
 20
4.68368
 30
3.20000e-15
  70
    32
  0
VERTEX
  8
0
  5
1097E
 10
-14.5000
 20
4.62913
 30
3.20000e-15
  70
    32
  0
VERTEX
  8
0
  5
1097F
 10
-14.5000
 20
4.57449
 30
3.20000e-15
  70
    32
  0
VERTEX
  8
0
  5
10980
 10
-14.5000
 20
4.51978
 30
3.20000e-15
  70
    32
  0
VERTEX
  8
0
  5
10981
 10
-14.5000
 20
4.46498
 30
3.20000e-15
  70
    32
  0
VERTEX
  8
0
  5
10982
 10
-14.5000
 20
4.41011
 30
3.20000e-15
  70
    32
  0
VERTEX
  8
0
  5
10983
 10
-14.5000
 20
4.35517
 30
3.20000e-15
  70
    32
  0
VERTEX
  8
0
  5
10984
 10
-14.5000
 20
4.30015
 30
3.20000e-15
  70
    32
  0
VERTEX
  8
0
  5
10985
 10
-14.5000
 20
4.24505
 30
3.20000e-15
  70
    32
  0
VERTEX
  8
0
  5
10986
 10
-14.5000
 20
4.18988
 30
3.20000e-15
  70
    32
  0
VERTEX
  8
0
  5
10987
 10
-14.5000
 20
4.13464
 30
3.20000e-15
  70
    32
  0
VERTEX
  8
0
  5
10988
 10
-14.5000
 20
4.07932
 30
3.20000e-15
  70
    32
  0
VERTEX
  8
0
  5
10989
 10
-14.5000
 20
4.02394
 30
3.20000e-15
  70
    32
  0
VERTEX
  8
0
  5
1098A
 10
-14.5000
 20
3.96848
 30
3.20000e-15
  70
    32
  0
VERTEX
  8
0
  5
1098B
 10
-14.5000
 20
3.91296
 30
3.20000e-15
  70
    32
  0
VERTEX
  8
0
  5
1098C
 10
-14.5000
 20
3.85737
 30
3.20000e-15
  70
    32
  0
VERTEX
  8
0
  5
1098D
 10
-14.5000
 20
3.80171
 30
3.20000e-15
  70
    32
  0
VERTEX
  8
0
  5
1098E
 10
-14.5000
 20
3.74599
 30
3.20000e-15
  70
    32
  0
VERTEX
  8
0
  5
1098F
 10
-14.5000
 20
3.69020
 30
3.20000e-15
  70
    32
  0
VERTEX
  8
0
  5
10990
 10
-14.5000
 20
3.63435
 30
3.20000e-15
  70
    32
  0
VERTEX
  8
0
  5
10991
 10
-14.5000
 20
3.57843
 30
3.20000e-15
  70
    32
  0
VERTEX
  8
0
  5
10992
 10
-14.5000
 20
3.52246
 30
3.20000e-15
  70
    32
  0
VERTEX
  8
0
  5
10993
 10
-14.5000
 20
3.46642
 30
3.20000e-15
  70
    32
  0
VERTEX
  8
0
  5
10994
 10
-14.5000
 20
3.41032
 30
3.20000e-15
  70
    32
  0
VERTEX
  8
0
  5
10995
 10
-14.5000
 20
3.35416
 30
3.20000e-15
  70
    32
  0
VERTEX
  8
0
  5
10996
 10
-14.5000
 20
3.29795
 30
3.20000e-15
  70
    32
  0
VERTEX
  8
0
  5
10997
 10
-14.5000
 20
3.24168
 30
3.20000e-15
  70
    32
  0
VERTEX
  8
0
  5
10998
 10
-14.5000
 20
3.18535
 30
3.20000e-15
  70
    32
  0
VERTEX
  8
0
  5
10999
 10
-14.5000
 20
3.12896
 30
3.20000e-15
  70
    32
  0
VERTEX
  8
0
  5
1099A
 10
-14.5000
 20
3.07252
 30
3.20000e-15
  70
    32
  0
VERTEX
  8
0
  5
1099B
 10
-14.5000
 20
3.01603
 30
3.20000e-15
  70
    32
  0
VERTEX
  8
0
  5
1099C
 10
-14.5000
 20
2.95949
 30
3.20000e-15
  70
    32
  0
VERTEX
  8
0
  5
1099D
 10
-14.5000
 20
2.90289
 30
3.20000e-15
  70
    32
  0
VERTEX
  8
0
  5
1099E
 10
-14.5000
 20
2.84625
 30
3.20000e-15
  70
    32
  0
VERTEX
  8
0
  5
1099F
 10
-14.5000
 20
2.78955
 30
3.20000e-15
  70
    32
  0
VERTEX
  8
0
  5
109A0
 10
-14.5000
 20
2.73281
 30
3.20000e-15
  70
    32
  0
VERTEX
  8
0
  5
109A1
 10
-14.5000
 20
2.67601
 30
3.20000e-15
  70
    32
  0
VERTEX
  8
0
  5
109A2
 10
-14.5000
 20
2.61918
 30
3.20000e-15
  70
    32
  0
VERTEX
  8
0
  5
109A3
 10
-14.5000
 20
2.56229
 30
3.20000e-15
  70
    32
  0
VERTEX
  8
0
  5
109A4
 10
-14.5000
 20
2.50536
 30
3.20000e-15
  70
    32
  0
VERTEX
  8
0
  5
109A5
 10
-14.5000
 20
2.44839
 30
3.20000e-15
  70
    32
  0
VERTEX
  8
0
  5
109A6
 10
-14.5000
 20
2.39138
 30
3.20000e-15
  70
    32
  0
VERTEX
  8
0
  5
109A7
 10
-14.5000
 20
2.33432
 30
3.20000e-15
  70
    32
  0
VERTEX
  8
0
  5
109A8
 10
-14.5000
 20
2.27722
 30
3.20000e-15
  70
    32
  0
VERTEX
  8
0
  5
109A9
 10
-14.5000
 20
2.22008
 30
3.20000e-15
  70
    32
  0
VERTEX
  8
0
  5
109AA
 10
-14.5000
 20
2.16290
 30
3.20000e-15
  70
    32
  0
VERTEX
  8
0
  5
109AB
 10
-14.5000
 20
2.10569
 30
3.20000e-15
  70
    32
  0
VERTEX
  8
0
  5
109AC
 10
-14.5000
 20
2.04844
 30
3.20000e-15
  70
    32
  0
VERTEX
  8
0
  5
109AD
 10
-14.5000
 20
1.99115
 30
3.20000e-15
  70
    32
  0
VERTEX
  8
0
  5
109AE
 10
-14.5000
 20
1.93383
 30
3.20000e-15
  70
    32
  0
VERTEX
  8
0
  5
109AF
 10
-14.5000
 20
1.87647
 30
3.20000e-15
  70
    32
  0
VERTEX
  8
0
  5
109B0
 10
-14.5000
 20
1.81908
 30
3.20000e-15
  70
    32
  0
VERTEX
  8
0
  5
109B1
 10
-14.5000
 20
1.76165
 30
3.20000e-15
  70
    32
  0
VERTEX
  8
0
  5
109B2
 10
-14.5000
 20
1.70420
 30
3.20000e-15
  70
    32
  0
VERTEX
  8
0
  5
109B3
 10
-14.5000
 20
1.64671
 30
3.20000e-15
  70
    32
  0
VERTEX
  8
0
  5
109B4
 10
-14.5000
 20
1.58920
 30
3.20000e-15
  70
    32
  0
VERTEX
  8
0
  5
109B5
 10
-14.5000
 20
1.53166
 30
3.20000e-15
  70
    32
  0
VERTEX
  8
0
  5
109B6
 10
-14.5000
 20
1.47409
 30
3.20000e-15
  70
    32
  0
VERTEX
  8
0
  5
109B7
 10
-14.5000
 20
1.41649
 30
3.20000e-15
  70
    32
  0
VERTEX
  8
0
  5
109B8
 10
-14.5000
 20
1.35887
 30
3.20000e-15
  70
    32
  0
VERTEX
  8
0
  5
109B9
 10
-14.5000
 20
1.30122
 30
3.20000e-15
  70
    32
  0
VERTEX
  8
0
  5
109BA
 10
-14.5000
 20
1.24355
 30
3.20000e-15
  70
    32
  0
VERTEX
  8
0
  5
109BB
 10
-14.5000
 20
1.18586
 30
3.20000e-15
  70
    32
  0
VERTEX
  8
0
  5
109BC
 10
-14.5000
 20
1.12814
 30
3.20000e-15
  70
    32
  0
VERTEX
  8
0
  5
109BD
 10
-14.5000
 20
1.07041
 30
3.20000e-15
  70
    32
  0
VERTEX
  8
0
  5
109BE
 10
-14.5000
 20
1.01266
 30
3.20000e-15
  70
    32
  0
VERTEX
  8
0
  5
109BF
 10
-14.5000
 20
0.954887
 30
3.20000e-15
  70
    32
  0
VERTEX
  8
0
  5
109C0
 10
-14.5000
 20
0.897102
 30
3.20000e-15
  70
    32
  0
VERTEX
  8
0
  5
109C1
 10
-14.5000
 20
0.839301
 30
3.20000e-15
  70
    32
  0
VERTEX
  8
0
  5
109C2
 10
-14.5000
 20
0.781487
 30
3.20000e-15
  70
    32
  0
VERTEX
  8
0
  5
109C3
 10
-14.5000
 20
0.723660
 30
3.20000e-15
  70
    32
  0
VERTEX
  8
0
  5
109C4
 10
-14.5000
 20
0.665821
 30
3.20000e-15
  70
    32
  0
VERTEX
  8
0
  5
109C5
 10
-14.5000
 20
0.607971
 30
3.20000e-15
  70
    32
  0
VERTEX
  8
0
  5
109C6
 10
-14.5000
 20
0.550111
 30
3.20000e-15
  70
    32
  0
VERTEX
  8
0
  5
109C7
 10
-14.5000
 20
0.492242
 30
3.20000e-15
  70
    32
  0
VERTEX
  8
0
  5
109C8
 10
-14.5000
 20
0.434365
 30
3.20000e-15
  70
    32
  0
VERTEX
  8
0
  5
109C9
 10
-14.5000
 20
0.376481
 30
3.20000e-15
  70
    32
  0
VERTEX
  8
0
  5
109CA
 10
-14.5000
 20
0.318591
 30
3.20000e-15
  70
    32
  0
VERTEX
  8
0
  5
109CB
 10
-14.5000
 20
0.260696
 30
3.20000e-15
  70
    32
  0
VERTEX
  8
0
  5
109CC
 10
-14.5000
 20
0.202797
 30
3.20000e-15
  70
    32
  0
VERTEX
  8
0
  5
109CD
 10
-14.5000
 20
0.144895
 30
3.20000e-15
  70
    32
  0
VERTEX
  8
0
  5
109CE
 10
-14.5000
 20
0.0869906
 30
3.20000e-15
  70
    32
  0
VERTEX
  8
0
  5
109CF
 10
-14.5000
 20
0.0290852
 30
3.20000e-15
  70
    32
  0
VERTEX
  8
0
  5
109D0
 10
-14.5000
 20
-0.0288203
 30
3.20000e-15
  70
    32
  0
VERTEX
  8
0
  5
109D1
 10
-14.5000
 20
-0.0867249
 30
3.20000e-15
  70
    32
  0
VERTEX
  8
0
  5
109D2
 10
-14.5000
 20
-0.144628
 30
3.20000e-15
  70
    32
  0
VERTEX
  8
0
  5
109D3
 10
-14.5000
 20
-0.202528
 30
3.20000e-15
  70
    32
  0
VERTEX
  8
0
  5
109D4
 10
-14.5000
 20
-0.260424
 30
3.20000e-15
  70
    32
  0
VERTEX
  8
0
  5
109D5
 10
-14.5000
 20
-0.318315
 30
3.20000e-15
  70
    32
  0
VERTEX
  8
0
  5
109D6
 10
-14.5000
 20
-0.376200
 30
3.20000e-15
  70
    32
  0
VERTEX
  8
0
  5
109D7
 10
-14.5000
 20
-0.434079
 30
3.20000e-15
  70
    32
  0
VERTEX
  8
0
  5
109D8
 10
-14.5000
 20
-0.491950
 30
3.20000e-15
  70
    32
  0
VERTEX
  8
0
  5
109D9
 10
-14.5000
 20
-0.549812
 30
3.20000e-15
  70
    32
  0
VERTEX
  8
0
  5
109DA
 10
-14.5000
 20
-0.607665
 30
3.20000e-15
  70
    32
  0
VERTEX
  8
0
  5
109DB
 10
-14.5000
 20
-0.665506
 30
3.20000e-15
  70
    32
  0
VERTEX
  8
0
  5
109DC
 10
-14.5000
 20
-0.723336
 30
3.20000e-15
  70
    32
  0
VERTEX
  8
0
  5
109DD
 10
-14.5000
 20
-0.781154
 30
3.20000e-15
  70
    32
  0
VERTEX
  8
0
  5
109DE
 10
-14.5000
 20
-0.838958
 30
3.20000e-15
  70
    32
  0
VERTEX
  8
0
  5
109DF
 10
-14.5000
 20
-0.896747
 30
3.20000e-15
  70
    32
  0
VERTEX
  8
0
  5
109E0
 10
-14.5000
 20
-0.954520
 30
3.20000e-15
  70
    32
  0
VERTEX
  8
0
  5
109E1
 10
-14.5000
 20
-1.01228
 30
3.20000e-15
  70
    32
  0
VERTEX
  8
0
  5
109E2
 10
-14.5000
 20
-1.07002
 30
3.20000e-15
  70
    32
  0
VERTEX
  8
0
  5
109E3
 10
-14.5000
 20
-1.12774
 30
3.20000e-15
  70
    32
  0
VERTEX
  8
0
  5
109E4
 10
-14.5000
 20
-1.18544
 30
3.20000e-15
  70
    32
  0
VERTEX
  8
0
  5
109E5
 10
-14.5000
 20
-1.24312
 30
3.20000e-15
  70
    32
  0
VERTEX
  8
0
  5
109E6
 10
-14.5000
 20
-1.30078
 30
3.20000e-15
  70
    32
  0
VERTEX
  8
0
  5
109E7
 10
-14.5000
 20
-1.35841
 30
3.20000e-15
  70
    32
  0
VERTEX
  8
0
  5
109E8
 10
-14.5000
 20
-1.41603
 30
3.20000e-15
  70
    32
  0
VERTEX
  8
0
  5
109E9
 10
-14.5000
 20
-1.47361
 30
3.20000e-15
  70
    32
  0
VERTEX
  8
0
  5
109EA
 10
-14.5000
 20
-1.53118
 30
3.20000e-15
  70
    32
  0
VERTEX
  8
0
  5
109EB
 10
-14.5000
 20
-1.58871
 30
3.20000e-15
  70
    32
  0
VERTEX
  8
0
  5
109EC
 10
-14.5000
 20
-1.64622
 30
3.20000e-15
  70
    32
  0
VERTEX
  8
0
  5
109ED
 10
-14.5000
 20
-1.70370
 30
3.20000e-15
  70
    32
  0
VERTEX
  8
0
  5
109EE
 10
-14.5000
 20
-1.76115
 30
3.20000e-15
  70
    32
  0
VERTEX
  8
0
  5
109EF
 10
-14.5000
 20
-1.81857
 30
3.20000e-15
  70
    32
  0
VERTEX
  8
0
  5
109F0
 10
-14.5000
 20
-1.87596
 30
3.20000e-15
  70
    32
  0
VERTEX
  8
0
  5
109F1
 10
-14.5000
 20
-1.93332
 30
3.20000e-15
  70
    32
  0
VERTEX
  8
0
  5
109F2
 10
-14.5000
 20
-1.99064
 30
3.20000e-15
  70
    32
  0
VERTEX
  8
0
  5
109F3
 10
-14.5000
 20
-2.04793
 30
3.20000e-15
  70
    32
  0
VERTEX
  8
0
  5
109F4
 10
-14.5000
 20
-2.10519
 30
3.20000e-15
  70
    32
  0
VERTEX
  8
0
  5
109F5
 10
-14.5000
 20
-2.16240
 30
3.20000e-15
  70
    32
  0
VERTEX
  8
0
  5
109F6
 10
-14.5000
 20
-2.21958
 30
3.20000e-15
  70
    32
  0
VERTEX
  8
0
  5
109F7
 10
-14.5000
 20
-2.27673
 30
3.20000e-15
  70
    32
  0
VERTEX
  8
0
  5
109F8
 10
-14.5000
 20
-2.33383
 30
3.20000e-15
  70
    32
  0
VERTEX
  8
0
  5
109F9
 10
-14.5000
 20
-2.39089
 30
3.20000e-15
  70
    32
  0
VERTEX
  8
0
  5
109FA
 10
-14.5000
 20
-2.44791
 30
3.20000e-15
  70
    32
  0
VERTEX
  8
0
  5
109FB
 10
-14.5000
 20
-2.50489
 30
3.20000e-15
  70
    32
  0
VERTEX
  8
0
  5
109FC
 10
-14.5000
 20
-2.56183
 30
3.20000e-15
  70
    32
  0
VERTEX
  8
0
  5
109FD
 10
-14.5000
 20
-2.61872
 30
3.20000e-15
  70
    32
  0
VERTEX
  8
0
  5
109FE
 10
-14.5000
 20
-2.67556
 30
3.20000e-15
  70
    32
  0
VERTEX
  8
0
  5
109FF
 10
-14.5000
 20
-2.73236
 30
3.20000e-15
  70
    32
  0
VERTEX
  8
0
  5
10A00
 10
-14.5000
 20
-2.78912
 30
3.20000e-15
  70
    32
  0
VERTEX
  8
0
  5
10A01
 10
-14.5000
 20
-2.84582
 30
3.20000e-15
  70
    32
  0
VERTEX
  8
0
  5
10A02
 10
-14.5000
 20
-2.90248
 30
3.20000e-15
  70
    32
  0
VERTEX
  8
0
  5
10A03
 10
-14.5000
 20
-2.95908
 30
3.20000e-15
  70
    32
  0
VERTEX
  8
0
  5
10A04
 10
-14.5000
 20
-3.01564
 30
3.20000e-15
  70
    32
  0
VERTEX
  8
0
  5
10A05
 10
-14.5000
 20
-3.07214
 30
3.20000e-15
  70
    32
  0
VERTEX
  8
0
  5
10A06
 10
-14.5000
 20
-3.12859
 30
3.20000e-15
  70
    32
  0
VERTEX
  8
0
  5
10A07
 10
-14.5000
 20
-3.18498
 30
3.20000e-15
  70
    32
  0
VERTEX
  8
0
  5
10A08
 10
-14.5000
 20
-3.24132
 30
3.20000e-15
  70
    32
  0
VERTEX
  8
0
  5
10A09
 10
-14.5000
 20
-3.29761
 30
3.20000e-15
  70
    32
  0
VERTEX
  8
0
  5
10A0A
 10
-14.5000
 20
-3.35384
 30
3.20000e-15
  70
    32
  0
VERTEX
  8
0
  5
10A0B
 10
-14.5000
 20
-3.41000
 30
3.20000e-15
  70
    32
  0
VERTEX
  8
0
  5
10A0C
 10
-14.5000
 20
-3.46611
 30
3.20000e-15
  70
    32
  0
VERTEX
  8
0
  5
10A0D
 10
-14.5000
 20
-3.52216
 30
3.20000e-15
  70
    32
  0
VERTEX
  8
0
  5
10A0E
 10
-14.5000
 20
-3.57815
 30
3.20000e-15
  70
    32
  0
VERTEX
  8
0
  5
10A0F
 10
-14.5000
 20
-3.63408
 30
3.20000e-15
  70
    32
  0
VERTEX
  8
0
  5
10A10
 10
-14.5000
 20
-3.68995
 30
3.20000e-15
  70
    32
  0
VERTEX
  8
0
  5
10A11
 10
-14.5000
 20
-3.74575
 30
3.20000e-15
  70
    32
  0
VERTEX
  8
0
  5
10A12
 10
-14.5000
 20
-3.80148
 30
3.20000e-15
  70
    32
  0
VERTEX
  8
0
  5
10A13
 10
-14.5000
 20
-3.85715
 30
3.20000e-15
  70
    32
  0
VERTEX
  8
0
  5
10A14
 10
-14.5000
 20
-3.91275
 30
3.20000e-15
  70
    32
  0
VERTEX
  8
0
  5
10A15
 10
-14.5000
 20
-3.96829
 30
3.20000e-15
  70
    32
  0
VERTEX
  8
0
  5
10A16
 10
-14.5000
 20
-4.02376
 30
3.20000e-15
  70
    32
  0
VERTEX
  8
0
  5
10A17
 10
-14.5000
 20
-4.07915
 30
3.20000e-15
  70
    32
  0
VERTEX
  8
0
  5
10A18
 10
-14.5000
 20
-4.13448
 30
3.20000e-15
  70
    32
  0
VERTEX
  8
0
  5
10A19
 10
-14.5000
 20
-4.18973
 30
3.20000e-15
  70
    32
  0
VERTEX
  8
0
  5
10A1A
 10
-14.5000
 20
-4.24491
 30
3.20000e-15
  70
    32
  0
VERTEX
  8
0
  5
10A1B
 10
-14.5000
 20
-4.30002
 30
3.20000e-15
  70
    32
  0
VERTEX
  8
0
  5
10A1C
 10
-14.5000
 20
-4.35505
 30
3.20000e-15
  70
    32
  0
VERTEX
  8
0
  5
10A1D
 10
-14.5000
 20
-4.41001
 30
3.20000e-15
  70
    32
  0
VERTEX
  8
0
  5
10A1E
 10
-14.5000
 20
-4.46489
 30
3.20000e-15
  70
    32
  0
VERTEX
  8
0
  5
10A1F
 10
-14.5000
 20
-4.51969
 30
3.20000e-15
  70
    32
  0
VERTEX
  8
0
  5
10A20
 10
-14.5000
 20
-4.57442
 30
3.20000e-15
  70
    32
  0
VERTEX
  8
0
  5
10A21
 10
-14.5000
 20
-4.62906
 30
3.20000e-15
  70
    32
  0
VERTEX
  8
0
  5
10A22
 10
-14.5000
 20
-4.68362
 30
3.20000e-15
  70
    32
  0
VERTEX
  8
0
  5
10A23
 10
-14.5000
 20
-4.73811
 30
3.20000e-15
  70
    32
  0
VERTEX
  8
0
  5
10A24
 10
-14.5000
 20
-4.79251
 30
3.20000e-15
  70
    32
  0
VERTEX
  8
0
  5
10A25
 10
-14.5000
 20
-4.84682
 30
3.20000e-15
  70
    32
  0
VERTEX
  8
0
  5
10A26
 10
-14.5000
 20
-4.90105
 30
3.20000e-15
  70
    32
  0
VERTEX
  8
0
  5
10A27
 10
-14.5000
 20
-4.95520
 30
3.20000e-15
  70
    32
  0
VERTEX
  8
0
  5
10A28
 10
-14.5000
 20
-5.00926
 30
3.20000e-15
  70
    32
  0
VERTEX
  8
0
  5
10A29
 10
-14.5000
 20
-5.06323
 30
3.20000e-15
  70
    32
  0
VERTEX
  8
0
  5
10A2A
 10
-14.5000
 20
-5.11711
 30
3.20000e-15
  70
    32
  0
VERTEX
  8
0
  5
10A2B
 10
-14.5000
 20
-5.17091
 30
3.20000e-15
  70
    32
  0
VERTEX
  8
0
  5
10A2C
 10
-14.5000
 20
-5.22461
 30
3.20000e-15
  70
    32
  0
VERTEX
  8
0
  5
10A2D
 10
-14.5000
 20
-5.27822
 30
3.20000e-15
  70
    32
  0
VERTEX
  8
0
  5
10A2E
 10
-14.5000
 20
-5.33174
 30
3.20000e-15
  70
    32
  0
VERTEX
  8
0
  5
10A2F
 10
-14.5000
 20
-5.38516
 30
3.20000e-15
  70
    32
  0
SEQEND
  8
0
  5
10A30
  0
LINE
  5
105EB
  8
0
  6
VERDECKT
 62
     1
 10
-14.4999999999999805
 20
-5.385164807134581
 30
0.0
 11
-14.4999999999999805
 21
-12.5000000000000604
 31
0.0
  0
LINE
  5
105EC
  8
0
  6
VERDECKT
 62
     1
 10
12.5000000000000195
 20
12.4999999999999503
 30
0.0
 11
12.5000000000000195
 21
5.3851648071344256
 31
0.0
  0
POLYLINE
  8
0
  5
10A31
  62
1
  66
     1
 10
0.000000
 20
0.000000
 30
0.000000
  70
     8
  0
VERTEX
  8
0
  5
10A32
 10
12.5000
 20
5.38516
 30
-2.80000e-15
  70
    32
  0
VERTEX
  8
0
  5
10A33
 10
12.5000
 20
5.34516
 30
-2.80000e-15
  70
    32
  0
VERTEX
  8
0
  5
10A34
 10
12.5000
 20
5.30510
 30
-2.80000e-15
  70
    32
  0
VERTEX
  8
0
  5
10A35
 10
12.5000
 20
5.26499
 30
-2.80000e-15
  70
    32
  0
VERTEX
  8
0
  5
10A36
 10
12.5000
 20
5.22483
 30
-2.80000e-15
  70
    32
  0
VERTEX
  8
0
  5
10A37
 10
12.5000
 20
5.18462
 30
-2.80000e-15
  70
    32
  0
VERTEX
  8
0
  5
10A38
 10
12.5000
 20
5.14436
 30
-2.80000e-15
  70
    32
  0
VERTEX
  8
0
  5
10A39
 10
12.5000
 20
5.10404
 30
-2.80000e-15
  70
    32
  0
VERTEX
  8
0
  5
10A3A
 10
12.5000
 20
5.06368
 30
-2.80000e-15
  70
    32
  0
VERTEX
  8
0
  5
10A3B
 10
12.5000
 20
5.02327
 30
-2.80000e-15
  70
    32
  0
VERTEX
  8
0
  5
10A3C
 10
12.5000
 20
4.98282
 30
-2.80000e-15
  70
    32
  0
VERTEX
  8
0
  5
10A3D
 10
12.5000
 20
4.94231
 30
-2.80000e-15
  70
    32
  0
VERTEX
  8
0
  5
10A3E
 10
12.5000
 20
4.90175
 30
-2.80000e-15
  70
    32
  0
VERTEX
  8
0
  5
10A3F
 10
12.5000
 20
4.86115
 30
-2.80000e-15
  70
    32
  0
VERTEX
  8
0
  5
10A40
 10
12.5000
 20
4.82050
 30
-2.80000e-15
  70
    32
  0
VERTEX
  8
0
  5
10A41
 10
12.5000
 20
4.77981
 30
-2.80000e-15
  70
    32
  0
VERTEX
  8
0
  5
10A42
 10
12.5000
 20
4.73907
 30
-2.80000e-15
  70
    32
  0
VERTEX
  8
0
  5
10A43
 10
12.5000
 20
4.69828
 30
-2.80000e-15
  70
    32
  0
VERTEX
  8
0
  5
10A44
 10
12.5000
 20
4.65744
 30
-2.80000e-15
  70
    32
  0
VERTEX
  8
0
  5
10A45
 10
12.5000
 20
4.61657
 30
-2.80000e-15
  70
    32
  0
VERTEX
  8
0
  5
10A46
 10
12.5000
 20
4.57564
 30
-2.80000e-15
  70
    32
  0
VERTEX
  8
0
  5
10A47
 10
12.5000
 20
4.53467
 30
-2.80000e-15
  70
    32
  0
VERTEX
  8
0
  5
10A48
 10
12.5000
 20
4.49366
 30
-2.80000e-15
  70
    32
  0
VERTEX
  8
0
  5
10A49
 10
12.5000
 20
4.45261
 30
-2.80000e-15
  70
    32
  0
VERTEX
  8
0
  5
10A4A
 10
12.5000
 20
4.41151
 30
-2.80000e-15
  70
    32
  0
VERTEX
  8
0
  5
10A4B
 10
12.5000
 20
4.37037
 30
-2.80000e-15
  70
    32
  0
VERTEX
  8
0
  5
10A4C
 10
12.5000
 20
4.32918
 30
-2.80000e-15
  70
    32
  0
VERTEX
  8
0
  5
10A4D
 10
12.5000
 20
4.28796
 30
-2.80000e-15
  70
    32
  0
VERTEX
  8
0
  5
10A4E
 10
12.5000
 20
4.24669
 30
-2.80000e-15
  70
    32
  0
VERTEX
  8
0
  5
10A4F
 10
12.5000
 20
4.20538
 30
-2.80000e-15
  70
    32
  0
VERTEX
  8
0
  5
10A50
 10
12.5000
 20
4.16403
 30
-2.80000e-15
  70
    32
  0
VERTEX
  8
0
  5
10A51
 10
12.5000
 20
4.12264
 30
-2.80000e-15
  70
    32
  0
VERTEX
  8
0
  5
10A52
 10
12.5000
 20
4.08121
 30
-2.80000e-15
  70
    32
  0
VERTEX
  8
0
  5
10A53
 10
12.5000
 20
4.03974
 30
-2.80000e-15
  70
    32
  0
VERTEX
  8
0
  5
10A54
 10
12.5000
 20
3.99823
 30
-2.80000e-15
  70
    32
  0
VERTEX
  8
0
  5
10A55
 10
12.5000
 20
3.95668
 30
-2.80000e-15
  70
    32
  0
VERTEX
  8
0
  5
10A56
 10
12.5000
 20
3.91509
 30
-2.80000e-15
  70
    32
  0
VERTEX
  8
0
  5
10A57
 10
12.5000
 20
3.87347
 30
-2.80000e-15
  70
    32
  0
VERTEX
  8
0
  5
10A58
 10
12.5000
 20
3.83181
 30
-2.80000e-15
  70
    32
  0
VERTEX
  8
0
  5
10A59
 10
12.5000
 20
3.79010
 30
-2.80000e-15
  70
    32
  0
VERTEX
  8
0
  5
10A5A
 10
12.5000
 20
3.74837
 30
-2.80000e-15
  70
    32
  0
VERTEX
  8
0
  5
10A5B
 10
12.5000
 20
3.70659
 30
-2.80000e-15
  70
    32
  0
VERTEX
  8
0
  5
10A5C
 10
12.5000
 20
3.66478
 30
-2.80000e-15
  70
    32
  0
VERTEX
  8
0
  5
10A5D
 10
12.5000
 20
3.62293
 30
-2.80000e-15
  70
    32
  0
VERTEX
  8
0
  5
10A5E
 10
12.5000
 20
3.58105
 30
-2.80000e-15
  70
    32
  0
VERTEX
  8
0
  5
10A5F
 10
12.5000
 20
3.53913
 30
-2.80000e-15
  70
    32
  0
VERTEX
  8
0
  5
10A60
 10
12.5000
 20
3.49718
 30
-2.80000e-15
  70
    32
  0
VERTEX
  8
0
  5
10A61
 10
12.5000
 20
3.45520
 30
-2.80000e-15
  70
    32
  0
VERTEX
  8
0
  5
10A62
 10
12.5000
 20
3.41318
 30
-2.80000e-15
  70
    32
  0
VERTEX
  8
0
  5
10A63
 10
12.5000
 20
3.37112
 30
-2.80000e-15
  70
    32
  0
VERTEX
  8
0
  5
10A64
 10
12.5000
 20
3.32903
 30
-2.80000e-15
  70
    32
  0
VERTEX
  8
0
  5
10A65
 10
12.5000
 20
3.28691
 30
-2.80000e-15
  70
    32
  0
VERTEX
  8
0
  5
10A66
 10
12.5000
 20
3.24476
 30
-2.80000e-15
  70
    32
  0
VERTEX
  8
0
  5
10A67
 10
12.5000
 20
3.20258
 30
-2.80000e-15
  70
    32
  0
VERTEX
  8
0
  5
10A68
 10
12.5000
 20
3.16036
 30
-2.80000e-15
  70
    32
  0
VERTEX
  8
0
  5
10A69
 10
12.5000
 20
3.11811
 30
-2.80000e-15
  70
    32
  0
VERTEX
  8
0
  5
10A6A
 10
12.5000
 20
3.07583
 30
-2.80000e-15
  70
    32
  0
VERTEX
  8
0
  5
10A6B
 10
12.5000
 20
3.03353
 30
-2.80000e-15
  70
    32
  0
VERTEX
  8
0
  5
10A6C
 10
12.5000
 20
2.99119
 30
-2.80000e-15
  70
    32
  0
VERTEX
  8
0
  5
10A6D
 10
12.5000
 20
2.94882
 30
-2.80000e-15
  70
    32
  0
VERTEX
  8
0
  5
10A6E
 10
12.5000
 20
2.90642
 30
-2.80000e-15
  70
    32
  0
VERTEX
  8
0
  5
10A6F
 10
12.5000
 20
2.86399
 30
-2.80000e-15
  70
    32
  0
VERTEX
  8
0
  5
10A70
 10
12.5000
 20
2.82154
 30
-2.80000e-15
  70
    32
  0
VERTEX
  8
0
  5
10A71
 10
12.5000
 20
2.77905
 30
-2.80000e-15
  70
    32
  0
VERTEX
  8
0
  5
10A72
 10
12.5000
 20
2.73654
 30
-2.80000e-15
  70
    32
  0
VERTEX
  8
0
  5
10A73
 10
12.5000
 20
2.69400
 30
-2.80000e-15
  70
    32
  0
VERTEX
  8
0
  5
10A74
 10
12.5000
 20
2.65144
 30
-2.80000e-15
  70
    32
  0
VERTEX
  8
0
  5
10A75
 10
12.5000
 20
2.60885
 30
-2.80000e-15
  70
    32
  0
VERTEX
  8
0
  5
10A76
 10
12.5000
 20
2.56623
 30
-2.80000e-15
  70
    32
  0
VERTEX
  8
0
  5
10A77
 10
12.5000
 20
2.52358
 30
-2.80000e-15
  70
    32
  0
VERTEX
  8
0
  5
10A78
 10
12.5000
 20
2.48092
 30
-2.80000e-15
  70
    32
  0
VERTEX
  8
0
  5
10A79
 10
12.5000
 20
2.43823
 30
-2.80000e-15
  70
    32
  0
VERTEX
  8
0
  5
10A7A
 10
12.5000
 20
2.39551
 30
-2.80000e-15
  70
    32
  0
VERTEX
  8
0
  5
10A7B
 10
12.5000
 20
2.35277
 30
-2.80000e-15
  70
    32
  0
VERTEX
  8
0
  5
10A7C
 10
12.5000
 20
2.31001
 30
-2.80000e-15
  70
    32
  0
VERTEX
  8
0
  5
10A7D
 10
12.5000
 20
2.26722
 30
-2.80000e-15
  70
    32
  0
VERTEX
  8
0
  5
10A7E
 10
12.5000
 20
2.22441
 30
-2.80000e-15
  70
    32
  0
VERTEX
  8
0
  5
10A7F
 10
12.5000
 20
2.18158
 30
-2.80000e-15
  70
    32
  0
VERTEX
  8
0
  5
10A80
 10
12.5000
 20
2.13873
 30
-2.80000e-15
  70
    32
  0
VERTEX
  8
0
  5
10A81
 10
12.5000
 20
2.09586
 30
-2.80000e-15
  70
    32
  0
VERTEX
  8
0
  5
10A82
 10
12.5000
 20
2.05296
 30
-2.80000e-15
  70
    32
  0
VERTEX
  8
0
  5
10A83
 10
12.5000
 20
2.01005
 30
-2.80000e-15
  70
    32
  0
VERTEX
  8
0
  5
10A84
 10
12.5000
 20
1.96712
 30
-2.80000e-15
  70
    32
  0
VERTEX
  8
0
  5
10A85
 10
12.5000
 20
1.92416
 30
-2.80000e-15
  70
    32
  0
VERTEX
  8
0
  5
10A86
 10
12.5000
 20
1.88119
 30
-2.80000e-15
  70
    32
  0
VERTEX
  8
0
  5
10A87
 10
12.5000
 20
1.83820
 30
-2.80000e-15
  70
    32
  0
VERTEX
  8
0
  5
10A88
 10
12.5000
 20
1.79519
 30
-2.80000e-15
  70
    32
  0
VERTEX
  8
0
  5
10A89
 10
12.5000
 20
1.75217
 30
-2.80000e-15
  70
    32
  0
VERTEX
  8
0
  5
10A8A
 10
12.5000
 20
1.70912
 30
-2.80000e-15
  70
    32
  0
VERTEX
  8
0
  5
10A8B
 10
12.5000
 20
1.66606
 30
-2.80000e-15
  70
    32
  0
VERTEX
  8
0
  5
10A8C
 10
12.5000
 20
1.62299
 30
-2.80000e-15
  70
    32
  0
VERTEX
  8
0
  5
10A8D
 10
12.5000
 20
1.57989
 30
-2.80000e-15
  70
    32
  0
VERTEX
  8
0
  5
10A8E
 10
12.5000
 20
1.53679
 30
-2.80000e-15
  70
    32
  0
VERTEX
  8
0
  5
10A8F
 10
12.5000
 20
1.49366
 30
-2.80000e-15
  70
    32
  0
VERTEX
  8
0
  5
10A90
 10
12.5000
 20
1.45052
 30
-2.80000e-15
  70
    32
  0
VERTEX
  8
0
  5
10A91
 10
12.5000
 20
1.40737
 30
-2.80000e-15
  70
    32
  0
VERTEX
  8
0
  5
10A92
 10
12.5000
 20
1.36421
 30
-2.80000e-15
  70
    32
  0
VERTEX
  8
0
  5
10A93
 10
12.5000
 20
1.32103
 30
-2.80000e-15
  70
    32
  0
VERTEX
  8
0
  5
10A94
 10
12.5000
 20
1.27784
 30
-2.80000e-15
  70
    32
  0
VERTEX
  8
0
  5
10A95
 10
12.5000
 20
1.23463
 30
-2.80000e-15
  70
    32
  0
VERTEX
  8
0
  5
10A96
 10
12.5000
 20
1.19141
 30
-2.80000e-15
  70
    32
  0
VERTEX
  8
0
  5
10A97
 10
12.5000
 20
1.14818
 30
-2.80000e-15
  70
    32
  0
VERTEX
  8
0
  5
10A98
 10
12.5000
 20
1.10494
 30
-2.80000e-15
  70
    32
  0
VERTEX
  8
0
  5
10A99
 10
12.5000
 20
1.06169
 30
-2.80000e-15
  70
    32
  0
VERTEX
  8
0
  5
10A9A
 10
12.5000
 20
1.01843
 30
-2.80000e-15
  70
    32
  0
VERTEX
  8
0
  5
10A9B
 10
12.5000
 20
0.975162
 30
-2.80000e-15
  70
    32
  0
VERTEX
  8
0
  5
10A9C
 10
12.5000
 20
0.931881
 30
-2.80000e-15
  70
    32
  0
VERTEX
  8
0
  5
10A9D
 10
12.5000
 20
0.888591
 30
-2.80000e-15
  70
    32
  0
VERTEX
  8
0
  5
10A9E
 10
12.5000
 20
0.845293
 30
-2.80000e-15
  70
    32
  0
VERTEX
  8
0
  5
10A9F
 10
12.5000
 20
0.801986
 30
-2.80000e-15
  70
    32
  0
VERTEX
  8
0
  5
10AA0
 10
12.5000
 20
0.758671
 30
-2.80000e-15
  70
    32
  0
VERTEX
  8
0
  5
10AA1
 10
12.5000
 20
0.715349
 30
-2.80000e-15
  70
    32
  0
VERTEX
  8
0
  5
10AA2
 10
12.5000
 20
0.672020
 30
-2.80000e-15
  70
    32
  0
VERTEX
  8
0
  5
10AA3
 10
12.5000
 20
0.628684
 30
-2.80000e-15
  70
    32
  0
VERTEX
  8
0
  5
10AA4
 10
12.5000
 20
0.585343
 30
-2.80000e-15
  70
    32
  0
VERTEX
  8
0
  5
10AA5
 10
12.5000
 20
0.541995
 30
-2.80000e-15
  70
    32
  0
VERTEX
  8
0
  5
10AA6
 10
12.5000
 20
0.498642
 30
-2.80000e-15
  70
    32
  0
VERTEX
  8
0
  5
10AA7
 10
12.5000
 20
0.455285
 30
-2.80000e-15
  70
    32
  0
VERTEX
  8
0
  5
10AA8
 10
12.5000
 20
0.411923
 30
-2.80000e-15
  70
    32
  0
VERTEX
  8
0
  5
10AA9
 10
12.5000
 20
0.368557
 30
-2.80000e-15
  70
    32
  0
VERTEX
  8
0
  5
10AAA
 10
12.5000
 20
0.325187
 30
-2.80000e-15
  70
    32
  0
VERTEX
  8
0
  5
10AAB
 10
12.5000
 20
0.281814
 30
-2.80000e-15
  70
    32
  0
VERTEX
  8
0
  5
10AAC
 10
12.5000
 20
0.238439
 30
-2.80000e-15
  70
    32
  0
VERTEX
  8
0
  5
10AAD
 10
12.5000
 20
0.195061
 30
-2.80000e-15
  70
    32
  0
VERTEX
  8
0
  5
10AAE
 10
12.5000
 20
0.151681
 30
-2.80000e-15
  70
    32
  0
VERTEX
  8
0
  5
10AAF
 10
12.5000
 20
0.108300
 30
-2.80000e-15
  70
    32
  0
VERTEX
  8
0
  5
10AB0
 10
12.5000
 20
0.0649179
 30
-2.80000e-15
  70
    32
  0
VERTEX
  8
0
  5
10AB1
 10
12.5000
 20
0.0215351
 30
-2.80000e-15
  70
    32
  0
VERTEX
  8
0
  5
10AB2
 10
12.5000
 20
-0.0218478
 30
-2.80000e-15
  70
    32
  0
VERTEX
  8
0
  5
10AB3
 10
12.5000
 20
-0.0652304
 30
-2.80000e-15
  70
    32
  0
VERTEX
  8
0
  5
10AB4
 10
12.5000
 20
-0.108612
 30
-2.80000e-15
  70
    32
  0
VERTEX
  8
0
  5
10AB5
 10
12.5000
 20
-0.151993
 30
-2.80000e-15
  70
    32
  0
VERTEX
  8
0
  5
10AB6
 10
12.5000
 20
-0.195372
 30
-2.80000e-15
  70
    32
  0
VERTEX
  8
0
  5
10AB7
 10
12.5000
 20
-0.238750
 30
-2.80000e-15
  70
    32
  0
VERTEX
  8
0
  5
10AB8
 10
12.5000
 20
-0.282125
 30
-2.80000e-15
  70
    32
  0
VERTEX
  8
0
  5
10AB9
 10
12.5000
 20
-0.325497
 30
-2.80000e-15
  70
    32
  0
VERTEX
  8
0
  5
10ABA
 10
12.5000
 20
-0.368865
 30
-2.80000e-15
  70
    32
  0
VERTEX
  8
0
  5
10ABB
 10
12.5000
 20
-0.412231
 30
-2.80000e-15
  70
    32
  0
VERTEX
  8
0
  5
10ABC
 10
12.5000
 20
-0.455592
 30
-2.80000e-15
  70
    32
  0
VERTEX
  8
0
  5
10ABD
 10
12.5000
 20
-0.498948
 30
-2.80000e-15
  70
    32
  0
VERTEX
  8
0
  5
10ABE
 10
12.5000
 20
-0.542300
 30
-2.80000e-15
  70
    32
  0
VERTEX
  8
0
  5
10ABF
 10
12.5000
 20
-0.585646
 30
-2.80000e-15
  70
    32
  0
VERTEX
  8
0
  5
10AC0
 10
12.5000
 20
-0.628986
 30
-2.80000e-15
  70
    32
  0
VERTEX
  8
0
  5
10AC1
 10
12.5000
 20
-0.672320
 30
-2.80000e-15
  70
    32
  0
VERTEX
  8
0
  5
10AC2
 10
12.5000
 20
-0.715648
 30
-2.80000e-15
  70
    32
  0
VERTEX
  8
0
  5
10AC3
 10
12.5000
 20
-0.758968
 30
-2.80000e-15
  70
    32
  0
VERTEX
  8
0
  5
10AC4
 10
12.5000
 20
-0.802281
 30
-2.80000e-15
  70
    32
  0
VERTEX
  8
0
  5
10AC5
 10
12.5000
 20
-0.845585
 30
-2.80000e-15
  70
    32
  0
VERTEX
  8
0
  5
10AC6
 10
12.5000
 20
-0.888882
 30
-2.80000e-15
  70
    32
  0
VERTEX
  8
0
  5
10AC7
 10
12.5000
 20
-0.932169
 30
-2.80000e-15
  70
    32
  0
VERTEX
  8
0
  5
10AC8
 10
12.5000
 20
-0.975448
 30
-2.80000e-15
  70
    32
  0
VERTEX
  8
0
  5
10AC9
 10
12.5000
 20
-1.01872
 30
-2.80000e-15
  70
    32
  0
VERTEX
  8
0
  5
10ACA
 10
12.5000
 20
-1.06198
 30
-2.80000e-15
  70
    32
  0
VERTEX
  8
0
  5
10ACB
 10
12.5000
 20
-1.10522
 30
-2.80000e-15
  70
    32
  0
VERTEX
  8
0
  5
10ACC
 10
12.5000
 20
-1.14846
 30
-2.80000e-15
  70
    32
  0
VERTEX
  8
0
  5
10ACD
 10
12.5000
 20
-1.19169
 30
-2.80000e-15
  70
    32
  0
VERTEX
  8
0
  5
10ACE
 10
12.5000
 20
-1.23490
 30
-2.80000e-15
  70
    32
  0
VERTEX
  8
0
  5
10ACF
 10
12.5000
 20
-1.27810
 30
-2.80000e-15
  70
    32
  0
VERTEX
  8
0
  5
10AD0
 10
12.5000
 20
-1.32129
 30
-2.80000e-15
  70
    32
  0
VERTEX
  8
0
  5
10AD1
 10
12.5000
 20
-1.36447
 30
-2.80000e-15
  70
    32
  0
VERTEX
  8
0
  5
10AD2
 10
12.5000
 20
-1.40763
 30
-2.80000e-15
  70
    32
  0
VERTEX
  8
0
  5
10AD3
 10
12.5000
 20
-1.45078
 30
-2.80000e-15
  70
    32
  0
VERTEX
  8
0
  5
10AD4
 10
12.5000
 20
-1.49391
 30
-2.80000e-15
  70
    32
  0
VERTEX
  8
0
  5
10AD5
 10
12.5000
 20
-1.53703
 30
-2.80000e-15
  70
    32
  0
VERTEX
  8
0
  5
10AD6
 10
12.5000
 20
-1.58014
 30
-2.80000e-15
  70
    32
  0
VERTEX
  8
0
  5
10AD7
 10
12.5000
 20
-1.62323
 30
-2.80000e-15
  70
    32
  0
VERTEX
  8
0
  5
10AD8
 10
12.5000
 20
-1.66630
 30
-2.80000e-15
  70
    32
  0
VERTEX
  8
0
  5
10AD9
 10
12.5000
 20
-1.70935
 30
-2.80000e-15
  70
    32
  0
VERTEX
  8
0
  5
10ADA
 10
12.5000
 20
-1.75239
 30
-2.80000e-15
  70
    32
  0
VERTEX
  8
0
  5
10ADB
 10
12.5000
 20
-1.79541
 30
-2.80000e-15
  70
    32
  0
VERTEX
  8
0
  5
10ADC
 10
12.5000
 20
-1.83841
 30
-2.80000e-15
  70
    32
  0
VERTEX
  8
0
  5
10ADD
 10
12.5000
 20
-1.88140
 30
-2.80000e-15
  70
    32
  0
VERTEX
  8
0
  5
10ADE
 10
12.5000
 20
-1.92436
 30
-2.80000e-15
  70
    32
  0
VERTEX
  8
0
  5
10ADF
 10
12.5000
 20
-1.96731
 30
-2.80000e-15
  70
    32
  0
VERTEX
  8
0
  5
10AE0
 10
12.5000
 20
-2.01023
 30
-2.80000e-15
  70
    32
  0
VERTEX
  8
0
  5
10AE1
 10
12.5000
 20
-2.05314
 30
-2.80000e-15
  70
    32
  0
VERTEX
  8
0
  5
10AE2
 10
12.5000
 20
-2.09602
 30
-2.80000e-15
  70
    32
  0
VERTEX
  8
0
  5
10AE3
 10
12.5000
 20
-2.13889
 30
-2.80000e-15
  70
    32
  0
VERTEX
  8
0
  5
10AE4
 10
12.5000
 20
-2.18173
 30
-2.80000e-15
  70
    32
  0
VERTEX
  8
0
  5
10AE5
 10
12.5000
 20
-2.22455
 30
-2.80000e-15
  70
    32
  0
VERTEX
  8
0
  5
10AE6
 10
12.5000
 20
-2.26735
 30
-2.80000e-15
  70
    32
  0
VERTEX
  8
0
  5
10AE7
 10
12.5000
 20
-2.31013
 30
-2.80000e-15
  70
    32
  0
VERTEX
  8
0
  5
10AE8
 10
12.5000
 20
-2.35288
 30
-2.80000e-15
  70
    32
  0
VERTEX
  8
0
  5
10AE9
 10
12.5000
 20
-2.39561
 30
-2.80000e-15
  70
    32
  0
VERTEX
  8
0
  5
10AEA
 10
12.5000
 20
-2.43832
 30
-2.80000e-15
  70
    32
  0
VERTEX
  8
0
  5
10AEB
 10
12.5000
 20
-2.48100
 30
-2.80000e-15
  70
    32
  0
VERTEX
  8
0
  5
10AEC
 10
12.5000
 20
-2.52366
 30
-2.80000e-15
  70
    32
  0
VERTEX
  8
0
  5
10AED
 10
12.5000
 20
-2.56629
 30
-2.80000e-15
  70
    32
  0
VERTEX
  8
0
  5
10AEE
 10
12.5000
 20
-2.60890
 30
-2.80000e-15
  70
    32
  0
VERTEX
  8
0
  5
10AEF
 10
12.5000
 20
-2.65148
 30
-2.80000e-15
  70
    32
  0
VERTEX
  8
0
  5
10AF0
 10
12.5000
 20
-2.69404
 30
-2.80000e-15
  70
    32
  0
VERTEX
  8
0
  5
10AF1
 10
12.5000
 20
-2.73657
 30
-2.80000e-15
  70
    32
  0
VERTEX
  8
0
  5
10AF2
 10
12.5000
 20
-2.77907
 30
-2.80000e-15
  70
    32
  0
VERTEX
  8
0
  5
10AF3
 10
12.5000
 20
-2.82154
 30
-2.80000e-15
  70
    32
  0
VERTEX
  8
0
  5
10AF4
 10
12.5000
 20
-2.86399
 30
-2.80000e-15
  70
    32
  0
VERTEX
  8
0
  5
10AF5
 10
12.5000
 20
-2.90641
 30
-2.80000e-15
  70
    32
  0
VERTEX
  8
0
  5
10AF6
 10
12.5000
 20
-2.94880
 30
-2.80000e-15
  70
    32
  0
VERTEX
  8
0
  5
10AF7
 10
12.5000
 20
-2.99116
 30
-2.80000e-15
  70
    32
  0
VERTEX
  8
0
  5
10AF8
 10
12.5000
 20
-3.03350
 30
-2.80000e-15
  70
    32
  0
VERTEX
  8
0
  5
10AF9
 10
12.5000
 20
-3.07580
 30
-2.80000e-15
  70
    32
  0
VERTEX
  8
0
  5
10AFA
 10
12.5000
 20
-3.11807
 30
-2.80000e-15
  70
    32
  0
VERTEX
  8
0
  5
10AFB
 10
12.5000
 20
-3.16032
 30
-2.80000e-15
  70
    32
  0
VERTEX
  8
0
  5
10AFC
 10
12.5000
 20
-3.20253
 30
-2.80000e-15
  70
    32
  0
VERTEX
  8
0
  5
10AFD
 10
12.5000
 20
-3.24471
 30
-2.80000e-15
  70
    32
  0
VERTEX
  8
0
  5
10AFE
 10
12.5000
 20
-3.28686
 30
-2.80000e-15
  70
    32
  0
VERTEX
  8
0
  5
10AFF
 10
12.5000
 20
-3.32898
 30
-2.80000e-15
  70
    32
  0
VERTEX
  8
0
  5
10B00
 10
12.5000
 20
-3.37106
 30
-2.80000e-15
  70
    32
  0
VERTEX
  8
0
  5
10B01
 10
12.5000
 20
-3.41311
 30
-2.80000e-15
  70
    32
  0
VERTEX
  8
0
  5
10B02
 10
12.5000
 20
-3.45513
 30
-2.80000e-15
  70
    32
  0
VERTEX
  8
0
  5
10B03
 10
12.5000
 20
-3.49712
 30
-2.80000e-15
  70
    32
  0
VERTEX
  8
0
  5
10B04
 10
12.5000
 20
-3.53907
 30
-2.80000e-15
  70
    32
  0
VERTEX
  8
0
  5
10B05
 10
12.5000
 20
-3.58098
 30
-2.80000e-15
  70
    32
  0
VERTEX
  8
0
  5
10B06
 10
12.5000
 20
-3.62286
 30
-2.80000e-15
  70
    32
  0
VERTEX
  8
0
  5
10B07
 10
12.5000
 20
-3.66471
 30
-2.80000e-15
  70
    32
  0
VERTEX
  8
0
  5
10B08
 10
12.5000
 20
-3.70652
 30
-2.80000e-15
  70
    32
  0
VERTEX
  8
0
  5
10B09
 10
12.5000
 20
-3.74830
 30
-2.80000e-15
  70
    32
  0
VERTEX
  8
0
  5
10B0A
 10
12.5000
 20
-3.79003
 30
-2.80000e-15
  70
    32
  0
VERTEX
  8
0
  5
10B0B
 10
12.5000
 20
-3.83174
 30
-2.80000e-15
  70
    32
  0
VERTEX
  8
0
  5
10B0C
 10
12.5000
 20
-3.87340
 30
-2.80000e-15
  70
    32
  0
VERTEX
  8
0
  5
10B0D
 10
12.5000
 20
-3.91503
 30
-2.80000e-15
  70
    32
  0
VERTEX
  8
0
  5
10B0E
 10
12.5000
 20
-3.95661
 30
-2.80000e-15
  70
    32
  0
VERTEX
  8
0
  5
10B0F
 10
12.5000
 20
-3.99816
 30
-2.80000e-15
  70
    32
  0
VERTEX
  8
0
  5
10B10
 10
12.5000
 20
-4.03968
 30
-2.80000e-15
  70
    32
  0
VERTEX
  8
0
  5
10B11
 10
12.5000
 20
-4.08115
 30
-2.80000e-15
  70
    32
  0
VERTEX
  8
0
  5
10B12
 10
12.5000
 20
-4.12258
 30
-2.80000e-15
  70
    32
  0
VERTEX
  8
0
  5
10B13
 10
12.5000
 20
-4.16397
 30
-2.80000e-15
  70
    32
  0
VERTEX
  8
0
  5
10B14
 10
12.5000
 20
-4.20532
 30
-2.80000e-15
  70
    32
  0
VERTEX
  8
0
  5
10B15
 10
12.5000
 20
-4.24664
 30
-2.80000e-15
  70
    32
  0
VERTEX
  8
0
  5
10B16
 10
12.5000
 20
-4.28791
 30
-2.80000e-15
  70
    32
  0
VERTEX
  8
0
  5
10B17
 10
12.5000
 20
-4.32913
 30
-2.80000e-15
  70
    32
  0
VERTEX
  8
0
  5
10B18
 10
12.5000
 20
-4.37032
 30
-2.80000e-15
  70
    32
  0
VERTEX
  8
0
  5
10B19
 10
12.5000
 20
-4.41146
 30
-2.80000e-15
  70
    32
  0
VERTEX
  8
0
  5
10B1A
 10
12.5000
 20
-4.45257
 30
-2.80000e-15
  70
    32
  0
VERTEX
  8
0
  5
10B1B
 10
12.5000
 20
-4.49362
 30
-2.80000e-15
  70
    32
  0
VERTEX
  8
0
  5
10B1C
 10
12.5000
 20
-4.53464
 30
-2.80000e-15
  70
    32
  0
VERTEX
  8
0
  5
10B1D
 10
12.5000
 20
-4.57561
 30
-2.80000e-15
  70
    32
  0
VERTEX
  8
0
  5
10B1E
 10
12.5000
 20
-4.61653
 30
-2.80000e-15
  70
    32
  0
VERTEX
  8
0
  5
10B1F
 10
12.5000
 20
-4.65742
 30
-2.80000e-15
  70
    32
  0
VERTEX
  8
0
  5
10B20
 10
12.5000
 20
-4.69825
 30
-2.80000e-15
  70
    32
  0
VERTEX
  8
0
  5
10B21
 10
12.5000
 20
-4.73904
 30
-2.80000e-15
  70
    32
  0
VERTEX
  8
0
  5
10B22
 10
12.5000
 20
-4.77979
 30
-2.80000e-15
  70
    32
  0
VERTEX
  8
0
  5
10B23
 10
12.5000
 20
-4.82048
 30
-2.80000e-15
  70
    32
  0
VERTEX
  8
0
  5
10B24
 10
12.5000
 20
-4.86114
 30
-2.80000e-15
  70
    32
  0
VERTEX
  8
0
  5
10B25
 10
12.5000
 20
-4.90174
 30
-2.80000e-15
  70
    32
  0
VERTEX
  8
0
  5
10B26
 10
12.5000
 20
-4.94230
 30
-2.80000e-15
  70
    32
  0
VERTEX
  8
0
  5
10B27
 10
12.5000
 20
-4.98280
 30
-2.80000e-15
  70
    32
  0
VERTEX
  8
0
  5
10B28
 10
12.5000
 20
-5.02327
 30
-2.80000e-15
  70
    32
  0
VERTEX
  8
0
  5
10B29
 10
12.5000
 20
-5.06368
 30
-2.80000e-15
  70
    32
  0
VERTEX
  8
0
  5
10B2A
 10
12.5000
 20
-5.10404
 30
-2.80000e-15
  70
    32
  0
VERTEX
  8
0
  5
10B2B
 10
12.5000
 20
-5.14435
 30
-2.80000e-15
  70
    32
  0
VERTEX
  8
0
  5
10B2C
 10
12.5000
 20
-5.18461
 30
-2.80000e-15
  70
    32
  0
VERTEX
  8
0
  5
10B2D
 10
12.5000
 20
-5.22483
 30
-2.80000e-15
  70
    32
  0
VERTEX
  8
0
  5
10B2E
 10
12.5000
 20
-5.26499
 30
-2.80000e-15
  70
    32
  0
VERTEX
  8
0
  5
10B2F
 10
12.5000
 20
-5.30510
 30
-2.80000e-15
  70
    32
  0
VERTEX
  8
0
  5
10B30
 10
12.5000
 20
-5.34516
 30
-2.80000e-15
  70
    32
  0
VERTEX
  8
0
  5
10B31
 10
12.5000
 20
-5.38516
 30
-2.80000e-15
  70
    32
  0
SEQEND
  8
0
  5
10B32
  0
LINE
  5
105EE
  8
0
  6
VERDECKT
 62
     1
 10
12.5000000000000195
 20
-5.385164807134454
 30
0.0
 11
12.5000000000000195
 21
-12.5000000000000497
 31
0.0
  0
LINE
  5
105EF
  8
0
  6
VERDECKT
 62
     1
 10
-12.4999999999999805
 20
-12.5000000000000497
 30
0.0
 11
-12.4999999999999805
 21
-5.3851648071345881
 31
0.0
  0
POLYLINE
  8
0
  5
10B33
  62
1
  66
     1
 10
0.000000
 20
0.000000
 30
0.000000
  70
     8
  0
VERTEX
  8
0
  5
10B34
 10
-12.5000
 20
-5.38516
 30
2.80000e-15
  70
    32
  0
VERTEX
  8
0
  5
10B35
 10
-12.5000
 20
-5.34516
 30
2.80000e-15
  70
    32
  0
VERTEX
  8
0
  5
10B36
 10
-12.5000
 20
-5.30510
 30
2.80000e-15
  70
    32
  0
VERTEX
  8
0
  5
10B37
 10
-12.5000
 20
-5.26499
 30
2.80000e-15
  70
    32
  0
VERTEX
  8
0
  5
10B38
 10
-12.5000
 20
-5.22483
 30
2.80000e-15
  70
    32
  0
VERTEX
  8
0
  5
10B39
 10
-12.5000
 20
-5.18462
 30
2.80000e-15
  70
    32
  0
VERTEX
  8
0
  5
10B3A
 10
-12.5000
 20
-5.14436
 30
2.80000e-15
  70
    32
  0
VERTEX
  8
0
  5
10B3B
 10
-12.5000
 20
-5.10404
 30
2.80000e-15
  70
    32
  0
VERTEX
  8
0
  5
10B3C
 10
-12.5000
 20
-5.06368
 30
2.80000e-15
  70
    32
  0
VERTEX
  8
0
  5
10B3D
 10
-12.5000
 20
-5.02327
 30
2.80000e-15
  70
    32
  0
VERTEX
  8
0
  5
10B3E
 10
-12.5000
 20
-4.98282
 30
2.80000e-15
  70
    32
  0
VERTEX
  8
0
  5
10B3F
 10
-12.5000
 20
-4.94231
 30
2.80000e-15
  70
    32
  0
VERTEX
  8
0
  5
10B40
 10
-12.5000
 20
-4.90175
 30
2.80000e-15
  70
    32
  0
VERTEX
  8
0
  5
10B41
 10
-12.5000
 20
-4.86115
 30
2.80000e-15
  70
    32
  0
VERTEX
  8
0
  5
10B42
 10
-12.5000
 20
-4.82050
 30
2.80000e-15
  70
    32
  0
VERTEX
  8
0
  5
10B43
 10
-12.5000
 20
-4.77981
 30
2.80000e-15
  70
    32
  0
VERTEX
  8
0
  5
10B44
 10
-12.5000
 20
-4.73907
 30
2.80000e-15
  70
    32
  0
VERTEX
  8
0
  5
10B45
 10
-12.5000
 20
-4.69828
 30
2.80000e-15
  70
    32
  0
VERTEX
  8
0
  5
10B46
 10
-12.5000
 20
-4.65744
 30
2.80000e-15
  70
    32
  0
VERTEX
  8
0
  5
10B47
 10
-12.5000
 20
-4.61657
 30
2.80000e-15
  70
    32
  0
VERTEX
  8
0
  5
10B48
 10
-12.5000
 20
-4.57564
 30
2.80000e-15
  70
    32
  0
VERTEX
  8
0
  5
10B49
 10
-12.5000
 20
-4.53467
 30
2.80000e-15
  70
    32
  0
VERTEX
  8
0
  5
10B4A
 10
-12.5000
 20
-4.49366
 30
2.80000e-15
  70
    32
  0
VERTEX
  8
0
  5
10B4B
 10
-12.5000
 20
-4.45261
 30
2.80000e-15
  70
    32
  0
VERTEX
  8
0
  5
10B4C
 10
-12.5000
 20
-4.41151
 30
2.80000e-15
  70
    32
  0
VERTEX
  8
0
  5
10B4D
 10
-12.5000
 20
-4.37037
 30
2.80000e-15
  70
    32
  0
VERTEX
  8
0
  5
10B4E
 10
-12.5000
 20
-4.32918
 30
2.80000e-15
  70
    32
  0
VERTEX
  8
0
  5
10B4F
 10
-12.5000
 20
-4.28796
 30
2.80000e-15
  70
    32
  0
VERTEX
  8
0
  5
10B50
 10
-12.5000
 20
-4.24669
 30
2.80000e-15
  70
    32
  0
VERTEX
  8
0
  5
10B51
 10
-12.5000
 20
-4.20538
 30
2.80000e-15
  70
    32
  0
VERTEX
  8
0
  5
10B52
 10
-12.5000
 20
-4.16403
 30
2.80000e-15
  70
    32
  0
VERTEX
  8
0
  5
10B53
 10
-12.5000
 20
-4.12264
 30
2.80000e-15
  70
    32
  0
VERTEX
  8
0
  5
10B54
 10
-12.5000
 20
-4.08121
 30
2.80000e-15
  70
    32
  0
VERTEX
  8
0
  5
10B55
 10
-12.5000
 20
-4.03974
 30
2.80000e-15
  70
    32
  0
VERTEX
  8
0
  5
10B56
 10
-12.5000
 20
-3.99823
 30
2.80000e-15
  70
    32
  0
VERTEX
  8
0
  5
10B57
 10
-12.5000
 20
-3.95668
 30
2.80000e-15
  70
    32
  0
VERTEX
  8
0
  5
10B58
 10
-12.5000
 20
-3.91509
 30
2.80000e-15
  70
    32
  0
VERTEX
  8
0
  5
10B59
 10
-12.5000
 20
-3.87347
 30
2.80000e-15
  70
    32
  0
VERTEX
  8
0
  5
10B5A
 10
-12.5000
 20
-3.83181
 30
2.80000e-15
  70
    32
  0
VERTEX
  8
0
  5
10B5B
 10
-12.5000
 20
-3.79010
 30
2.80000e-15
  70
    32
  0
VERTEX
  8
0
  5
10B5C
 10
-12.5000
 20
-3.74837
 30
2.80000e-15
  70
    32
  0
VERTEX
  8
0
  5
10B5D
 10
-12.5000
 20
-3.70659
 30
2.80000e-15
  70
    32
  0
VERTEX
  8
0
  5
10B5E
 10
-12.5000
 20
-3.66478
 30
2.80000e-15
  70
    32
  0
VERTEX
  8
0
  5
10B5F
 10
-12.5000
 20
-3.62293
 30
2.80000e-15
  70
    32
  0
VERTEX
  8
0
  5
10B60
 10
-12.5000
 20
-3.58105
 30
2.80000e-15
  70
    32
  0
VERTEX
  8
0
  5
10B61
 10
-12.5000
 20
-3.53913
 30
2.80000e-15
  70
    32
  0
VERTEX
  8
0
  5
10B62
 10
-12.5000
 20
-3.49718
 30
2.80000e-15
  70
    32
  0
VERTEX
  8
0
  5
10B63
 10
-12.5000
 20
-3.45520
 30
2.80000e-15
  70
    32
  0
VERTEX
  8
0
  5
10B64
 10
-12.5000
 20
-3.41318
 30
2.80000e-15
  70
    32
  0
VERTEX
  8
0
  5
10B65
 10
-12.5000
 20
-3.37112
 30
2.80000e-15
  70
    32
  0
VERTEX
  8
0
  5
10B66
 10
-12.5000
 20
-3.32903
 30
2.80000e-15
  70
    32
  0
VERTEX
  8
0
  5
10B67
 10
-12.5000
 20
-3.28691
 30
2.80000e-15
  70
    32
  0
VERTEX
  8
0
  5
10B68
 10
-12.5000
 20
-3.24476
 30
2.80000e-15
  70
    32
  0
VERTEX
  8
0
  5
10B69
 10
-12.5000
 20
-3.20258
 30
2.80000e-15
  70
    32
  0
VERTEX
  8
0
  5
10B6A
 10
-12.5000
 20
-3.16036
 30
2.80000e-15
  70
    32
  0
VERTEX
  8
0
  5
10B6B
 10
-12.5000
 20
-3.11811
 30
2.80000e-15
  70
    32
  0
VERTEX
  8
0
  5
10B6C
 10
-12.5000
 20
-3.07583
 30
2.80000e-15
  70
    32
  0
VERTEX
  8
0
  5
10B6D
 10
-12.5000
 20
-3.03353
 30
2.80000e-15
  70
    32
  0
VERTEX
  8
0
  5
10B6E
 10
-12.5000
 20
-2.99119
 30
2.80000e-15
  70
    32
  0
VERTEX
  8
0
  5
10B6F
 10
-12.5000
 20
-2.94882
 30
2.80000e-15
  70
    32
  0
VERTEX
  8
0
  5
10B70
 10
-12.5000
 20
-2.90642
 30
2.80000e-15
  70
    32
  0
VERTEX
  8
0
  5
10B71
 10
-12.5000
 20
-2.86399
 30
2.80000e-15
  70
    32
  0
VERTEX
  8
0
  5
10B72
 10
-12.5000
 20
-2.82154
 30
2.80000e-15
  70
    32
  0
VERTEX
  8
0
  5
10B73
 10
-12.5000
 20
-2.77905
 30
2.80000e-15
  70
    32
  0
VERTEX
  8
0
  5
10B74
 10
-12.5000
 20
-2.73654
 30
2.80000e-15
  70
    32
  0
VERTEX
  8
0
  5
10B75
 10
-12.5000
 20
-2.69400
 30
2.80000e-15
  70
    32
  0
VERTEX
  8
0
  5
10B76
 10
-12.5000
 20
-2.65144
 30
2.80000e-15
  70
    32
  0
VERTEX
  8
0
  5
10B77
 10
-12.5000
 20
-2.60885
 30
2.80000e-15
  70
    32
  0
VERTEX
  8
0
  5
10B78
 10
-12.5000
 20
-2.56623
 30
2.80000e-15
  70
    32
  0
VERTEX
  8
0
  5
10B79
 10
-12.5000
 20
-2.52358
 30
2.80000e-15
  70
    32
  0
VERTEX
  8
0
  5
10B7A
 10
-12.5000
 20
-2.48092
 30
2.80000e-15
  70
    32
  0
VERTEX
  8
0
  5
10B7B
 10
-12.5000
 20
-2.43823
 30
2.80000e-15
  70
    32
  0
VERTEX
  8
0
  5
10B7C
 10
-12.5000
 20
-2.39551
 30
2.80000e-15
  70
    32
  0
VERTEX
  8
0
  5
10B7D
 10
-12.5000
 20
-2.35277
 30
2.80000e-15
  70
    32
  0
VERTEX
  8
0
  5
10B7E
 10
-12.5000
 20
-2.31001
 30
2.80000e-15
  70
    32
  0
VERTEX
  8
0
  5
10B7F
 10
-12.5000
 20
-2.26722
 30
2.80000e-15
  70
    32
  0
VERTEX
  8
0
  5
10B80
 10
-12.5000
 20
-2.22441
 30
2.80000e-15
  70
    32
  0
VERTEX
  8
0
  5
10B81
 10
-12.5000
 20
-2.18158
 30
2.80000e-15
  70
    32
  0
VERTEX
  8
0
  5
10B82
 10
-12.5000
 20
-2.13873
 30
2.80000e-15
  70
    32
  0
VERTEX
  8
0
  5
10B83
 10
-12.5000
 20
-2.09586
 30
2.80000e-15
  70
    32
  0
VERTEX
  8
0
  5
10B84
 10
-12.5000
 20
-2.05296
 30
2.80000e-15
  70
    32
  0
VERTEX
  8
0
  5
10B85
 10
-12.5000
 20
-2.01005
 30
2.80000e-15
  70
    32
  0
VERTEX
  8
0
  5
10B86
 10
-12.5000
 20
-1.96712
 30
2.80000e-15
  70
    32
  0
VERTEX
  8
0
  5
10B87
 10
-12.5000
 20
-1.92416
 30
2.80000e-15
  70
    32
  0
VERTEX
  8
0
  5
10B88
 10
-12.5000
 20
-1.88119
 30
2.80000e-15
  70
    32
  0
VERTEX
  8
0
  5
10B89
 10
-12.5000
 20
-1.83820
 30
2.80000e-15
  70
    32
  0
VERTEX
  8
0
  5
10B8A
 10
-12.5000
 20
-1.79519
 30
2.80000e-15
  70
    32
  0
VERTEX
  8
0
  5
10B8B
 10
-12.5000
 20
-1.75217
 30
2.80000e-15
  70
    32
  0
VERTEX
  8
0
  5
10B8C
 10
-12.5000
 20
-1.70912
 30
2.80000e-15
  70
    32
  0
VERTEX
  8
0
  5
10B8D
 10
-12.5000
 20
-1.66606
 30
2.80000e-15
  70
    32
  0
VERTEX
  8
0
  5
10B8E
 10
-12.5000
 20
-1.62299
 30
2.80000e-15
  70
    32
  0
VERTEX
  8
0
  5
10B8F
 10
-12.5000
 20
-1.57989
 30
2.80000e-15
  70
    32
  0
VERTEX
  8
0
  5
10B90
 10
-12.5000
 20
-1.53679
 30
2.80000e-15
  70
    32
  0
VERTEX
  8
0
  5
10B91
 10
-12.5000
 20
-1.49366
 30
2.80000e-15
  70
    32
  0
VERTEX
  8
0
  5
10B92
 10
-12.5000
 20
-1.45052
 30
2.80000e-15
  70
    32
  0
VERTEX
  8
0
  5
10B93
 10
-12.5000
 20
-1.40737
 30
2.80000e-15
  70
    32
  0
VERTEX
  8
0
  5
10B94
 10
-12.5000
 20
-1.36421
 30
2.80000e-15
  70
    32
  0
VERTEX
  8
0
  5
10B95
 10
-12.5000
 20
-1.32103
 30
2.80000e-15
  70
    32
  0
VERTEX
  8
0
  5
10B96
 10
-12.5000
 20
-1.27784
 30
2.80000e-15
  70
    32
  0
VERTEX
  8
0
  5
10B97
 10
-12.5000
 20
-1.23463
 30
2.80000e-15
  70
    32
  0
VERTEX
  8
0
  5
10B98
 10
-12.5000
 20
-1.19141
 30
2.80000e-15
  70
    32
  0
VERTEX
  8
0
  5
10B99
 10
-12.5000
 20
-1.14818
 30
2.80000e-15
  70
    32
  0
VERTEX
  8
0
  5
10B9A
 10
-12.5000
 20
-1.10494
 30
2.80000e-15
  70
    32
  0
VERTEX
  8
0
  5
10B9B
 10
-12.5000
 20
-1.06169
 30
2.80000e-15
  70
    32
  0
VERTEX
  8
0
  5
10B9C
 10
-12.5000
 20
-1.01843
 30
2.80000e-15
  70
    32
  0
VERTEX
  8
0
  5
10B9D
 10
-12.5000
 20
-0.975162
 30
2.80000e-15
  70
    32
  0
VERTEX
  8
0
  5
10B9E
 10
-12.5000
 20
-0.931881
 30
2.80000e-15
  70
    32
  0
VERTEX
  8
0
  5
10B9F
 10
-12.5000
 20
-0.888591
 30
2.80000e-15
  70
    32
  0
VERTEX
  8
0
  5
10BA0
 10
-12.5000
 20
-0.845293
 30
2.80000e-15
  70
    32
  0
VERTEX
  8
0
  5
10BA1
 10
-12.5000
 20
-0.801986
 30
2.80000e-15
  70
    32
  0
VERTEX
  8
0
  5
10BA2
 10
-12.5000
 20
-0.758671
 30
2.80000e-15
  70
    32
  0
VERTEX
  8
0
  5
10BA3
 10
-12.5000
 20
-0.715349
 30
2.80000e-15
  70
    32
  0
VERTEX
  8
0
  5
10BA4
 10
-12.5000
 20
-0.672020
 30
2.80000e-15
  70
    32
  0
VERTEX
  8
0
  5
10BA5
 10
-12.5000
 20
-0.628684
 30
2.80000e-15
  70
    32
  0
VERTEX
  8
0
  5
10BA6
 10
-12.5000
 20
-0.585343
 30
2.80000e-15
  70
    32
  0
VERTEX
  8
0
  5
10BA7
 10
-12.5000
 20
-0.541995
 30
2.80000e-15
  70
    32
  0
VERTEX
  8
0
  5
10BA8
 10
-12.5000
 20
-0.498642
 30
2.80000e-15
  70
    32
  0
VERTEX
  8
0
  5
10BA9
 10
-12.5000
 20
-0.455285
 30
2.80000e-15
  70
    32
  0
VERTEX
  8
0
  5
10BAA
 10
-12.5000
 20
-0.411923
 30
2.80000e-15
  70
    32
  0
VERTEX
  8
0
  5
10BAB
 10
-12.5000
 20
-0.368557
 30
2.80000e-15
  70
    32
  0
VERTEX
  8
0
  5
10BAC
 10
-12.5000
 20
-0.325187
 30
2.80000e-15
  70
    32
  0
VERTEX
  8
0
  5
10BAD
 10
-12.5000
 20
-0.281814
 30
2.80000e-15
  70
    32
  0
VERTEX
  8
0
  5
10BAE
 10
-12.5000
 20
-0.238439
 30
2.80000e-15
  70
    32
  0
VERTEX
  8
0
  5
10BAF
 10
-12.5000
 20
-0.195061
 30
2.80000e-15
  70
    32
  0
VERTEX
  8
0
  5
10BB0
 10
-12.5000
 20
-0.151681
 30
2.80000e-15
  70
    32
  0
VERTEX
  8
0
  5
10BB1
 10
-12.5000
 20
-0.108300
 30
2.80000e-15
  70
    32
  0
VERTEX
  8
0
  5
10BB2
 10
-12.5000
 20
-0.0649179
 30
2.80000e-15
  70
    32
  0
VERTEX
  8
0
  5
10BB3
 10
-12.5000
 20
-0.0215351
 30
2.80000e-15
  70
    32
  0
VERTEX
  8
0
  5
10BB4
 10
-12.5000
 20
0.0218478
 30
2.80000e-15
  70
    32
  0
VERTEX
  8
0
  5
10BB5
 10
-12.5000
 20
0.0652304
 30
2.80000e-15
  70
    32
  0
VERTEX
  8
0
  5
10BB6
 10
-12.5000
 20
0.108612
 30
2.80000e-15
  70
    32
  0
VERTEX
  8
0
  5
10BB7
 10
-12.5000
 20
0.151993
 30
2.80000e-15
  70
    32
  0
VERTEX
  8
0
  5
10BB8
 10
-12.5000
 20
0.195372
 30
2.80000e-15
  70
    32
  0
VERTEX
  8
0
  5
10BB9
 10
-12.5000
 20
0.238750
 30
2.80000e-15
  70
    32
  0
VERTEX
  8
0
  5
10BBA
 10
-12.5000
 20
0.282125
 30
2.80000e-15
  70
    32
  0
VERTEX
  8
0
  5
10BBB
 10
-12.5000
 20
0.325497
 30
2.80000e-15
  70
    32
  0
VERTEX
  8
0
  5
10BBC
 10
-12.5000
 20
0.368865
 30
2.80000e-15
  70
    32
  0
VERTEX
  8
0
  5
10BBD
 10
-12.5000
 20
0.412231
 30
2.80000e-15
  70
    32
  0
VERTEX
  8
0
  5
10BBE
 10
-12.5000
 20
0.455592
 30
2.80000e-15
  70
    32
  0
VERTEX
  8
0
  5
10BBF
 10
-12.5000
 20
0.498948
 30
2.80000e-15
  70
    32
  0
VERTEX
  8
0
  5
10BC0
 10
-12.5000
 20
0.542300
 30
2.80000e-15
  70
    32
  0
VERTEX
  8
0
  5
10BC1
 10
-12.5000
 20
0.585646
 30
2.80000e-15
  70
    32
  0
VERTEX
  8
0
  5
10BC2
 10
-12.5000
 20
0.628986
 30
2.80000e-15
  70
    32
  0
VERTEX
  8
0
  5
10BC3
 10
-12.5000
 20
0.672320
 30
2.80000e-15
  70
    32
  0
VERTEX
  8
0
  5
10BC4
 10
-12.5000
 20
0.715648
 30
2.80000e-15
  70
    32
  0
VERTEX
  8
0
  5
10BC5
 10
-12.5000
 20
0.758968
 30
2.80000e-15
  70
    32
  0
VERTEX
  8
0
  5
10BC6
 10
-12.5000
 20
0.802281
 30
2.80000e-15
  70
    32
  0
VERTEX
  8
0
  5
10BC7
 10
-12.5000
 20
0.845585
 30
2.80000e-15
  70
    32
  0
VERTEX
  8
0
  5
10BC8
 10
-12.5000
 20
0.888882
 30
2.80000e-15
  70
    32
  0
VERTEX
  8
0
  5
10BC9
 10
-12.5000
 20
0.932169
 30
2.80000e-15
  70
    32
  0
VERTEX
  8
0
  5
10BCA
 10
-12.5000
 20
0.975448
 30
2.80000e-15
  70
    32
  0
VERTEX
  8
0
  5
10BCB
 10
-12.5000
 20
1.01872
 30
2.80000e-15
  70
    32
  0
VERTEX
  8
0
  5
10BCC
 10
-12.5000
 20
1.06198
 30
2.80000e-15
  70
    32
  0
VERTEX
  8
0
  5
10BCD
 10
-12.5000
 20
1.10522
 30
2.80000e-15
  70
    32
  0
VERTEX
  8
0
  5
10BCE
 10
-12.5000
 20
1.14846
 30
2.80000e-15
  70
    32
  0
VERTEX
  8
0
  5
10BCF
 10
-12.5000
 20
1.19169
 30
2.80000e-15
  70
    32
  0
VERTEX
  8
0
  5
10BD0
 10
-12.5000
 20
1.23490
 30
2.80000e-15
  70
    32
  0
VERTEX
  8
0
  5
10BD1
 10
-12.5000
 20
1.27810
 30
2.80000e-15
  70
    32
  0
VERTEX
  8
0
  5
10BD2
 10
-12.5000
 20
1.32129
 30
2.80000e-15
  70
    32
  0
VERTEX
  8
0
  5
10BD3
 10
-12.5000
 20
1.36447
 30
2.80000e-15
  70
    32
  0
VERTEX
  8
0
  5
10BD4
 10
-12.5000
 20
1.40763
 30
2.80000e-15
  70
    32
  0
VERTEX
  8
0
  5
10BD5
 10
-12.5000
 20
1.45078
 30
2.80000e-15
  70
    32
  0
VERTEX
  8
0
  5
10BD6
 10
-12.5000
 20
1.49391
 30
2.80000e-15
  70
    32
  0
VERTEX
  8
0
  5
10BD7
 10
-12.5000
 20
1.53703
 30
2.80000e-15
  70
    32
  0
VERTEX
  8
0
  5
10BD8
 10
-12.5000
 20
1.58014
 30
2.80000e-15
  70
    32
  0
VERTEX
  8
0
  5
10BD9
 10
-12.5000
 20
1.62323
 30
2.80000e-15
  70
    32
  0
VERTEX
  8
0
  5
10BDA
 10
-12.5000
 20
1.66630
 30
2.80000e-15
  70
    32
  0
VERTEX
  8
0
  5
10BDB
 10
-12.5000
 20
1.70935
 30
2.80000e-15
  70
    32
  0
VERTEX
  8
0
  5
10BDC
 10
-12.5000
 20
1.75239
 30
2.80000e-15
  70
    32
  0
VERTEX
  8
0
  5
10BDD
 10
-12.5000
 20
1.79541
 30
2.80000e-15
  70
    32
  0
VERTEX
  8
0
  5
10BDE
 10
-12.5000
 20
1.83841
 30
2.80000e-15
  70
    32
  0
VERTEX
  8
0
  5
10BDF
 10
-12.5000
 20
1.88140
 30
2.80000e-15
  70
    32
  0
VERTEX
  8
0
  5
10BE0
 10
-12.5000
 20
1.92436
 30
2.80000e-15
  70
    32
  0
VERTEX
  8
0
  5
10BE1
 10
-12.5000
 20
1.96731
 30
2.80000e-15
  70
    32
  0
VERTEX
  8
0
  5
10BE2
 10
-12.5000
 20
2.01023
 30
2.80000e-15
  70
    32
  0
VERTEX
  8
0
  5
10BE3
 10
-12.5000
 20
2.05314
 30
2.80000e-15
  70
    32
  0
VERTEX
  8
0
  5
10BE4
 10
-12.5000
 20
2.09602
 30
2.80000e-15
  70
    32
  0
VERTEX
  8
0
  5
10BE5
 10
-12.5000
 20
2.13889
 30
2.80000e-15
  70
    32
  0
VERTEX
  8
0
  5
10BE6
 10
-12.5000
 20
2.18173
 30
2.80000e-15
  70
    32
  0
VERTEX
  8
0
  5
10BE7
 10
-12.5000
 20
2.22455
 30
2.80000e-15
  70
    32
  0
VERTEX
  8
0
  5
10BE8
 10
-12.5000
 20
2.26735
 30
2.80000e-15
  70
    32
  0
VERTEX
  8
0
  5
10BE9
 10
-12.5000
 20
2.31013
 30
2.80000e-15
  70
    32
  0
VERTEX
  8
0
  5
10BEA
 10
-12.5000
 20
2.35288
 30
2.80000e-15
  70
    32
  0
VERTEX
  8
0
  5
10BEB
 10
-12.5000
 20
2.39561
 30
2.80000e-15
  70
    32
  0
VERTEX
  8
0
  5
10BEC
 10
-12.5000
 20
2.43832
 30
2.80000e-15
  70
    32
  0
VERTEX
  8
0
  5
10BED
 10
-12.5000
 20
2.48100
 30
2.80000e-15
  70
    32
  0
VERTEX
  8
0
  5
10BEE
 10
-12.5000
 20
2.52366
 30
2.80000e-15
  70
    32
  0
VERTEX
  8
0
  5
10BEF
 10
-12.5000
 20
2.56629
 30
2.80000e-15
  70
    32
  0
VERTEX
  8
0
  5
10BF0
 10
-12.5000
 20
2.60890
 30
2.80000e-15
  70
    32
  0
VERTEX
  8
0
  5
10BF1
 10
-12.5000
 20
2.65148
 30
2.80000e-15
  70
    32
  0
VERTEX
  8
0
  5
10BF2
 10
-12.5000
 20
2.69404
 30
2.80000e-15
  70
    32
  0
VERTEX
  8
0
  5
10BF3
 10
-12.5000
 20
2.73657
 30
2.80000e-15
  70
    32
  0
VERTEX
  8
0
  5
10BF4
 10
-12.5000
 20
2.77907
 30
2.80000e-15
  70
    32
  0
VERTEX
  8
0
  5
10BF5
 10
-12.5000
 20
2.82154
 30
2.80000e-15
  70
    32
  0
VERTEX
  8
0
  5
10BF6
 10
-12.5000
 20
2.86399
 30
2.80000e-15
  70
    32
  0
VERTEX
  8
0
  5
10BF7
 10
-12.5000
 20
2.90641
 30
2.80000e-15
  70
    32
  0
VERTEX
  8
0
  5
10BF8
 10
-12.5000
 20
2.94880
 30
2.80000e-15
  70
    32
  0
VERTEX
  8
0
  5
10BF9
 10
-12.5000
 20
2.99116
 30
2.80000e-15
  70
    32
  0
VERTEX
  8
0
  5
10BFA
 10
-12.5000
 20
3.03350
 30
2.80000e-15
  70
    32
  0
VERTEX
  8
0
  5
10BFB
 10
-12.5000
 20
3.07580
 30
2.80000e-15
  70
    32
  0
VERTEX
  8
0
  5
10BFC
 10
-12.5000
 20
3.11807
 30
2.80000e-15
  70
    32
  0
VERTEX
  8
0
  5
10BFD
 10
-12.5000
 20
3.16032
 30
2.80000e-15
  70
    32
  0
VERTEX
  8
0
  5
10BFE
 10
-12.5000
 20
3.20253
 30
2.80000e-15
  70
    32
  0
VERTEX
  8
0
  5
10BFF
 10
-12.5000
 20
3.24471
 30
2.80000e-15
  70
    32
  0
VERTEX
  8
0
  5
10C00
 10
-12.5000
 20
3.28686
 30
2.80000e-15
  70
    32
  0
VERTEX
  8
0
  5
10C01
 10
-12.5000
 20
3.32898
 30
2.80000e-15
  70
    32
  0
VERTEX
  8
0
  5
10C02
 10
-12.5000
 20
3.37106
 30
2.80000e-15
  70
    32
  0
VERTEX
  8
0
  5
10C03
 10
-12.5000
 20
3.41311
 30
2.80000e-15
  70
    32
  0
VERTEX
  8
0
  5
10C04
 10
-12.5000
 20
3.45513
 30
2.80000e-15
  70
    32
  0
VERTEX
  8
0
  5
10C05
 10
-12.5000
 20
3.49712
 30
2.80000e-15
  70
    32
  0
VERTEX
  8
0
  5
10C06
 10
-12.5000
 20
3.53907
 30
2.80000e-15
  70
    32
  0
VERTEX
  8
0
  5
10C07
 10
-12.5000
 20
3.58098
 30
2.80000e-15
  70
    32
  0
VERTEX
  8
0
  5
10C08
 10
-12.5000
 20
3.62286
 30
2.80000e-15
  70
    32
  0
VERTEX
  8
0
  5
10C09
 10
-12.5000
 20
3.66471
 30
2.80000e-15
  70
    32
  0
VERTEX
  8
0
  5
10C0A
 10
-12.5000
 20
3.70652
 30
2.80000e-15
  70
    32
  0
VERTEX
  8
0
  5
10C0B
 10
-12.5000
 20
3.74830
 30
2.80000e-15
  70
    32
  0
VERTEX
  8
0
  5
10C0C
 10
-12.5000
 20
3.79003
 30
2.80000e-15
  70
    32
  0
VERTEX
  8
0
  5
10C0D
 10
-12.5000
 20
3.83174
 30
2.80000e-15
  70
    32
  0
VERTEX
  8
0
  5
10C0E
 10
-12.5000
 20
3.87340
 30
2.80000e-15
  70
    32
  0
VERTEX
  8
0
  5
10C0F
 10
-12.5000
 20
3.91503
 30
2.80000e-15
  70
    32
  0
VERTEX
  8
0
  5
10C10
 10
-12.5000
 20
3.95661
 30
2.80000e-15
  70
    32
  0
VERTEX
  8
0
  5
10C11
 10
-12.5000
 20
3.99816
 30
2.80000e-15
  70
    32
  0
VERTEX
  8
0
  5
10C12
 10
-12.5000
 20
4.03968
 30
2.80000e-15
  70
    32
  0
VERTEX
  8
0
  5
10C13
 10
-12.5000
 20
4.08115
 30
2.80000e-15
  70
    32
  0
VERTEX
  8
0
  5
10C14
 10
-12.5000
 20
4.12258
 30
2.80000e-15
  70
    32
  0
VERTEX
  8
0
  5
10C15
 10
-12.5000
 20
4.16397
 30
2.80000e-15
  70
    32
  0
VERTEX
  8
0
  5
10C16
 10
-12.5000
 20
4.20532
 30
2.80000e-15
  70
    32
  0
VERTEX
  8
0
  5
10C17
 10
-12.5000
 20
4.24664
 30
2.80000e-15
  70
    32
  0
VERTEX
  8
0
  5
10C18
 10
-12.5000
 20
4.28791
 30
2.80000e-15
  70
    32
  0
VERTEX
  8
0
  5
10C19
 10
-12.5000
 20
4.32913
 30
2.80000e-15
  70
    32
  0
VERTEX
  8
0
  5
10C1A
 10
-12.5000
 20
4.37032
 30
2.80000e-15
  70
    32
  0
VERTEX
  8
0
  5
10C1B
 10
-12.5000
 20
4.41146
 30
2.80000e-15
  70
    32
  0
VERTEX
  8
0
  5
10C1C
 10
-12.5000
 20
4.45257
 30
2.80000e-15
  70
    32
  0
VERTEX
  8
0
  5
10C1D
 10
-12.5000
 20
4.49362
 30
2.80000e-15
  70
    32
  0
VERTEX
  8
0
  5
10C1E
 10
-12.5000
 20
4.53464
 30
2.80000e-15
  70
    32
  0
VERTEX
  8
0
  5
10C1F
 10
-12.5000
 20
4.57561
 30
2.80000e-15
  70
    32
  0
VERTEX
  8
0
  5
10C20
 10
-12.5000
 20
4.61653
 30
2.80000e-15
  70
    32
  0
VERTEX
  8
0
  5
10C21
 10
-12.5000
 20
4.65742
 30
2.80000e-15
  70
    32
  0
VERTEX
  8
0
  5
10C22
 10
-12.5000
 20
4.69825
 30
2.80000e-15
  70
    32
  0
VERTEX
  8
0
  5
10C23
 10
-12.5000
 20
4.73904
 30
2.80000e-15
  70
    32
  0
VERTEX
  8
0
  5
10C24
 10
-12.5000
 20
4.77979
 30
2.80000e-15
  70
    32
  0
VERTEX
  8
0
  5
10C25
 10
-12.5000
 20
4.82048
 30
2.80000e-15
  70
    32
  0
VERTEX
  8
0
  5
10C26
 10
-12.5000
 20
4.86114
 30
2.80000e-15
  70
    32
  0
VERTEX
  8
0
  5
10C27
 10
-12.5000
 20
4.90174
 30
2.80000e-15
  70
    32
  0
VERTEX
  8
0
  5
10C28
 10
-12.5000
 20
4.94230
 30
2.80000e-15
  70
    32
  0
VERTEX
  8
0
  5
10C29
 10
-12.5000
 20
4.98280
 30
2.80000e-15
  70
    32
  0
VERTEX
  8
0
  5
10C2A
 10
-12.5000
 20
5.02327
 30
2.80000e-15
  70
    32
  0
VERTEX
  8
0
  5
10C2B
 10
-12.5000
 20
5.06368
 30
2.80000e-15
  70
    32
  0
VERTEX
  8
0
  5
10C2C
 10
-12.5000
 20
5.10404
 30
2.80000e-15
  70
    32
  0
VERTEX
  8
0
  5
10C2D
 10
-12.5000
 20
5.14435
 30
2.80000e-15
  70
    32
  0
VERTEX
  8
0
  5
10C2E
 10
-12.5000
 20
5.18461
 30
2.80000e-15
  70
    32
  0
VERTEX
  8
0
  5
10C2F
 10
-12.5000
 20
5.22483
 30
2.80000e-15
  70
    32
  0
VERTEX
  8
0
  5
10C30
 10
-12.5000
 20
5.26499
 30
2.80000e-15
  70
    32
  0
VERTEX
  8
0
  5
10C31
 10
-12.5000
 20
5.30510
 30
2.80000e-15
  70
    32
  0
VERTEX
  8
0
  5
10C32
 10
-12.5000
 20
5.34516
 30
2.80000e-15
  70
    32
  0
VERTEX
  8
0
  5
10C33
 10
-12.5000
 20
5.38516
 30
2.80000e-15
  70
    32
  0
SEQEND
  8
0
  5
10C34
  0
LINE
  5
105F1
  8
0
  6
VERDECKT
 62
     1
 10
-12.4999999999999805
 20
5.385164807134295
 30
0.0
 11
-12.4999999999999805
 21
12.4999999999999396
 31
0.0
  0
CIRCLE
  5
105F2
  8
0
  6
VERDECKT
 62
     1
 10
0.0000000000000558
 20
-0.00000000000006
 30
0.0
 40
3.2500000000000009
  0
ARC
  5
105F3
  8
0
  6
VERDECKT
 62
     1
 10
-49.0
 20
-0.0000000000000003
 30
0.0000000000000107
 40
3.000000000000004
 50
303.5573097619209193
 51
0.0
  0
ARC
  5
105F4
  8
0
  6
VERDECKT
 62
     1
 10
-49.0
 20
-0.0000000000000006
 30
0.0000000000000107
 40
3.0000000000000031
 50
123.5573097619209051
 51
236.4426902380791091
  0
ARC
  5
105F5
  8
0
  6
VERDECKT
 62
     1
 10
-49.0
 20
0.0
 30
0.0000000000000107
 40
3.0000000000000022
 50
360.0
 51
56.442690238079102
  0
POLYLINE
  5
105F6
  8
0
  6
VERDECKT
 62
     1
 10
-50.1904178766595592
 20
-0.0000000000000007
 30
0.0000000000000107
 66
     1
 70
     8
  0
VERTEX
  8
0
  5
10C35
 10
-50.1904
 20
-6.61203e-16
 30
1.07000e-14
  70
    32
  0
VERTEX
  8
0
  5
10C36
 10
-50.1911
 20
-0.122669
 30
1.07000e-14
  70
    32
  0
VERTEX
  8
0
  5
10C37
 10
-50.1930
 20
-0.245043
 30
1.07000e-14
  70
    32
  0
VERTEX
  8
0
  5
10C38
 10
-50.1963
 20
-0.366826
 30
1.07000e-14
  70
    32
  0
VERTEX
  8
0
  5
10C39
 10
-50.2008
 20
-0.487726
 30
1.07000e-14
  70
    32
  0
VERTEX
  8
0
  5
10C3A
 10
-50.2066
 20
-0.607450
 30
1.07000e-14
  70
    32
  0
VERTEX
  8
0
  5
10C3B
 10
-50.2137
 20
-0.725712
 30
1.07000e-14
  70
    32
  0
VERTEX
  8
0
  5
10C3C
 10
-50.2220
 20
-0.842225
 30
1.07000e-14
  70
    32
  0
VERTEX
  8
0
  5
10C3D
 10
-50.2316
 20
-0.956709
 30
1.07000e-14
  70
    32
  0
VERTEX
  8
0
  5
10C3E
 10
-50.2424
 20
-1.06889
 30
1.07000e-14
  70
    32
  0
VERTEX
  8
0
  5
10C3F
 10
-50.2543
 20
-1.17849
 30
1.07000e-14
  70
    32
  0
VERTEX
  8
0
  5
10C40
 10
-50.2674
 20
-1.28526
 30
1.07000e-14
  70
    32
  0
VERTEX
  8
0
  5
10C41
 10
-50.2816
 20
-1.38893
 30
1.07000e-14
  70
    32
  0
VERTEX
  8
0
  5
10C42
 10
-50.2969
 20
-1.48925
 30
1.07000e-14
  70
    32
  0
VERTEX
  8
0
  5
10C43
 10
-50.3132
 20
-1.58598
 30
1.07000e-14
  70
    32
  0
VERTEX
  8
0
  5
10C44
 10
-50.3306
 20
-1.67890
 30
1.07000e-14
  70
    32
  0
VERTEX
  8
0
  5
10C45
 10
-50.3489
 20
-1.76777
 30
1.07000e-14
  70
    32
  0
VERTEX
  8
0
  5
10C46
 10
-50.3681
 20
-1.85238
 30
1.07000e-14
  70
    32
  0
VERTEX
  8
0
  5
10C47
 10
-50.3882
 20
-1.93253
 30
1.07000e-14
  70
    32
  0
VERTEX
  8
0
  5
10C48
 10
-50.4092
 20
-2.00802
 30
1.07000e-14
  70
    32
  0
VERTEX
  8
0
  5
10C49
 10
-50.4309
 20
-2.07867
 30
1.07000e-14
  70
    32
  0
VERTEX
  8
0
  5
10C4A
 10
-50.4533
 20
-2.14432
 30
1.07000e-14
  70
    32
  0
VERTEX
  8
0
  5
10C4B
 10
-50.4764
 20
-2.20480
 30
1.07000e-14
  70
    32
  0
VERTEX
  8
0
  5
10C4C
 10
-50.5002
 20
-2.25997
 30
1.07000e-14
  70
    32
  0
VERTEX
  8
0
  5
10C4D
 10
-50.5244
 20
-2.30970
 30
1.07000e-14
  70
    32
  0
VERTEX
  8
0
  5
10C4E
 10
-50.5492
 20
-2.35386
 30
1.07000e-14
  70
    32
  0
VERTEX
  8
0
  5
10C4F
 10
-50.5744
 20
-2.39235
 30
1.07000e-14
  70
    32
  0
VERTEX
  8
0
  5
10C50
 10
-50.6000
 20
-2.42508
 30
1.07000e-14
  70
    32
  0
VERTEX
  8
0
  5
10C51
 10
-50.6260
 20
-2.45196
 30
1.07000e-14
  70
    32
  0
VERTEX
  8
0
  5
10C52
 10
-50.6521
 20
-2.47294
 30
1.07000e-14
  70
    32
  0
VERTEX
  8
0
  5
10C53
 10
-50.6785
 20
-2.48796
 30
1.07000e-14
  70
    32
  0
VERTEX
  8
0
  5
10C54
 10
-50.7050
 20
-2.49699
 30
1.07000e-14
  70
    32
  0
VERTEX
  8
0
  5
10C55
 10
-50.7315
 20
-2.50000
 30
1.07000e-14
  70
    32
  0
VERTEX
  8
0
  5
10C56
 10
-50.7581
 20
-2.49699
 30
1.07000e-14
  70
    32
  0
VERTEX
  8
0
  5
10C57
 10
-50.7846
 20
-2.48796
 30
1.07000e-14
  70
    32
  0
VERTEX
  8
0
  5
10C58
 10
-50.8109
 20
-2.47294
 30
1.07000e-14
  70
    32
  0
VERTEX
  8
0
  5
10C59
 10
-50.8371
 20
-2.45196
 30
1.07000e-14
  70
    32
  0
VERTEX
  8
0
  5
10C5A
 10
-50.8630
 20
-2.42508
 30
1.07000e-14
  70
    32
  0
VERTEX
  8
0
  5
10C5B
 10
-50.8886
 20
-2.39235
 30
1.07000e-14
  70
    32
  0
VERTEX
  8
0
  5
10C5C
 10
-50.9138
 20
-2.35386
 30
1.07000e-14
  70
    32
  0
VERTEX
  8
0
  5
10C5D
 10
-50.9386
 20
-2.30970
 30
1.07000e-14
  70
    32
  0
VERTEX
  8
0
  5
10C5E
 10
-50.9629
 20
-2.25997
 30
1.07000e-14
  70
    32
  0
VERTEX
  8
0
  5
10C5F
 10
-50.9866
 20
-2.20480
 30
1.07000e-14
  70
    32
  0
VERTEX
  8
0
  5
10C60
 10
-51.0097
 20
-2.14432
 30
1.07000e-14
  70
    32
  0
VERTEX
  8
0
  5
10C61
 10
-51.0321
 20
-2.07867
 30
1.07000e-14
  70
    32
  0
VERTEX
  8
0
  5
10C62
 10
-51.0538
 20
-2.00802
 30
1.07000e-14
  70
    32
  0
VERTEX
  8
0
  5
10C63
 10
-51.0748
 20
-1.93253
 30
1.07000e-14
  70
    32
  0
VERTEX
  8
0
  5
10C64
 10
-51.0949
 20
-1.85238
 30
1.07000e-14
  70
    32
  0
VERTEX
  8
0
  5
10C65
 10
-51.1141
 20
-1.76777
 30
1.07000e-14
  70
    32
  0
VERTEX
  8
0
  5
10C66
 10
-51.1324
 20
-1.67890
 30
1.07000e-14
  70
    32
  0
VERTEX
  8
0
  5
10C67
 10
-51.1498
 20
-1.58598
 30
1.07000e-14
  70
    32
  0
VERTEX
  8
0
  5
10C68
 10
-51.1661
 20
-1.48925
 30
1.07000e-14
  70
    32
  0
VERTEX
  8
0
  5
10C69
 10
-51.1814
 20
-1.38893
 30
1.07000e-14
  70
    32
  0
VERTEX
  8
0
  5
10C6A
 10
-51.1956
 20
-1.28526
 30
1.07000e-14
  70
    32
  0
VERTEX
  8
0
  5
10C6B
 10
-51.2087
 20
-1.17849
 30
1.07000e-14
  70
    32
  0
VERTEX
  8
0
  5
10C6C
 10
-51.2207
 20
-1.06889
 30
1.07000e-14
  70
    32
  0
VERTEX
  8
0
  5
10C6D
 10
-51.2314
 20
-0.956709
 30
1.07000e-14
  70
    32
  0
VERTEX
  8
0
  5
10C6E
 10
-51.2410
 20
-0.842225
 30
1.07000e-14
  70
    32
  0
VERTEX
  8
0
  5
10C6F
 10
-51.2493
 20
-0.725712
 30
1.07000e-14
  70
    32
  0
VERTEX
  8
0
  5
10C70
 10
-51.2564
 20
-0.607450
 30
1.07000e-14
  70
    32
  0
VERTEX
  8
0
  5
10C71
 10
-51.2622
 20
-0.487726
 30
1.07000e-14
  70
    32
  0
VERTEX
  8
0
  5
10C72
 10
-51.2668
 20
-0.366826
 30
1.07000e-14
  70
    32
  0
VERTEX
  8
0
  5
10C73
 10
-51.2700
 20
-0.245043
 30
1.07000e-14
  70
    32
  0
VERTEX
  8
0
  5
10C74
 10
-51.2720
 20
-0.122669
 30
1.07000e-14
  70
    32
  0
VERTEX
  8
0
  5
10C75
 10
-51.2726
 20
2.61225e-15
 30
1.07000e-14
  70
    32
  0
VERTEX
  8
0
  5
10C76
 10
-51.2720
 20
0.122669
 30
1.07000e-14
  70
    32
  0
VERTEX
  8
0
  5
10C77
 10
-51.2700
 20
0.245043
 30
1.07000e-14
  70
    32
  0
VERTEX
  8
0
  5
10C78
 10
-51.2668
 20
0.366826
 30
1.07000e-14
  70
    32
  0
VERTEX
  8
0
  5
10C79
 10
-51.2622
 20
0.487726
 30
1.07000e-14
  70
    32
  0
VERTEX
  8
0
  5
10C7A
 10
-51.2564
 20
0.607450
 30
1.07000e-14
  70
    32
  0
VERTEX
  8
0
  5
10C7B
 10
-51.2493
 20
0.725712
 30
1.07000e-14
  70
    32
  0
VERTEX
  8
0
  5
10C7C
 10
-51.2410
 20
0.842225
 30
1.07000e-14
  70
    32
  0
VERTEX
  8
0
  5
10C7D
 10
-51.2314
 20
0.956709
 30
1.07000e-14
  70
    32
  0
VERTEX
  8
0
  5
10C7E
 10
-51.2207
 20
1.06889
 30
1.07000e-14
  70
    32
  0
VERTEX
  8
0
  5
10C7F
 10
-51.2087
 20
1.17849
 30
1.07000e-14
  70
    32
  0
VERTEX
  8
0
  5
10C80
 10
-51.1956
 20
1.28526
 30
1.07000e-14
  70
    32
  0
VERTEX
  8
0
  5
10C81
 10
-51.1814
 20
1.38893
 30
1.07000e-14
  70
    32
  0
VERTEX
  8
0
  5
10C82
 10
-51.1661
 20
1.48925
 30
1.07000e-14
  70
    32
  0
VERTEX
  8
0
  5
10C83
 10
-51.1498
 20
1.58598
 30
1.07000e-14
  70
    32
  0
VERTEX
  8
0
  5
10C84
 10
-51.1324
 20
1.67890
 30
1.07000e-14
  70
    32
  0
VERTEX
  8
0
  5
10C85
 10
-51.1141
 20
1.76777
 30
1.07000e-14
  70
    32
  0
VERTEX
  8
0
  5
10C86
 10
-51.0949
 20
1.85238
 30
1.07000e-14
  70
    32
  0
VERTEX
  8
0
  5
10C87
 10
-51.0748
 20
1.93253
 30
1.07000e-14
  70
    32
  0
VERTEX
  8
0
  5
10C88
 10
-51.0538
 20
2.00802
 30
1.07000e-14
  70
    32
  0
VERTEX
  8
0
  5
10C89
 10
-51.0321
 20
2.07867
 30
1.07000e-14
  70
    32
  0
VERTEX
  8
0
  5
10C8A
 10
-51.0097
 20
2.14432
 30
1.07000e-14
  70
    32
  0
VERTEX
  8
0
  5
10C8B
 10
-50.9866
 20
2.20480
 30
1.07000e-14
  70
    32
  0
VERTEX
  8
0
  5
10C8C
 10
-50.9629
 20
2.25997
 30
1.07000e-14
  70
    32
  0
VERTEX
  8
0
  5
10C8D
 10
-50.9386
 20
2.30970
 30
1.07000e-14
  70
    32
  0
VERTEX
  8
0
  5
10C8E
 10
-50.9138
 20
2.35386
 30
1.07000e-14
  70
    32
  0
VERTEX
  8
0
  5
10C8F
 10
-50.8886
 20
2.39235
 30
1.07000e-14
  70
    32
  0
VERTEX
  8
0
  5
10C90
 10
-50.8630
 20
2.42508
 30
1.07000e-14
  70
    32
  0
VERTEX
  8
0
  5
10C91
 10
-50.8371
 20
2.45196
 30
1.07000e-14
  70
    32
  0
VERTEX
  8
0
  5
10C92
 10
-50.8109
 20
2.47294
 30
1.07000e-14
  70
    32
  0
VERTEX
  8
0
  5
10C93
 10
-50.7846
 20
2.48796
 30
1.07000e-14
  70
    32
  0
VERTEX
  8
0
  5
10C94
 10
-50.7581
 20
2.49699
 30
1.07000e-14
  70
    32
  0
VERTEX
  8
0
  5
10C95
 10
-50.7315
 20
2.50000
 30
1.07000e-14
  70
    32
  0
VERTEX
  8
0
  5
10C96
 10
-50.7050
 20
2.49699
 30
1.07000e-14
  70
    32
  0
VERTEX
  8
0
  5
10C97
 10
-50.6785
 20
2.48796
 30
1.07000e-14
  70
    32
  0
VERTEX
  8
0
  5
10C98
 10
-50.6521
 20
2.47294
 30
1.07000e-14
  70
    32
  0
VERTEX
  8
0
  5
10C99
 10
-50.6260
 20
2.45196
 30
1.07000e-14
  70
    32
  0
VERTEX
  8
0
  5
10C9A
 10
-50.6000
 20
2.42508
 30
1.07000e-14
  70
    32
  0
VERTEX
  8
0
  5
10C9B
 10
-50.5744
 20
2.39235
 30
1.07000e-14
  70
    32
  0
VERTEX
  8
0
  5
10C9C
 10
-50.5492
 20
2.35386
 30
1.07000e-14
  70
    32
  0
VERTEX
  8
0
  5
10C9D
 10
-50.5244
 20
2.30970
 30
1.07000e-14
  70
    32
  0
VERTEX
  8
0
  5
10C9E
 10
-50.5002
 20
2.25997
 30
1.07000e-14
  70
    32
  0
VERTEX
  8
0
  5
10C9F
 10
-50.4764
 20
2.20480
 30
1.07000e-14
  70
    32
  0
VERTEX
  8
0
  5
10CA0
 10
-50.4533
 20
2.14432
 30
1.07000e-14
  70
    32
  0
VERTEX
  8
0
  5
10CA1
 10
-50.4309
 20
2.07867
 30
1.07000e-14
  70
    32
  0
VERTEX
  8
0
  5
10CA2
 10
-50.4092
 20
2.00802
 30
1.07000e-14
  70
    32
  0
VERTEX
  8
0
  5
10CA3
 10
-50.3882
 20
1.93253
 30
1.07000e-14
  70
    32
  0
VERTEX
  8
0
  5
10CA4
 10
-50.3681
 20
1.85238
 30
1.07000e-14
  70
    32
  0
VERTEX
  8
0
  5
10CA5
 10
-50.3489
 20
1.76777
 30
1.07000e-14
  70
    32
  0
VERTEX
  8
0
  5
10CA6
 10
-50.3306
 20
1.67890
 30
1.07000e-14
  70
    32
  0
VERTEX
  8
0
  5
10CA7
 10
-50.3132
 20
1.58598
 30
1.07000e-14
  70
    32
  0
VERTEX
  8
0
  5
10CA8
 10
-50.2969
 20
1.48925
 30
1.07000e-14
  70
    32
  0
VERTEX
  8
0
  5
10CA9
 10
-50.2816
 20
1.38893
 30
1.07000e-14
  70
    32
  0
VERTEX
  8
0
  5
10CAA
 10
-50.2674
 20
1.28526
 30
1.07000e-14
  70
    32
  0
VERTEX
  8
0
  5
10CAB
 10
-50.2543
 20
1.17849
 30
1.07000e-14
  70
    32
  0
VERTEX
  8
0
  5
10CAC
 10
-50.2424
 20
1.06889
 30
1.07000e-14
  70
    32
  0
VERTEX
  8
0
  5
10CAD
 10
-50.2316
 20
0.956709
 30
1.07000e-14
  70
    32
  0
VERTEX
  8
0
  5
10CAE
 10
-50.2220
 20
0.842225
 30
1.07000e-14
  70
    32
  0
VERTEX
  8
0
  5
10CAF
 10
-50.2137
 20
0.725712
 30
1.07000e-14
  70
    32
  0
VERTEX
  8
0
  5
10CB0
 10
-50.2066
 20
0.607450
 30
1.07000e-14
  70
    32
  0
VERTEX
  8
0
  5
10CB1
 10
-50.2008
 20
0.487726
 30
1.07000e-14
  70
    32
  0
VERTEX
  8
0
  5
10CB2
 10
-50.1963
 20
0.366826
 30
1.07000e-14
  70
    32
  0
VERTEX
  8
0
  5
10CB3
 10
-50.1930
 20
0.245043
 30
1.07000e-14
  70
    32
  0
VERTEX
  8
0
  5
10CB4
 10
-50.1911
 20
0.122669
 30
1.07000e-14
  70
    32
  0
VERTEX
  8
0
  5
10CB5
 10
-50.1904
 20
-6.61203e-16
 30
1.07000e-14
  70
    32
  0
SEQEND
  8
0
  5
10CB6
  0
CIRCLE
  5
105F7
  8
0
  6
VERDECKT
 62
     1
 10
-49.0
 20
-0.0000000000000005
 30
0.0000000000000107
 40
2.5
  0
ARC
  5
105F8
  8
0
  6
VERDECKT
 62
     1
 10
-57.0000000000000071
 20
0.0000000000000036
 30
0.0000000000000142
 40
2.5
 50
270.0
 51
90.0
  0
ARC
  5
105F9
  8
0
  6
VERDECKT
 62
     1
 10
-41.0
 20
0.0000000000000033
 30
0.0000000000000107
 40
2.5
 50
90.0
 51
270.0
  0
ARC
  5
105FA
  8
0
  6
VERDECKT
 62
     1
 10
49.0
 20
-0.0000000000000003
 30
-0.0000000000000107
 40
3.000000000000004
 50
303.5573097619209193
 51
0.0
  0
ARC
  5
105FB
  8
0
  6
VERDECKT
 62
     1
 10
49.0
 20
-0.0000000000000006
 30
-0.0000000000000107
 40
3.0000000000000031
 50
123.5573097619209051
 51
236.4426902380791091
  0
ARC
  5
105FC
  8
0
  6
VERDECKT
 62
     1
 10
49.0
 20
0.0
 30
-0.0000000000000107
 40
3.0000000000000022
 50
360.0
 51
56.442690238079102
  0
POLYLINE
  5
105FD
  8
0
  6
VERDECKT
 62
     1
 10
47.8095821233404266
 20
-0.0000000000000007
 30
-0.0000000000000107
 66
     1
 70
     8
  0
VERTEX
  8
0
  5
10CB7
 10
47.8096
 20
-6.61203e-16
 30
-1.07000e-14
  70
    32
  0
VERTEX
  8
0
  5
10CB8
 10
47.8089
 20
-0.122669
 30
-1.07000e-14
  70
    32
  0
VERTEX
  8
0
  5
10CB9
 10
47.8070
 20
-0.245043
 30
-1.07000e-14
  70
    32
  0
VERTEX
  8
0
  5
10CBA
 10
47.8037
 20
-0.366826
 30
-1.07000e-14
  70
    32
  0
VERTEX
  8
0
  5
10CBB
 10
47.7992
 20
-0.487726
 30
-1.07000e-14
  70
    32
  0
VERTEX
  8
0
  5
10CBC
 10
47.7934
 20
-0.607450
 30
-1.07000e-14
  70
    32
  0
VERTEX
  8
0
  5
10CBD
 10
47.7863
 20
-0.725712
 30
-1.07000e-14
  70
    32
  0
VERTEX
  8
0
  5
10CBE
 10
47.7780
 20
-0.842225
 30
-1.07000e-14
  70
    32
  0
VERTEX
  8
0
  5
10CBF
 10
47.7684
 20
-0.956709
 30
-1.07000e-14
  70
    32
  0
VERTEX
  8
0
  5
10CC0
 10
47.7576
 20
-1.06889
 30
-1.07000e-14
  70
    32
  0
VERTEX
  8
0
  5
10CC1
 10
47.7457
 20
-1.17849
 30
-1.07000e-14
  70
    32
  0
VERTEX
  8
0
  5
10CC2
 10
47.7326
 20
-1.28526
 30
-1.07000e-14
  70
    32
  0
VERTEX
  8
0
  5
10CC3
 10
47.7184
 20
-1.38893
 30
-1.07000e-14
  70
    32
  0
VERTEX
  8
0
  5
10CC4
 10
47.7031
 20
-1.48925
 30
-1.07000e-14
  70
    32
  0
VERTEX
  8
0
  5
10CC5
 10
47.6868
 20
-1.58598
 30
-1.07000e-14
  70
    32
  0
VERTEX
  8
0
  5
10CC6
 10
47.6694
 20
-1.67890
 30
-1.07000e-14
  70
    32
  0
VERTEX
  8
0
  5
10CC7
 10
47.6511
 20
-1.76777
 30
-1.07000e-14
  70
    32
  0
VERTEX
  8
0
  5
10CC8
 10
47.6319
 20
-1.85238
 30
-1.07000e-14
  70
    32
  0
VERTEX
  8
0
  5
10CC9
 10
47.6118
 20
-1.93253
 30
-1.07000e-14
  70
    32
  0
VERTEX
  8
0
  5
10CCA
 10
47.5908
 20
-2.00802
 30
-1.07000e-14
  70
    32
  0
VERTEX
  8
0
  5
10CCB
 10
47.5691
 20
-2.07867
 30
-1.07000e-14
  70
    32
  0
VERTEX
  8
0
  5
10CCC
 10
47.5467
 20
-2.14432
 30
-1.07000e-14
  70
    32
  0
VERTEX
  8
0
  5
10CCD
 10
47.5236
 20
-2.20480
 30
-1.07000e-14
  70
    32
  0
VERTEX
  8
0
  5
10CCE
 10
47.4998
 20
-2.25997
 30
-1.07000e-14
  70
    32
  0
VERTEX
  8
0
  5
10CCF
 10
47.4756
 20
-2.30970
 30
-1.07000e-14
  70
    32
  0
VERTEX
  8
0
  5
10CD0
 10
47.4508
 20
-2.35386
 30
-1.07000e-14
  70
    32
  0
VERTEX
  8
0
  5
10CD1
 10
47.4256
 20
-2.39235
 30
-1.07000e-14
  70
    32
  0
VERTEX
  8
0
  5
10CD2
 10
47.4000
 20
-2.42508
 30
-1.07000e-14
  70
    32
  0
VERTEX
  8
0
  5
10CD3
 10
47.3740
 20
-2.45196
 30
-1.07000e-14
  70
    32
  0
VERTEX
  8
0
  5
10CD4
 10
47.3479
 20
-2.47294
 30
-1.07000e-14
  70
    32
  0
VERTEX
  8
0
  5
10CD5
 10
47.3215
 20
-2.48796
 30
-1.07000e-14
  70
    32
  0
VERTEX
  8
0
  5
10CD6
 10
47.2950
 20
-2.49699
 30
-1.07000e-14
  70
    32
  0
VERTEX
  8
0
  5
10CD7
 10
47.2685
 20
-2.50000
 30
-1.07000e-14
  70
    32
  0
VERTEX
  8
0
  5
10CD8
 10
47.2419
 20
-2.49699
 30
-1.07000e-14
  70
    32
  0
VERTEX
  8
0
  5
10CD9
 10
47.2154
 20
-2.48796
 30
-1.07000e-14
  70
    32
  0
VERTEX
  8
0
  5
10CDA
 10
47.1891
 20
-2.47294
 30
-1.07000e-14
  70
    32
  0
VERTEX
  8
0
  5
10CDB
 10
47.1629
 20
-2.45196
 30
-1.07000e-14
  70
    32
  0
VERTEX
  8
0
  5
10CDC
 10
47.1370
 20
-2.42508
 30
-1.07000e-14
  70
    32
  0
VERTEX
  8
0
  5
10CDD
 10
47.1114
 20
-2.39235
 30
-1.07000e-14
  70
    32
  0
VERTEX
  8
0
  5
10CDE
 10
47.0862
 20
-2.35386
 30
-1.07000e-14
  70
    32
  0
VERTEX
  8
0
  5
10CDF
 10
47.0614
 20
-2.30970
 30
-1.07000e-14
  70
    32
  0
VERTEX
  8
0
  5
10CE0
 10
47.0371
 20
-2.25997
 30
-1.07000e-14
  70
    32
  0
VERTEX
  8
0
  5
10CE1
 10
47.0134
 20
-2.20480
 30
-1.07000e-14
  70
    32
  0
VERTEX
  8
0
  5
10CE2
 10
46.9903
 20
-2.14432
 30
-1.07000e-14
  70
    32
  0
VERTEX
  8
0
  5
10CE3
 10
46.9679
 20
-2.07867
 30
-1.07000e-14
  70
    32
  0
VERTEX
  8
0
  5
10CE4
 10
46.9462
 20
-2.00802
 30
-1.07000e-14
  70
    32
  0
VERTEX
  8
0
  5
10CE5
 10
46.9252
 20
-1.93253
 30
-1.07000e-14
  70
    32
  0
VERTEX
  8
0
  5
10CE6
 10
46.9051
 20
-1.85238
 30
-1.07000e-14
  70
    32
  0
VERTEX
  8
0
  5
10CE7
 10
46.8859
 20
-1.76777
 30
-1.07000e-14
  70
    32
  0
VERTEX
  8
0
  5
10CE8
 10
46.8676
 20
-1.67890
 30
-1.07000e-14
  70
    32
  0
VERTEX
  8
0
  5
10CE9
 10
46.8502
 20
-1.58598
 30
-1.07000e-14
  70
    32
  0
VERTEX
  8
0
  5
10CEA
 10
46.8339
 20
-1.48925
 30
-1.07000e-14
  70
    32
  0
VERTEX
  8
0
  5
10CEB
 10
46.8186
 20
-1.38893
 30
-1.07000e-14
  70
    32
  0
VERTEX
  8
0
  5
10CEC
 10
46.8044
 20
-1.28526
 30
-1.07000e-14
  70
    32
  0
VERTEX
  8
0
  5
10CED
 10
46.7913
 20
-1.17849
 30
-1.07000e-14
  70
    32
  0
VERTEX
  8
0
  5
10CEE
 10
46.7793
 20
-1.06889
 30
-1.07000e-14
  70
    32
  0
VERTEX
  8
0
  5
10CEF
 10
46.7686
 20
-0.956709
 30
-1.07000e-14
  70
    32
  0
VERTEX
  8
0
  5
10CF0
 10
46.7590
 20
-0.842225
 30
-1.07000e-14
  70
    32
  0
VERTEX
  8
0
  5
10CF1
 10
46.7507
 20
-0.725712
 30
-1.07000e-14
  70
    32
  0
VERTEX
  8
0
  5
10CF2
 10
46.7436
 20
-0.607450
 30
-1.07000e-14
  70
    32
  0
VERTEX
  8
0
  5
10CF3
 10
46.7378
 20
-0.487726
 30
-1.07000e-14
  70
    32
  0
VERTEX
  8
0
  5
10CF4
 10
46.7332
 20
-0.366826
 30
-1.07000e-14
  70
    32
  0
VERTEX
  8
0
  5
10CF5
 10
46.7300
 20
-0.245043
 30
-1.07000e-14
  70
    32
  0
VERTEX
  8
0
  5
10CF6
 10
46.7280
 20
-0.122669
 30
-1.07000e-14
  70
    32
  0
VERTEX
  8
0
  5
10CF7
 10
46.7274
 20
2.61225e-15
 30
-1.07000e-14
  70
    32
  0
VERTEX
  8
0
  5
10CF8
 10
46.7280
 20
0.122669
 30
-1.07000e-14
  70
    32
  0
VERTEX
  8
0
  5
10CF9
 10
46.7300
 20
0.245043
 30
-1.07000e-14
  70
    32
  0
VERTEX
  8
0
  5
10CFA
 10
46.7332
 20
0.366826
 30
-1.07000e-14
  70
    32
  0
VERTEX
  8
0
  5
10CFB
 10
46.7378
 20
0.487726
 30
-1.07000e-14
  70
    32
  0
VERTEX
  8
0
  5
10CFC
 10
46.7436
 20
0.607450
 30
-1.07000e-14
  70
    32
  0
VERTEX
  8
0
  5
10CFD
 10
46.7507
 20
0.725712
 30
-1.07000e-14
  70
    32
  0
VERTEX
  8
0
  5
10CFE
 10
46.7590
 20
0.842225
 30
-1.07000e-14
  70
    32
  0
VERTEX
  8
0
  5
10CFF
 10
46.7686
 20
0.956709
 30
-1.07000e-14
  70
    32
  0
VERTEX
  8
0
  5
10D00
 10
46.7793
 20
1.06889
 30
-1.07000e-14
  70
    32
  0
VERTEX
  8
0
  5
10D01
 10
46.7913
 20
1.17849
 30
-1.07000e-14
  70
    32
  0
VERTEX
  8
0
  5
10D02
 10
46.8044
 20
1.28526
 30
-1.07000e-14
  70
    32
  0
VERTEX
  8
0
  5
10D03
 10
46.8186
 20
1.38893
 30
-1.07000e-14
  70
    32
  0
VERTEX
  8
0
  5
10D04
 10
46.8339
 20
1.48925
 30
-1.07000e-14
  70
    32
  0
VERTEX
  8
0
  5
10D05
 10
46.8502
 20
1.58598
 30
-1.07000e-14
  70
    32
  0
VERTEX
  8
0
  5
10D06
 10
46.8676
 20
1.67890
 30
-1.07000e-14
  70
    32
  0
VERTEX
  8
0
  5
10D07
 10
46.8859
 20
1.76777
 30
-1.07000e-14
  70
    32
  0
VERTEX
  8
0
  5
10D08
 10
46.9051
 20
1.85238
 30
-1.07000e-14
  70
    32
  0
VERTEX
  8
0
  5
10D09
 10
46.9252
 20
1.93253
 30
-1.07000e-14
  70
    32
  0
VERTEX
  8
0
  5
10D0A
 10
46.9462
 20
2.00802
 30
-1.07000e-14
  70
    32
  0
VERTEX
  8
0
  5
10D0B
 10
46.9679
 20
2.07867
 30
-1.07000e-14
  70
    32
  0
VERTEX
  8
0
  5
10D0C
 10
46.9903
 20
2.14432
 30
-1.07000e-14
  70
    32
  0
VERTEX
  8
0
  5
10D0D
 10
47.0134
 20
2.20480
 30
-1.07000e-14
  70
    32
  0
VERTEX
  8
0
  5
10D0E
 10
47.0371
 20
2.25997
 30
-1.07000e-14
  70
    32
  0
VERTEX
  8
0
  5
10D0F
 10
47.0614
 20
2.30970
 30
-1.07000e-14
  70
    32
  0
VERTEX
  8
0
  5
10D10
 10
47.0862
 20
2.35386
 30
-1.07000e-14
  70
    32
  0
VERTEX
  8
0
  5
10D11
 10
47.1114
 20
2.39235
 30
-1.07000e-14
  70
    32
  0
VERTEX
  8
0
  5
10D12
 10
47.1370
 20
2.42508
 30
-1.07000e-14
  70
    32
  0
VERTEX
  8
0
  5
10D13
 10
47.1629
 20
2.45196
 30
-1.07000e-14
  70
    32
  0
VERTEX
  8
0
  5
10D14
 10
47.1891
 20
2.47294
 30
-1.07000e-14
  70
    32
  0
VERTEX
  8
0
  5
10D15
 10
47.2154
 20
2.48796
 30
-1.07000e-14
  70
    32
  0
VERTEX
  8
0
  5
10D16
 10
47.2419
 20
2.49699
 30
-1.07000e-14
  70
    32
  0
VERTEX
  8
0
  5
10D17
 10
47.2685
 20
2.50000
 30
-1.07000e-14
  70
    32
  0
VERTEX
  8
0
  5
10D18
 10
47.2950
 20
2.49699
 30
-1.07000e-14
  70
    32
  0
VERTEX
  8
0
  5
10D19
 10
47.3215
 20
2.48796
 30
-1.07000e-14
  70
    32
  0
VERTEX
  8
0
  5
10D1A
 10
47.3479
 20
2.47294
 30
-1.07000e-14
  70
    32
  0
VERTEX
  8
0
  5
10D1B
 10
47.3740
 20
2.45196
 30
-1.07000e-14
  70
    32
  0
VERTEX
  8
0
  5
10D1C
 10
47.4000
 20
2.42508
 30
-1.07000e-14
  70
    32
  0
VERTEX
  8
0
  5
10D1D
 10
47.4256
 20
2.39235
 30
-1.07000e-14
  70
    32
  0
VERTEX
  8
0
  5
10D1E
 10
47.4508
 20
2.35386
 30
-1.07000e-14
  70
    32
  0
VERTEX
  8
0
  5
10D1F
 10
47.4756
 20
2.30970
 30
-1.07000e-14
  70
    32
  0
VERTEX
  8
0
  5
10D20
 10
47.4998
 20
2.25997
 30
-1.07000e-14
  70
    32
  0
VERTEX
  8
0
  5
10D21
 10
47.5236
 20
2.20480
 30
-1.07000e-14
  70
    32
  0
VERTEX
  8
0
  5
10D22
 10
47.5467
 20
2.14432
 30
-1.07000e-14
  70
    32
  0
VERTEX
  8
0
  5
10D23
 10
47.5691
 20
2.07867
 30
-1.07000e-14
  70
    32
  0
VERTEX
  8
0
  5
10D24
 10
47.5908
 20
2.00802
 30
-1.07000e-14
  70
    32
  0
VERTEX
  8
0
  5
10D25
 10
47.6118
 20
1.93253
 30
-1.07000e-14
  70
    32
  0
VERTEX
  8
0
  5
10D26
 10
47.6319
 20
1.85238
 30
-1.07000e-14
  70
    32
  0
VERTEX
  8
0
  5
10D27
 10
47.6511
 20
1.76777
 30
-1.07000e-14
  70
    32
  0
VERTEX
  8
0
  5
10D28
 10
47.6694
 20
1.67890
 30
-1.07000e-14
  70
    32
  0
VERTEX
  8
0
  5
10D29
 10
47.6868
 20
1.58598
 30
-1.07000e-14
  70
    32
  0
VERTEX
  8
0
  5
10D2A
 10
47.7031
 20
1.48925
 30
-1.07000e-14
  70
    32
  0
VERTEX
  8
0
  5
10D2B
 10
47.7184
 20
1.38893
 30
-1.07000e-14
  70
    32
  0
VERTEX
  8
0
  5
10D2C
 10
47.7326
 20
1.28526
 30
-1.07000e-14
  70
    32
  0
VERTEX
  8
0
  5
10D2D
 10
47.7457
 20
1.17849
 30
-1.07000e-14
  70
    32
  0
VERTEX
  8
0
  5
10D2E
 10
47.7576
 20
1.06889
 30
-1.07000e-14
  70
    32
  0
VERTEX
  8
0
  5
10D2F
 10
47.7684
 20
0.956709
 30
-1.07000e-14
  70
    32
  0
VERTEX
  8
0
  5
10D30
 10
47.7780
 20
0.842225
 30
-1.07000e-14
  70
    32
  0
VERTEX
  8
0
  5
10D31
 10
47.7863
 20
0.725712
 30
-1.07000e-14
  70
    32
  0
VERTEX
  8
0
  5
10D32
 10
47.7934
 20
0.607450
 30
-1.07000e-14
  70
    32
  0
VERTEX
  8
0
  5
10D33
 10
47.7992
 20
0.487726
 30
-1.07000e-14
  70
    32
  0
VERTEX
  8
0
  5
10D34
 10
47.8037
 20
0.366826
 30
-1.07000e-14
  70
    32
  0
VERTEX
  8
0
  5
10D35
 10
47.8070
 20
0.245043
 30
-1.07000e-14
  70
    32
  0
VERTEX
  8
0
  5
10D36
 10
47.8089
 20
0.122669
 30
-1.07000e-14
  70
    32
  0
VERTEX
  8
0
  5
10D37
 10
47.8096
 20
-6.61203e-16
 30
-1.07000e-14
  70
    32
  0
SEQEND
  8
0
  5
10D38
  0
CIRCLE
  5
105FE
  8
0
  6
VERDECKT
 62
     1
 10
49.0
 20
-0.0000000000000005
 30
-0.0000000000000107
 40
2.5
  0
ARC
  5
105FF
  8
0
  6
VERDECKT
 62
     1
 10
40.9999999999999929
 20
0.0000000000000036
 30
-0.0000000000000107
 40
2.5
 50
270.0
 51
90.0
  0
ARC
  5
10600
  8
0
  6
VERDECKT
 62
     1
 10
56.9999999999999929
 20
0.0000000000000033
 30
-0.0000000000000142
 40
2.5
 50
90.0
 51
270.0
  0
CIRCLE
  5
10601
  8
0
  6
VERDECKT
 62
     1
 10
0.0000000000000114
 20
-0.0000000000000458
 30
0.0
 40
4.0
  0
CIRCLE
  5
10602
  8
0
  6
VERDECKT
 62
     1
 10
0.0000000000000114
 20
-0.0000000000000458
 30
0.0
 40
3.0
  0
CIRCLE
  5
10603
  8
0
  6
VERDECKT
 62
     1
 10
0.0000000000000119
 20
-0.0000000000000459
 30
0.0
 40
6.2499999999999991
  0
POLYLINE
  8
0
  5
10D39
  62
1
  66
     1
 10
0.000000
 20
0.000000
 30
0.000000
  70
     8
  0
VERTEX
  8
0
  5
10D3A
 10
3.50000
 20
-3.50000
 30
-8.00000e-16
  70
    32
  0
VERTEX
  8
0
  5
10D3B
 10
3.50000
 20
-3.39700
 30
-8.00000e-16
  70
    32
  0
VERTEX
  8
0
  5
10D3C
 10
3.50000
 20
-3.29635
 30
-8.00000e-16
  70
    32
  0
VERTEX
  8
0
  5
10D3D
 10
3.50000
 20
-3.19793
 30
-8.00000e-16
  70
    32
  0
VERTEX
  8
0
  5
10D3E
 10
3.50000
 20
-3.10163
 30
-8.00000e-16
  70
    32
  0
VERTEX
  8
0
  5
10D3F
 10
3.50000
 20
-3.00736
 30
-8.00000e-16
  70
    32
  0
VERTEX
  8
0
  5
10D40
 10
3.50000
 20
-2.91501
 30
-8.00000e-16
  70
    32
  0
VERTEX
  8
0
  5
10D41
 10
3.50000
 20
-2.82450
 30
-8.00000e-16
  70
    32
  0
VERTEX
  8
0
  5
10D42
 10
3.50000
 20
-2.73575
 30
-8.00000e-16
  70
    32
  0
VERTEX
  8
0
  5
10D43
 10
3.50000
 20
-2.64866
 30
-8.00000e-16
  70
    32
  0
VERTEX
  8
0
  5
10D44
 10
3.50000
 20
-2.56317
 30
-8.00000e-16
  70
    32
  0
VERTEX
  8
0
  5
10D45
 10
3.50000
 20
-2.47920
 30
-8.00000e-16
  70
    32
  0
VERTEX
  8
0
  5
10D46
 10
3.50000
 20
-2.39667
 30
-8.00000e-16
  70
    32
  0
VERTEX
  8
0
  5
10D47
 10
3.50000
 20
-2.31553
 30
-8.00000e-16
  70
    32
  0
VERTEX
  8
0
  5
10D48
 10
3.50000
 20
-2.23570
 30
-8.00000e-16
  70
    32
  0
VERTEX
  8
0
  5
10D49
 10
3.50000
 20
-2.15713
 30
-8.00000e-16
  70
    32
  0
VERTEX
  8
0
  5
10D4A
 10
3.50000
 20
-2.07975
 30
-8.00000e-16
  70
    32
  0
VERTEX
  8
0
  5
10D4B
 10
3.50000
 20
-2.00351
 30
-8.00000e-16
  70
    32
  0
VERTEX
  8
0
  5
10D4C
 10
3.50000
 20
-1.92835
 30
-8.00000e-16
  70
    32
  0
VERTEX
  8
0
  5
10D4D
 10
3.50000
 20
-1.85423
 30
-8.00000e-16
  70
    32
  0
VERTEX
  8
0
  5
10D4E
 10
3.50000
 20
-1.78108
 30
-8.00000e-16
  70
    32
  0
VERTEX
  8
0
  5
10D4F
 10
3.50000
 20
-1.70887
 30
-8.00000e-16
  70
    32
  0
VERTEX
  8
0
  5
10D50
 10
3.50000
 20
-1.63754
 30
-8.00000e-16
  70
    32
  0
VERTEX
  8
0
  5
10D51
 10
3.50000
 20
-1.56706
 30
-8.00000e-16
  70
    32
  0
VERTEX
  8
0
  5
10D52
 10
3.50000
 20
-1.49737
 30
-8.00000e-16
  70
    32
  0
VERTEX
  8
0
  5
10D53
 10
3.50000
 20
-1.42844
 30
-8.00000e-16
  70
    32
  0
VERTEX
  8
0
  5
10D54
 10
3.50000
 20
-1.36022
 30
-8.00000e-16
  70
    32
  0
VERTEX
  8
0
  5
10D55
 10
3.50000
 20
-1.29267
 30
-8.00000e-16
  70
    32
  0
VERTEX
  8
0
  5
10D56
 10
3.50000
 20
-1.22576
 30
-8.00000e-16
  70
    32
  0
VERTEX
  8
0
  5
10D57
 10
3.50000
 20
-1.15945
 30
-8.00000e-16
  70
    32
  0
VERTEX
  8
0
  5
10D58
 10
3.50000
 20
-1.09371
 30
-8.00000e-16
  70
    32
  0
VERTEX
  8
0
  5
10D59
 10
3.50000
 20
-1.02849
 30
-8.00000e-16
  70
    32
  0
VERTEX
  8
0
  5
10D5A
 10
3.50000
 20
-0.963758
 30
-8.00000e-16
  70
    32
  0
VERTEX
  8
0
  5
10D5B
 10
3.50000
 20
-0.899490
 30
-8.00000e-16
  70
    32
  0
VERTEX
  8
0
  5
10D5C
 10
3.50000
 20
-0.835648
 30
-8.00000e-16
  70
    32
  0
VERTEX
  8
0
  5
10D5D
 10
3.50000
 20
-0.772200
 30
-8.00000e-16
  70
    32
  0
VERTEX
  8
0
  5
10D5E
 10
3.50000
 20
-0.709114
 30
-8.00000e-16
  70
    32
  0
VERTEX
  8
0
  5
10D5F
 10
3.50000
 20
-0.646360
 30
-8.00000e-16
  70
    32
  0
VERTEX
  8
0
  5
10D60
 10
3.50000
 20
-0.583906
 30
-8.00000e-16
  70
    32
  0
VERTEX
  8
0
  5
10D61
 10
3.50000
 20
-0.521723
 30
-8.00000e-16
  70
    32
  0
VERTEX
  8
0
  5
10D62
 10
3.50000
 20
-0.459782
 30
-8.00000e-16
  70
    32
  0
VERTEX
  8
0
  5
10D63
 10
3.50000
 20
-0.398052
 30
-8.00000e-16
  70
    32
  0
VERTEX
  8
0
  5
10D64
 10
3.50000
 20
-0.336505
 30
-8.00000e-16
  70
    32
  0
VERTEX
  8
0
  5
10D65
 10
3.50000
 20
-0.275113
 30
-8.00000e-16
  70
    32
  0
VERTEX
  8
0
  5
10D66
 10
3.50000
 20
-0.213846
 30
-8.00000e-16
  70
    32
  0
VERTEX
  8
0
  5
10D67
 10
3.50000
 20
-0.152678
 30
-8.00000e-16
  70
    32
  0
VERTEX
  8
0
  5
10D68
 10
3.50000
 20
-0.0915787
 30
-8.00000e-16
  70
    32
  0
VERTEX
  8
0
  5
10D69
 10
3.50000
 20
-0.0305216
 30
-8.00000e-16
  70
    32
  0
VERTEX
  8
0
  5
10D6A
 10
3.50000
 20
0.0305216
 30
-8.00000e-16
  70
    32
  0
VERTEX
  8
0
  5
10D6B
 10
3.50000
 20
0.0915787
 30
-8.00000e-16
  70
    32
  0
VERTEX
  8
0
  5
10D6C
 10
3.50000
 20
0.152678
 30
-8.00000e-16
  70
    32
  0
VERTEX
  8
0
  5
10D6D
 10
3.50000
 20
0.213846
 30
-8.00000e-16
  70
    32
  0
VERTEX
  8
0
  5
10D6E
 10
3.50000
 20
0.275113
 30
-8.00000e-16
  70
    32
  0
VERTEX
  8
0
  5
10D6F
 10
3.50000
 20
0.336505
 30
-8.00000e-16
  70
    32
  0
VERTEX
  8
0
  5
10D70
 10
3.50000
 20
0.398052
 30
-8.00000e-16
  70
    32
  0
VERTEX
  8
0
  5
10D71
 10
3.50000
 20
0.459782
 30
-8.00000e-16
  70
    32
  0
VERTEX
  8
0
  5
10D72
 10
3.50000
 20
0.521723
 30
-8.00000e-16
  70
    32
  0
VERTEX
  8
0
  5
10D73
 10
3.50000
 20
0.583906
 30
-8.00000e-16
  70
    32
  0
VERTEX
  8
0
  5
10D74
 10
3.50000
 20
0.646360
 30
-8.00000e-16
  70
    32
  0
VERTEX
  8
0
  5
10D75
 10
3.50000
 20
0.709114
 30
-8.00000e-16
  70
    32
  0
VERTEX
  8
0
  5
10D76
 10
3.50000
 20
0.772200
 30
-8.00000e-16
  70
    32
  0
VERTEX
  8
0
  5
10D77
 10
3.50000
 20
0.835648
 30
-8.00000e-16
  70
    32
  0
VERTEX
  8
0
  5
10D78
 10
3.50000
 20
0.899490
 30
-8.00000e-16
  70
    32
  0
VERTEX
  8
0
  5
10D79
 10
3.50000
 20
0.963758
 30
-8.00000e-16
  70
    32
  0
VERTEX
  8
0
  5
10D7A
 10
3.50000
 20
1.02849
 30
-8.00000e-16
  70
    32
  0
VERTEX
  8
0
  5
10D7B
 10
3.50000
 20
1.09371
 30
-8.00000e-16
  70
    32
  0
VERTEX
  8
0
  5
10D7C
 10
3.50000
 20
1.15945
 30
-8.00000e-16
  70
    32
  0
VERTEX
  8
0
  5
10D7D
 10
3.50000
 20
1.22576
 30
-8.00000e-16
  70
    32
  0
VERTEX
  8
0
  5
10D7E
 10
3.50000
 20
1.29267
 30
-8.00000e-16
  70
    32
  0
VERTEX
  8
0
  5
10D7F
 10
3.50000
 20
1.36022
 30
-8.00000e-16
  70
    32
  0
VERTEX
  8
0
  5
10D80
 10
3.50000
 20
1.42844
 30
-8.00000e-16
  70
    32
  0
VERTEX
  8
0
  5
10D81
 10
3.50000
 20
1.49737
 30
-8.00000e-16
  70
    32
  0
VERTEX
  8
0
  5
10D82
 10
3.50000
 20
1.56706
 30
-8.00000e-16
  70
    32
  0
VERTEX
  8
0
  5
10D83
 10
3.50000
 20
1.63754
 30
-8.00000e-16
  70
    32
  0
VERTEX
  8
0
  5
10D84
 10
3.50000
 20
1.70887
 30
-8.00000e-16
  70
    32
  0
VERTEX
  8
0
  5
10D85
 10
3.50000
 20
1.78108
 30
-8.00000e-16
  70
    32
  0
VERTEX
  8
0
  5
10D86
 10
3.50000
 20
1.85423
 30
-8.00000e-16
  70
    32
  0
VERTEX
  8
0
  5
10D87
 10
3.50000
 20
1.92835
 30
-8.00000e-16
  70
    32
  0
VERTEX
  8
0
  5
10D88
 10
3.50000
 20
2.00351
 30
-8.00000e-16
  70
    32
  0
VERTEX
  8
0
  5
10D89
 10
3.50000
 20
2.07975
 30
-8.00000e-16
  70
    32
  0
VERTEX
  8
0
  5
10D8A
 10
3.50000
 20
2.15713
 30
-8.00000e-16
  70
    32
  0
VERTEX
  8
0
  5
10D8B
 10
3.50000
 20
2.23570
 30
-8.00000e-16
  70
    32
  0
VERTEX
  8
0
  5
10D8C
 10
3.50000
 20
2.31553
 30
-8.00000e-16
  70
    32
  0
VERTEX
  8
0
  5
10D8D
 10
3.50000
 20
2.39667
 30
-8.00000e-16
  70
    32
  0
VERTEX
  8
0
  5
10D8E
 10
3.50000
 20
2.47920
 30
-8.00000e-16
  70
    32
  0
VERTEX
  8
0
  5
10D8F
 10
3.50000
 20
2.56317
 30
-8.00000e-16
  70
    32
  0
VERTEX
  8
0
  5
10D90
 10
3.50000
 20
2.64866
 30
-8.00000e-16
  70
    32
  0
VERTEX
  8
0
  5
10D91
 10
3.50000
 20
2.73575
 30
-8.00000e-16
  70
    32
  0
VERTEX
  8
0
  5
10D92
 10
3.50000
 20
2.82450
 30
-8.00000e-16
  70
    32
  0
VERTEX
  8
0
  5
10D93
 10
3.50000
 20
2.91501
 30
-8.00000e-16
  70
    32
  0
VERTEX
  8
0
  5
10D94
 10
3.50000
 20
3.00736
 30
-8.00000e-16
  70
    32
  0
VERTEX
  8
0
  5
10D95
 10
3.50000
 20
3.10163
 30
-8.00000e-16
  70
    32
  0
VERTEX
  8
0
  5
10D96
 10
3.50000
 20
3.19793
 30
-8.00000e-16
  70
    32
  0
VERTEX
  8
0
  5
10D97
 10
3.50000
 20
3.29635
 30
-8.00000e-16
  70
    32
  0
VERTEX
  8
0
  5
10D98
 10
3.50000
 20
3.39700
 30
-8.00000e-16
  70
    32
  0
VERTEX
  8
0
  5
10D99
 10
3.50000
 20
3.50000
 30
-8.00000e-16
  70
    32
  0
SEQEND
  8
0
  5
10D9A
  0
POLYLINE
  8
0
  5
10D9B
  62
1
  66
     1
 10
0.000000
 20
0.000000
 30
0.000000
  70
     8
  0
VERTEX
  8
0
  5
10D9C
 10
3.50000
 20
3.50000
 30
-8.00000e-16
  70
    32
  0
VERTEX
  8
0
  5
10D9D
 10
3.39700
 20
3.50000
 30
-7.76458e-16
  70
    32
  0
VERTEX
  8
0
  5
10D9E
 10
3.29635
 20
3.50000
 30
-7.53452e-16
  70
    32
  0
VERTEX
  8
0
  5
10D9F
 10
3.19793
 20
3.50000
 30
-7.30955e-16
  70
    32
  0
VERTEX
  8
0
  5
10DA0
 10
3.10163
 20
3.50000
 30
-7.08944e-16
  70
    32
  0
VERTEX
  8
0
  5
10DA1
 10
3.00736
 20
3.50000
 30
-6.87395e-16
  70
    32
  0
VERTEX
  8
0
  5
10DA2
 10
2.91501
 20
3.50000
 30
-6.66288e-16
  70
    32
  0
VERTEX
  8
0
  5
10DA3
 10
2.82450
 20
3.50000
 30
-6.45600e-16
  70
    32
  0
VERTEX
  8
0
  5
10DA4
 10
2.73575
 20
3.50000
 30
-6.25313e-16
  70
    32
  0
VERTEX
  8
0
  5
10DA5
 10
2.64866
 20
3.50000
 30
-6.05408e-16
  70
    32
  0
VERTEX
  8
0
  5
10DA6
 10
2.56317
 20
3.50000
 30
-5.85867e-16
  70
    32
  0
VERTEX
  8
0
  5
10DA7
 10
2.47920
 20
3.50000
 30
-5.66674e-16
  70
    32
  0
VERTEX
  8
0
  5
10DA8
 10
2.39667
 20
3.50000
 30
-5.47811e-16
  70
    32
  0
VERTEX
  8
0
  5
10DA9
 10
2.31553
 20
3.50000
 30
-5.29264e-16
  70
    32
  0
VERTEX
  8
0
  5
10DAA
 10
2.23570
 20
3.50000
 30
-5.11017e-16
  70
    32
  0
VERTEX
  8
0
  5
10DAB
 10
2.15713
 20
3.50000
 30
-4.93058e-16
  70
    32
  0
VERTEX
  8
0
  5
10DAC
 10
2.07975
 20
3.50000
 30
-4.75371e-16
  70
    32
  0
VERTEX
  8
0
  5
10DAD
 10
2.00351
 20
3.50000
 30
-4.57945e-16
  70
    32
  0
VERTEX
  8
0
  5
10DAE
 10
1.92835
 20
3.50000
 30
-4.40766e-16
  70
    32
  0
VERTEX
  8
0
  5
10DAF
 10
1.85423
 20
3.50000
 30
-4.23823e-16
  70
    32
  0
VERTEX
  8
0
  5
10DB0
 10
1.78108
 20
3.50000
 30
-4.07104e-16
  70
    32
  0
VERTEX
  8
0
  5
10DB1
 10
1.70887
 20
3.50000
 30
-3.90599e-16
  70
    32
  0
VERTEX
  8
0
  5
10DB2
 10
1.63754
 20
3.50000
 30
-3.74296e-16
  70
    32
  0
VERTEX
  8
0
  5
10DB3
 10
1.56706
 20
3.50000
 30
-3.58185e-16
  70
    32
  0
VERTEX
  8
0
  5
10DB4
 10
1.49737
 20
3.50000
 30
-3.42256e-16
  70
    32
  0
VERTEX
  8
0
  5
10DB5
 10
1.42844
 20
3.50000
 30
-3.26500e-16
  70
    32
  0
VERTEX
  8
0
  5
10DB6
 10
1.36022
 20
3.50000
 30
-3.10907e-16
  70
    32
  0
VERTEX
  8
0
  5
10DB7
 10
1.29267
 20
3.50000
 30
-2.95468e-16
  70
    32
  0
VERTEX
  8
0
  5
10DB8
 10
1.22576
 20
3.50000
 30
-2.80174e-16
  70
    32
  0
VERTEX
  8
0
  5
10DB9
 10
1.15945
 20
3.50000
 30
-2.65018e-16
  70
    32
  0
VERTEX
  8
0
  5
10DBA
 10
1.09371
 20
3.50000
 30
-2.49990e-16
  70
    32
  0
VERTEX
  8
0
  5
10DBB
 10
1.02849
 20
3.50000
 30
-2.35082e-16
  70
    32
  0
VERTEX
  8
0
  5
10DBC
 10
0.963758
 20
3.50000
 30
-2.20288e-16
  70
    32
  0
VERTEX
  8
0
  5
10DBD
 10
0.899490
 20
3.50000
 30
-2.05598e-16
  70
    32
  0
VERTEX
  8
0
  5
10DBE
 10
0.835648
 20
3.50000
 30
-1.91005e-16
  70
    32
  0
VERTEX
  8
0
  5
10DBF
 10
0.772200
 20
3.50000
 30
-1.76503e-16
  70
    32
  0
VERTEX
  8
0
  5
10DC0
 10
0.709114
 20
3.50000
 30
-1.62083e-16
  70
    32
  0
VERTEX
  8
0
  5
10DC1
 10
0.646360
 20
3.50000
 30
-1.47739e-16
  70
    32
  0
VERTEX
  8
0
  5
10DC2
 10
0.583906
 20
3.50000
 30
-1.33464e-16
  70
    32
  0
VERTEX
  8
0
  5
10DC3
 10
0.521723
 20
3.50000
 30
-1.19251e-16
  70
    32
  0
VERTEX
  8
0
  5
10DC4
 10
0.459782
 20
3.50000
 30
-1.05093e-16
  70
    32
  0
VERTEX
  8
0
  5
10DC5
 10
0.398052
 20
3.50000
 30
-9.09833e-17
  70
    32
  0
VERTEX
  8
0
  5
10DC6
 10
0.336505
 20
3.50000
 30
-7.69154e-17
  70
    32
  0
VERTEX
  8
0
  5
10DC7
 10
0.275113
 20
3.50000
 30
-6.28829e-17
  70
    32
  0
VERTEX
  8
0
  5
10DC8
 10
0.213846
 20
3.50000
 30
-4.88791e-17
  70
    32
  0
VERTEX
  8
0
  5
10DC9
 10
0.152678
 20
3.50000
 30
-3.48977e-17
  70
    32
  0
VERTEX
  8
0
  5
10DCA
 10
0.0915787
 20
3.50000
 30
-2.09323e-17
  70
    32
  0
VERTEX
  8
0
  5
10DCB
 10
0.0305216
 20
3.50000
 30
-6.97636e-18
  70
    32
  0
VERTEX
  8
0
  5
10DCC
 10
-0.0305216
 20
3.50000
 30
6.97636e-18
  70
    32
  0
VERTEX
  8
0
  5
10DCD
 10
-0.0915787
 20
3.50000
 30
2.09323e-17
  70
    32
  0
VERTEX
  8
0
  5
10DCE
 10
-0.152678
 20
3.50000
 30
3.48977e-17
  70
    32
  0
VERTEX
  8
0
  5
10DCF
 10
-0.213846
 20
3.50000
 30
4.88791e-17
  70
    32
  0
VERTEX
  8
0
  5
10DD0
 10
-0.275113
 20
3.50000
 30
6.28829e-17
  70
    32
  0
VERTEX
  8
0
  5
10DD1
 10
-0.336505
 20
3.50000
 30
7.69154e-17
  70
    32
  0
VERTEX
  8
0
  5
10DD2
 10
-0.398052
 20
3.50000
 30
9.09833e-17
  70
    32
  0
VERTEX
  8
0
  5
10DD3
 10
-0.459782
 20
3.50000
 30
1.05093e-16
  70
    32
  0
VERTEX
  8
0
  5
10DD4
 10
-0.521723
 20
3.50000
 30
1.19251e-16
  70
    32
  0
VERTEX
  8
0
  5
10DD5
 10
-0.583906
 20
3.50000
 30
1.33464e-16
  70
    32
  0
VERTEX
  8
0
  5
10DD6
 10
-0.646360
 20
3.50000
 30
1.47739e-16
  70
    32
  0
VERTEX
  8
0
  5
10DD7
 10
-0.709114
 20
3.50000
 30
1.62083e-16
  70
    32
  0
VERTEX
  8
0
  5
10DD8
 10
-0.772200
 20
3.50000
 30
1.76503e-16
  70
    32
  0
VERTEX
  8
0
  5
10DD9
 10
-0.835648
 20
3.50000
 30
1.91005e-16
  70
    32
  0
VERTEX
  8
0
  5
10DDA
 10
-0.899490
 20
3.50000
 30
2.05598e-16
  70
    32
  0
VERTEX
  8
0
  5
10DDB
 10
-0.963758
 20
3.50000
 30
2.20288e-16
  70
    32
  0
VERTEX
  8
0
  5
10DDC
 10
-1.02849
 20
3.50000
 30
2.35082e-16
  70
    32
  0
VERTEX
  8
0
  5
10DDD
 10
-1.09371
 20
3.50000
 30
2.49990e-16
  70
    32
  0
VERTEX
  8
0
  5
10DDE
 10
-1.15945
 20
3.50000
 30
2.65018e-16
  70
    32
  0
VERTEX
  8
0
  5
10DDF
 10
-1.22576
 20
3.50000
 30
2.80174e-16
  70
    32
  0
VERTEX
  8
0
  5
10DE0
 10
-1.29267
 20
3.50000
 30
2.95468e-16
  70
    32
  0
VERTEX
  8
0
  5
10DE1
 10
-1.36022
 20
3.50000
 30
3.10907e-16
  70
    32
  0
VERTEX
  8
0
  5
10DE2
 10
-1.42844
 20
3.50000
 30
3.26500e-16
  70
    32
  0
VERTEX
  8
0
  5
10DE3
 10
-1.49737
 20
3.50000
 30
3.42256e-16
  70
    32
  0
VERTEX
  8
0
  5
10DE4
 10
-1.56706
 20
3.50000
 30
3.58185e-16
  70
    32
  0
VERTEX
  8
0
  5
10DE5
 10
-1.63754
 20
3.50000
 30
3.74296e-16
  70
    32
  0
VERTEX
  8
0
  5
10DE6
 10
-1.70887
 20
3.50000
 30
3.90599e-16
  70
    32
  0
VERTEX
  8
0
  5
10DE7
 10
-1.78108
 20
3.50000
 30
4.07104e-16
  70
    32
  0
VERTEX
  8
0
  5
10DE8
 10
-1.85423
 20
3.50000
 30
4.23823e-16
  70
    32
  0
VERTEX
  8
0
  5
10DE9
 10
-1.92835
 20
3.50000
 30
4.40766e-16
  70
    32
  0
VERTEX
  8
0
  5
10DEA
 10
-2.00351
 20
3.50000
 30
4.57945e-16
  70
    32
  0
VERTEX
  8
0
  5
10DEB
 10
-2.07975
 20
3.50000
 30
4.75371e-16
  70
    32
  0
VERTEX
  8
0
  5
10DEC
 10
-2.15713
 20
3.50000
 30
4.93058e-16
  70
    32
  0
VERTEX
  8
0
  5
10DED
 10
-2.23570
 20
3.50000
 30
5.11017e-16
  70
    32
  0
VERTEX
  8
0
  5
10DEE
 10
-2.31553
 20
3.50000
 30
5.29264e-16
  70
    32
  0
VERTEX
  8
0
  5
10DEF
 10
-2.39667
 20
3.50000
 30
5.47811e-16
  70
    32
  0
VERTEX
  8
0
  5
10DF0
 10
-2.47920
 20
3.50000
 30
5.66674e-16
  70
    32
  0
VERTEX
  8
0
  5
10DF1
 10
-2.56317
 20
3.50000
 30
5.85867e-16
  70
    32
  0
VERTEX
  8
0
  5
10DF2
 10
-2.64866
 20
3.50000
 30
6.05408e-16
  70
    32
  0
VERTEX
  8
0
  5
10DF3
 10
-2.73575
 20
3.50000
 30
6.25313e-16
  70
    32
  0
VERTEX
  8
0
  5
10DF4
 10
-2.82450
 20
3.50000
 30
6.45600e-16
  70
    32
  0
VERTEX
  8
0
  5
10DF5
 10
-2.91501
 20
3.50000
 30
6.66288e-16
  70
    32
  0
VERTEX
  8
0
  5
10DF6
 10
-3.00736
 20
3.50000
 30
6.87395e-16
  70
    32
  0
VERTEX
  8
0
  5
10DF7
 10
-3.10163
 20
3.50000
 30
7.08944e-16
  70
    32
  0
VERTEX
  8
0
  5
10DF8
 10
-3.19793
 20
3.50000
 30
7.30955e-16
  70
    32
  0
VERTEX
  8
0
  5
10DF9
 10
-3.29635
 20
3.50000
 30
7.53452e-16
  70
    32
  0
VERTEX
  8
0
  5
10DFA
 10
-3.39700
 20
3.50000
 30
7.76458e-16
  70
    32
  0
VERTEX
  8
0
  5
10DFB
 10
-3.50000
 20
3.50000
 30
8.00000e-16
  70
    32
  0
SEQEND
  8
0
  5
10DFC
  0
POLYLINE
  8
0
  5
10DFD
  62
1
  66
     1
 10
0.000000
 20
0.000000
 30
0.000000
  70
     8
  0
VERTEX
  8
0
  5
10DFE
 10
-3.50000
 20
3.50000
 30
8.00000e-16
  70
    32
  0
VERTEX
  8
0
  5
10DFF
 10
-3.50000
 20
3.39700
 30
8.00000e-16
  70
    32
  0
VERTEX
  8
0
  5
10E00
 10
-3.50000
 20
3.29635
 30
8.00000e-16
  70
    32
  0
VERTEX
  8
0
  5
10E01
 10
-3.50000
 20
3.19793
 30
8.00000e-16
  70
    32
  0
VERTEX
  8
0
  5
10E02
 10
-3.50000
 20
3.10163
 30
8.00000e-16
  70
    32
  0
VERTEX
  8
0
  5
10E03
 10
-3.50000
 20
3.00736
 30
8.00000e-16
  70
    32
  0
VERTEX
  8
0
  5
10E04
 10
-3.50000
 20
2.91501
 30
8.00000e-16
  70
    32
  0
VERTEX
  8
0
  5
10E05
 10
-3.50000
 20
2.82450
 30
8.00000e-16
  70
    32
  0
VERTEX
  8
0
  5
10E06
 10
-3.50000
 20
2.73575
 30
8.00000e-16
  70
    32
  0
VERTEX
  8
0
  5
10E07
 10
-3.50000
 20
2.64866
 30
8.00000e-16
  70
    32
  0
VERTEX
  8
0
  5
10E08
 10
-3.50000
 20
2.56317
 30
8.00000e-16
  70
    32
  0
VERTEX
  8
0
  5
10E09
 10
-3.50000
 20
2.47920
 30
8.00000e-16
  70
    32
  0
VERTEX
  8
0
  5
10E0A
 10
-3.50000
 20
2.39667
 30
8.00000e-16
  70
    32
  0
VERTEX
  8
0
  5
10E0B
 10
-3.50000
 20
2.31553
 30
8.00000e-16
  70
    32
  0
VERTEX
  8
0
  5
10E0C
 10
-3.50000
 20
2.23570
 30
8.00000e-16
  70
    32
  0
VERTEX
  8
0
  5
10E0D
 10
-3.50000
 20
2.15713
 30
8.00000e-16
  70
    32
  0
VERTEX
  8
0
  5
10E0E
 10
-3.50000
 20
2.07975
 30
8.00000e-16
  70
    32
  0
VERTEX
  8
0
  5
10E0F
 10
-3.50000
 20
2.00351
 30
8.00000e-16
  70
    32
  0
VERTEX
  8
0
  5
10E10
 10
-3.50000
 20
1.92835
 30
8.00000e-16
  70
    32
  0
VERTEX
  8
0
  5
10E11
 10
-3.50000
 20
1.85423
 30
8.00000e-16
  70
    32
  0
VERTEX
  8
0
  5
10E12
 10
-3.50000
 20
1.78108
 30
8.00000e-16
  70
    32
  0
VERTEX
  8
0
  5
10E13
 10
-3.50000
 20
1.70887
 30
8.00000e-16
  70
    32
  0
VERTEX
  8
0
  5
10E14
 10
-3.50000
 20
1.63754
 30
8.00000e-16
  70
    32
  0
VERTEX
  8
0
  5
10E15
 10
-3.50000
 20
1.56706
 30
8.00000e-16
  70
    32
  0
VERTEX
  8
0
  5
10E16
 10
-3.50000
 20
1.49737
 30
8.00000e-16
  70
    32
  0
VERTEX
  8
0
  5
10E17
 10
-3.50000
 20
1.42844
 30
8.00000e-16
  70
    32
  0
VERTEX
  8
0
  5
10E18
 10
-3.50000
 20
1.36022
 30
8.00000e-16
  70
    32
  0
VERTEX
  8
0
  5
10E19
 10
-3.50000
 20
1.29267
 30
8.00000e-16
  70
    32
  0
VERTEX
  8
0
  5
10E1A
 10
-3.50000
 20
1.22576
 30
8.00000e-16
  70
    32
  0
VERTEX
  8
0
  5
10E1B
 10
-3.50000
 20
1.15945
 30
8.00000e-16
  70
    32
  0
VERTEX
  8
0
  5
10E1C
 10
-3.50000
 20
1.09371
 30
8.00000e-16
  70
    32
  0
VERTEX
  8
0
  5
10E1D
 10
-3.50000
 20
1.02849
 30
8.00000e-16
  70
    32
  0
VERTEX
  8
0
  5
10E1E
 10
-3.50000
 20
0.963758
 30
8.00000e-16
  70
    32
  0
VERTEX
  8
0
  5
10E1F
 10
-3.50000
 20
0.899490
 30
8.00000e-16
  70
    32
  0
VERTEX
  8
0
  5
10E20
 10
-3.50000
 20
0.835648
 30
8.00000e-16
  70
    32
  0
VERTEX
  8
0
  5
10E21
 10
-3.50000
 20
0.772200
 30
8.00000e-16
  70
    32
  0
VERTEX
  8
0
  5
10E22
 10
-3.50000
 20
0.709114
 30
8.00000e-16
  70
    32
  0
VERTEX
  8
0
  5
10E23
 10
-3.50000
 20
0.646360
 30
8.00000e-16
  70
    32
  0
VERTEX
  8
0
  5
10E24
 10
-3.50000
 20
0.583906
 30
8.00000e-16
  70
    32
  0
VERTEX
  8
0
  5
10E25
 10
-3.50000
 20
0.521723
 30
8.00000e-16
  70
    32
  0
VERTEX
  8
0
  5
10E26
 10
-3.50000
 20
0.459782
 30
8.00000e-16
  70
    32
  0
VERTEX
  8
0
  5
10E27
 10
-3.50000
 20
0.398052
 30
8.00000e-16
  70
    32
  0
VERTEX
  8
0
  5
10E28
 10
-3.50000
 20
0.336505
 30
8.00000e-16
  70
    32
  0
VERTEX
  8
0
  5
10E29
 10
-3.50000
 20
0.275113
 30
8.00000e-16
  70
    32
  0
VERTEX
  8
0
  5
10E2A
 10
-3.50000
 20
0.213846
 30
8.00000e-16
  70
    32
  0
VERTEX
  8
0
  5
10E2B
 10
-3.50000
 20
0.152678
 30
8.00000e-16
  70
    32
  0
VERTEX
  8
0
  5
10E2C
 10
-3.50000
 20
0.0915787
 30
8.00000e-16
  70
    32
  0
VERTEX
  8
0
  5
10E2D
 10
-3.50000
 20
0.0305216
 30
8.00000e-16
  70
    32
  0
VERTEX
  8
0
  5
10E2E
 10
-3.50000
 20
-0.0305216
 30
8.00000e-16
  70
    32
  0
VERTEX
  8
0
  5
10E2F
 10
-3.50000
 20
-0.0915787
 30
8.00000e-16
  70
    32
  0
VERTEX
  8
0
  5
10E30
 10
-3.50000
 20
-0.152678
 30
8.00000e-16
  70
    32
  0
VERTEX
  8
0
  5
10E31
 10
-3.50000
 20
-0.213846
 30
8.00000e-16
  70
    32
  0
VERTEX
  8
0
  5
10E32
 10
-3.50000
 20
-0.275113
 30
8.00000e-16
  70
    32
  0
VERTEX
  8
0
  5
10E33
 10
-3.50000
 20
-0.336505
 30
8.00000e-16
  70
    32
  0
VERTEX
  8
0
  5
10E34
 10
-3.50000
 20
-0.398052
 30
8.00000e-16
  70
    32
  0
VERTEX
  8
0
  5
10E35
 10
-3.50000
 20
-0.459782
 30
8.00000e-16
  70
    32
  0
VERTEX
  8
0
  5
10E36
 10
-3.50000
 20
-0.521723
 30
8.00000e-16
  70
    32
  0
VERTEX
  8
0
  5
10E37
 10
-3.50000
 20
-0.583906
 30
8.00000e-16
  70
    32
  0
VERTEX
  8
0
  5
10E38
 10
-3.50000
 20
-0.646360
 30
8.00000e-16
  70
    32
  0
VERTEX
  8
0
  5
10E39
 10
-3.50000
 20
-0.709114
 30
8.00000e-16
  70
    32
  0
VERTEX
  8
0
  5
10E3A
 10
-3.50000
 20
-0.772200
 30
8.00000e-16
  70
    32
  0
VERTEX
  8
0
  5
10E3B
 10
-3.50000
 20
-0.835648
 30
8.00000e-16
  70
    32
  0
VERTEX
  8
0
  5
10E3C
 10
-3.50000
 20
-0.899490
 30
8.00000e-16
  70
    32
  0
VERTEX
  8
0
  5
10E3D
 10
-3.50000
 20
-0.963758
 30
8.00000e-16
  70
    32
  0
VERTEX
  8
0
  5
10E3E
 10
-3.50000
 20
-1.02849
 30
8.00000e-16
  70
    32
  0
VERTEX
  8
0
  5
10E3F
 10
-3.50000
 20
-1.09371
 30
8.00000e-16
  70
    32
  0
VERTEX
  8
0
  5
10E40
 10
-3.50000
 20
-1.15945
 30
8.00000e-16
  70
    32
  0
VERTEX
  8
0
  5
10E41
 10
-3.50000
 20
-1.22576
 30
8.00000e-16
  70
    32
  0
VERTEX
  8
0
  5
10E42
 10
-3.50000
 20
-1.29267
 30
8.00000e-16
  70
    32
  0
VERTEX
  8
0
  5
10E43
 10
-3.50000
 20
-1.36022
 30
8.00000e-16
  70
    32
  0
VERTEX
  8
0
  5
10E44
 10
-3.50000
 20
-1.42844
 30
8.00000e-16
  70
    32
  0
VERTEX
  8
0
  5
10E45
 10
-3.50000
 20
-1.49737
 30
8.00000e-16
  70
    32
  0
VERTEX
  8
0
  5
10E46
 10
-3.50000
 20
-1.56706
 30
8.00000e-16
  70
    32
  0
VERTEX
  8
0
  5
10E47
 10
-3.50000
 20
-1.63754
 30
8.00000e-16
  70
    32
  0
VERTEX
  8
0
  5
10E48
 10
-3.50000
 20
-1.70887
 30
8.00000e-16
  70
    32
  0
VERTEX
  8
0
  5
10E49
 10
-3.50000
 20
-1.78108
 30
8.00000e-16
  70
    32
  0
VERTEX
  8
0
  5
10E4A
 10
-3.50000
 20
-1.85423
 30
8.00000e-16
  70
    32
  0
VERTEX
  8
0
  5
10E4B
 10
-3.50000
 20
-1.92835
 30
8.00000e-16
  70
    32
  0
VERTEX
  8
0
  5
10E4C
 10
-3.50000
 20
-2.00351
 30
8.00000e-16
  70
    32
  0
VERTEX
  8
0
  5
10E4D
 10
-3.50000
 20
-2.07975
 30
8.00000e-16
  70
    32
  0
VERTEX
  8
0
  5
10E4E
 10
-3.50000
 20
-2.15713
 30
8.00000e-16
  70
    32
  0
VERTEX
  8
0
  5
10E4F
 10
-3.50000
 20
-2.23570
 30
8.00000e-16
  70
    32
  0
VERTEX
  8
0
  5
10E50
 10
-3.50000
 20
-2.31553
 30
8.00000e-16
  70
    32
  0
VERTEX
  8
0
  5
10E51
 10
-3.50000
 20
-2.39667
 30
8.00000e-16
  70
    32
  0
VERTEX
  8
0
  5
10E52
 10
-3.50000
 20
-2.47920
 30
8.00000e-16
  70
    32
  0
VERTEX
  8
0
  5
10E53
 10
-3.50000
 20
-2.56317
 30
8.00000e-16
  70
    32
  0
VERTEX
  8
0
  5
10E54
 10
-3.50000
 20
-2.64866
 30
8.00000e-16
  70
    32
  0
VERTEX
  8
0
  5
10E55
 10
-3.50000
 20
-2.73575
 30
8.00000e-16
  70
    32
  0
VERTEX
  8
0
  5
10E56
 10
-3.50000
 20
-2.82450
 30
8.00000e-16
  70
    32
  0
VERTEX
  8
0
  5
10E57
 10
-3.50000
 20
-2.91501
 30
8.00000e-16
  70
    32
  0
VERTEX
  8
0
  5
10E58
 10
-3.50000
 20
-3.00736
 30
8.00000e-16
  70
    32
  0
VERTEX
  8
0
  5
10E59
 10
-3.50000
 20
-3.10163
 30
8.00000e-16
  70
    32
  0
VERTEX
  8
0
  5
10E5A
 10
-3.50000
 20
-3.19793
 30
8.00000e-16
  70
    32
  0
VERTEX
  8
0
  5
10E5B
 10
-3.50000
 20
-3.29635
 30
8.00000e-16
  70
    32
  0
VERTEX
  8
0
  5
10E5C
 10
-3.50000
 20
-3.39700
 30
8.00000e-16
  70
    32
  0
VERTEX
  8
0
  5
10E5D
 10
-3.50000
 20
-3.50000
 30
8.00000e-16
  70
    32
  0
SEQEND
  8
0
  5
10E5E
  0
POLYLINE
  8
0
  5
10E5F
  62
1
  66
     1
 10
0.000000
 20
0.000000
 30
0.000000
  70
     8
  0
VERTEX
  8
0
  5
10E60
 10
-3.50000
 20
-3.50000
 30
8.00000e-16
  70
    32
  0
VERTEX
  8
0
  5
10E61
 10
-3.39700
 20
-3.50000
 30
7.76458e-16
  70
    32
  0
VERTEX
  8
0
  5
10E62
 10
-3.29635
 20
-3.50000
 30
7.53452e-16
  70
    32
  0
VERTEX
  8
0
  5
10E63
 10
-3.19793
 20
-3.50000
 30
7.30955e-16
  70
    32
  0
VERTEX
  8
0
  5
10E64
 10
-3.10163
 20
-3.50000
 30
7.08944e-16
  70
    32
  0
VERTEX
  8
0
  5
10E65
 10
-3.00736
 20
-3.50000
 30
6.87395e-16
  70
    32
  0
VERTEX
  8
0
  5
10E66
 10
-2.91501
 20
-3.50000
 30
6.66288e-16
  70
    32
  0
VERTEX
  8
0
  5
10E67
 10
-2.82450
 20
-3.50000
 30
6.45600e-16
  70
    32
  0
VERTEX
  8
0
  5
10E68
 10
-2.73575
 20
-3.50000
 30
6.25313e-16
  70
    32
  0
VERTEX
  8
0
  5
10E69
 10
-2.64866
 20
-3.50000
 30
6.05408e-16
  70
    32
  0
VERTEX
  8
0
  5
10E6A
 10
-2.56317
 20
-3.50000
 30
5.85867e-16
  70
    32
  0
VERTEX
  8
0
  5
10E6B
 10
-2.47920
 20
-3.50000
 30
5.66674e-16
  70
    32
  0
VERTEX
  8
0
  5
10E6C
 10
-2.39667
 20
-3.50000
 30
5.47811e-16
  70
    32
  0
VERTEX
  8
0
  5
10E6D
 10
-2.31553
 20
-3.50000
 30
5.29264e-16
  70
    32
  0
VERTEX
  8
0
  5
10E6E
 10
-2.23570
 20
-3.50000
 30
5.11017e-16
  70
    32
  0
VERTEX
  8
0
  5
10E6F
 10
-2.15713
 20
-3.50000
 30
4.93058e-16
  70
    32
  0
VERTEX
  8
0
  5
10E70
 10
-2.07975
 20
-3.50000
 30
4.75371e-16
  70
    32
  0
VERTEX
  8
0
  5
10E71
 10
-2.00351
 20
-3.50000
 30
4.57945e-16
  70
    32
  0
VERTEX
  8
0
  5
10E72
 10
-1.92835
 20
-3.50000
 30
4.40766e-16
  70
    32
  0
VERTEX
  8
0
  5
10E73
 10
-1.85423
 20
-3.50000
 30
4.23823e-16
  70
    32
  0
VERTEX
  8
0
  5
10E74
 10
-1.78108
 20
-3.50000
 30
4.07104e-16
  70
    32
  0
VERTEX
  8
0
  5
10E75
 10
-1.70887
 20
-3.50000
 30
3.90599e-16
  70
    32
  0
VERTEX
  8
0
  5
10E76
 10
-1.63754
 20
-3.50000
 30
3.74296e-16
  70
    32
  0
VERTEX
  8
0
  5
10E77
 10
-1.56706
 20
-3.50000
 30
3.58185e-16
  70
    32
  0
VERTEX
  8
0
  5
10E78
 10
-1.49737
 20
-3.50000
 30
3.42256e-16
  70
    32
  0
VERTEX
  8
0
  5
10E79
 10
-1.42844
 20
-3.50000
 30
3.26500e-16
  70
    32
  0
VERTEX
  8
0
  5
10E7A
 10
-1.36022
 20
-3.50000
 30
3.10907e-16
  70
    32
  0
VERTEX
  8
0
  5
10E7B
 10
-1.29267
 20
-3.50000
 30
2.95468e-16
  70
    32
  0
VERTEX
  8
0
  5
10E7C
 10
-1.22576
 20
-3.50000
 30
2.80174e-16
  70
    32
  0
VERTEX
  8
0
  5
10E7D
 10
-1.15945
 20
-3.50000
 30
2.65018e-16
  70
    32
  0
VERTEX
  8
0
  5
10E7E
 10
-1.09371
 20
-3.50000
 30
2.49990e-16
  70
    32
  0
VERTEX
  8
0
  5
10E7F
 10
-1.02849
 20
-3.50000
 30
2.35082e-16
  70
    32
  0
VERTEX
  8
0
  5
10E80
 10
-0.963758
 20
-3.50000
 30
2.20288e-16
  70
    32
  0
VERTEX
  8
0
  5
10E81
 10
-0.899490
 20
-3.50000
 30
2.05598e-16
  70
    32
  0
VERTEX
  8
0
  5
10E82
 10
-0.835648
 20
-3.50000
 30
1.91005e-16
  70
    32
  0
VERTEX
  8
0
  5
10E83
 10
-0.772200
 20
-3.50000
 30
1.76503e-16
  70
    32
  0
VERTEX
  8
0
  5
10E84
 10
-0.709114
 20
-3.50000
 30
1.62083e-16
  70
    32
  0
VERTEX
  8
0
  5
10E85
 10
-0.646360
 20
-3.50000
 30
1.47739e-16
  70
    32
  0
VERTEX
  8
0
  5
10E86
 10
-0.583906
 20
-3.50000
 30
1.33464e-16
  70
    32
  0
VERTEX
  8
0
  5
10E87
 10
-0.521723
 20
-3.50000
 30
1.19251e-16
  70
    32
  0
VERTEX
  8
0
  5
10E88
 10
-0.459782
 20
-3.50000
 30
1.05093e-16
  70
    32
  0
VERTEX
  8
0
  5
10E89
 10
-0.398052
 20
-3.50000
 30
9.09833e-17
  70
    32
  0
VERTEX
  8
0
  5
10E8A
 10
-0.336505
 20
-3.50000
 30
7.69154e-17
  70
    32
  0
VERTEX
  8
0
  5
10E8B
 10
-0.275113
 20
-3.50000
 30
6.28829e-17
  70
    32
  0
VERTEX
  8
0
  5
10E8C
 10
-0.213846
 20
-3.50000
 30
4.88791e-17
  70
    32
  0
VERTEX
  8
0
  5
10E8D
 10
-0.152678
 20
-3.50000
 30
3.48977e-17
  70
    32
  0
VERTEX
  8
0
  5
10E8E
 10
-0.0915787
 20
-3.50000
 30
2.09323e-17
  70
    32
  0
VERTEX
  8
0
  5
10E8F
 10
-0.0305216
 20
-3.50000
 30
6.97636e-18
  70
    32
  0
VERTEX
  8
0
  5
10E90
 10
0.0305216
 20
-3.50000
 30
-6.97636e-18
  70
    32
  0
VERTEX
  8
0
  5
10E91
 10
0.0915787
 20
-3.50000
 30
-2.09323e-17
  70
    32
  0
VERTEX
  8
0
  5
10E92
 10
0.152678
 20
-3.50000
 30
-3.48977e-17
  70
    32
  0
VERTEX
  8
0
  5
10E93
 10
0.213846
 20
-3.50000
 30
-4.88791e-17
  70
    32
  0
VERTEX
  8
0
  5
10E94
 10
0.275113
 20
-3.50000
 30
-6.28829e-17
  70
    32
  0
VERTEX
  8
0
  5
10E95
 10
0.336505
 20
-3.50000
 30
-7.69154e-17
  70
    32
  0
VERTEX
  8
0
  5
10E96
 10
0.398052
 20
-3.50000
 30
-9.09833e-17
  70
    32
  0
VERTEX
  8
0
  5
10E97
 10
0.459782
 20
-3.50000
 30
-1.05093e-16
  70
    32
  0
VERTEX
  8
0
  5
10E98
 10
0.521723
 20
-3.50000
 30
-1.19251e-16
  70
    32
  0
VERTEX
  8
0
  5
10E99
 10
0.583906
 20
-3.50000
 30
-1.33464e-16
  70
    32
  0
VERTEX
  8
0
  5
10E9A
 10
0.646360
 20
-3.50000
 30
-1.47739e-16
  70
    32
  0
VERTEX
  8
0
  5
10E9B
 10
0.709114
 20
-3.50000
 30
-1.62083e-16
  70
    32
  0
VERTEX
  8
0
  5
10E9C
 10
0.772200
 20
-3.50000
 30
-1.76503e-16
  70
    32
  0
VERTEX
  8
0
  5
10E9D
 10
0.835648
 20
-3.50000
 30
-1.91005e-16
  70
    32
  0
VERTEX
  8
0
  5
10E9E
 10
0.899490
 20
-3.50000
 30
-2.05598e-16
  70
    32
  0
VERTEX
  8
0
  5
10E9F
 10
0.963758
 20
-3.50000
 30
-2.20288e-16
  70
    32
  0
VERTEX
  8
0
  5
10EA0
 10
1.02849
 20
-3.50000
 30
-2.35082e-16
  70
    32
  0
VERTEX
  8
0
  5
10EA1
 10
1.09371
 20
-3.50000
 30
-2.49990e-16
  70
    32
  0
VERTEX
  8
0
  5
10EA2
 10
1.15945
 20
-3.50000
 30
-2.65018e-16
  70
    32
  0
VERTEX
  8
0
  5
10EA3
 10
1.22576
 20
-3.50000
 30
-2.80174e-16
  70
    32
  0
VERTEX
  8
0
  5
10EA4
 10
1.29267
 20
-3.50000
 30
-2.95468e-16
  70
    32
  0
VERTEX
  8
0
  5
10EA5
 10
1.36022
 20
-3.50000
 30
-3.10907e-16
  70
    32
  0
VERTEX
  8
0
  5
10EA6
 10
1.42844
 20
-3.50000
 30
-3.26500e-16
  70
    32
  0
VERTEX
  8
0
  5
10EA7
 10
1.49737
 20
-3.50000
 30
-3.42256e-16
  70
    32
  0
VERTEX
  8
0
  5
10EA8
 10
1.56706
 20
-3.50000
 30
-3.58185e-16
  70
    32
  0
VERTEX
  8
0
  5
10EA9
 10
1.63754
 20
-3.50000
 30
-3.74296e-16
  70
    32
  0
VERTEX
  8
0
  5
10EAA
 10
1.70887
 20
-3.50000
 30
-3.90599e-16
  70
    32
  0
VERTEX
  8
0
  5
10EAB
 10
1.78108
 20
-3.50000
 30
-4.07104e-16
  70
    32
  0
VERTEX
  8
0
  5
10EAC
 10
1.85423
 20
-3.50000
 30
-4.23823e-16
  70
    32
  0
VERTEX
  8
0
  5
10EAD
 10
1.92835
 20
-3.50000
 30
-4.40766e-16
  70
    32
  0
VERTEX
  8
0
  5
10EAE
 10
2.00351
 20
-3.50000
 30
-4.57945e-16
  70
    32
  0
VERTEX
  8
0
  5
10EAF
 10
2.07975
 20
-3.50000
 30
-4.75371e-16
  70
    32
  0
VERTEX
  8
0
  5
10EB0
 10
2.15713
 20
-3.50000
 30
-4.93058e-16
  70
    32
  0
VERTEX
  8
0
  5
10EB1
 10
2.23570
 20
-3.50000
 30
-5.11017e-16
  70
    32
  0
VERTEX
  8
0
  5
10EB2
 10
2.31553
 20
-3.50000
 30
-5.29264e-16
  70
    32
  0
VERTEX
  8
0
  5
10EB3
 10
2.39667
 20
-3.50000
 30
-5.47811e-16
  70
    32
  0
VERTEX
  8
0
  5
10EB4
 10
2.47920
 20
-3.50000
 30
-5.66674e-16
  70
    32
  0
VERTEX
  8
0
  5
10EB5
 10
2.56317
 20
-3.50000
 30
-5.85867e-16
  70
    32
  0
VERTEX
  8
0
  5
10EB6
 10
2.64866
 20
-3.50000
 30
-6.05408e-16
  70
    32
  0
VERTEX
  8
0
  5
10EB7
 10
2.73575
 20
-3.50000
 30
-6.25313e-16
  70
    32
  0
VERTEX
  8
0
  5
10EB8
 10
2.82450
 20
-3.50000
 30
-6.45600e-16
  70
    32
  0
VERTEX
  8
0
  5
10EB9
 10
2.91501
 20
-3.50000
 30
-6.66288e-16
  70
    32
  0
VERTEX
  8
0
  5
10EBA
 10
3.00736
 20
-3.50000
 30
-6.87395e-16
  70
    32
  0
VERTEX
  8
0
  5
10EBB
 10
3.10163
 20
-3.50000
 30
-7.08944e-16
  70
    32
  0
VERTEX
  8
0
  5
10EBC
 10
3.19793
 20
-3.50000
 30
-7.30955e-16
  70
    32
  0
VERTEX
  8
0
  5
10EBD
 10
3.29635
 20
-3.50000
 30
-7.53452e-16
  70
    32
  0
VERTEX
  8
0
  5
10EBE
 10
3.39700
 20
-3.50000
 30
-7.76458e-16
  70
    32
  0
VERTEX
  8
0
  5
10EBF
 10
3.50000
 20
-3.50000
 30
-8.00000e-16
  70
    32
  0
SEQEND
  8
0
  5
10EC0
  0
LINE
  5
10608
  8
0
  6
VERDECKT
 62
     1
 10
-3.4999999999999658
 20
-3.5000000000000662
 30
0.0
 11
-0.0000000000000058
 21
-0.0000000000001079
 31
0.0
  0
LINE
  5
10609
  8
0
  6
VERDECKT
 62
     1
 10
3.5000000000000311
 20
-3.5000000000000648
 30
0.0
 11
0.0000000000000671
 21
-0.000000000000099
 31
0.0
  0
LINE
  5
1060A
  8
0
  6
VERDECKT
 62
     1
 10
3.5000000000000302
 20
3.4999999999999321
 30
0.0
 11
0.0000000000000586
 21
-0.0000000000000417
 31
0.0
  0
LINE
  5
1060B
  8
0
  6
VERDECKT
 62
     1
 10
-3.4999999999999671
 20
3.4999999999999321
 30
0.0
 11
0.0000000000000013
 21
-0.0000000000000351
 31
0.0
  0
ENDBLK
  5
1060D
  8
0
  0
ENDSEC
  0
SECTION
  2
ENTITIES
  0
INSERT
  5
D70
  8
ADSK_ASSOC_ENTITY_BACKUPS
  2
*S0
 10
0.0
 20
0.0
 30
0.0
  0
LINE
  5
F6F3
  8
DEFPOINTS
  6
STRICHPUNKT
 62
     6
 10
-58.5
 20
0.0
 30
0.0
 11
58.5
 21
0.0
 31
0.0
  0
INSERT
  5
10507
  8
STEMPEL
  2
A$C3E7A49EC
 10
0.0
 20
0.0
 30
0.0
  0
INSERT
  5
105C5
  8
STEMPEL
  2
A$CCDA131D1
 10
100.0
 20
0.0
 30
0.0
  0
INSERT
  5
1060E
  8
STEMPEL
  2
A$C40CF2580
 10
0.0
 20
-200.0
 30
0.0
  0
VIEWPORT
  5
D51
 67
     1
  8
0
 10
104.798489603488207
 20
148.2441904602787872
 30
0.0
 40
558.8319832755776133
 41
298.5191815856778135
 68
     1
 69
     1
1001
ACAD
1000
MVIEW
1002
{
1070
    16
1010
0.0
1020
0.0
1030
0.0
1010
0.0
1020
0.0
1030
1.0
1040
0.0
1040
298.5191815856778135
1040
104.798489603488207
1040
148.2441904602787872
1040
50.0
1040
0.0
1040
0.0
1070
     0
1070
  1500
1070
     1
1070
     1
1070
     0
1070
     0
1070
     0
1070
     1
1040
0.0
1040
0.0
1040
0.0
1040
10.0
1040
10.0
1040
10.0
1040
10.0
1070
     0
1002
{
1002
}
1002
}
  0
ENDSEC
  0
EOF
