  0
SECTION
  2
HEADER
  9
$ACADVER
  1
AC1009
  9
$INSBASE
 10
0.0
 20
0.0
 30
0.0
  9
$EXTMIN
 10
-42.5000000000000426
 20
-135.0000000000001137
 30
-0.0000000000000158
  9
$EXTMAX
 10
42.6360551532336771
 20
71.3264229571486226
 30
0.0
  9
$LIMMIN
 10
0.0
 20
0.0
  9
$LIMMAX
 10
210.0
 20
297.0
  9
$ORTHOMODE
 70
     1
  9
$REGENMODE
 70
     1
  9
$FILLMODE
 70
     1
  9
$QTEXTMODE
 70
     0
  9
$MIRRTEXT
 70
     1
  9
$DRAGMODE
 70
     2
  9
$LTSCALE
 40
10.0
  9
$OSMODE
 70
  2559
  9
$ATTMODE
 70
     1
  9
$TEXTSIZE
 40
3.5
  9
$TRACEWID
 40
0.5
  9
$TEXTSTYLE
  7
STANDARD
  9
$CLAYER
  8
STEMPEL
  9
$CELTYPE
  6
BYLAYER
  9
$CECOLOR
 62
   256
  9
$DIMSCALE
 40
1.0
  9
$DIMASZ
 40
3.5
  9
$DIMEXO
 40
1.0
  9
$DIMDLI
 40
7.0
  9
$DIMRND
 40
0.0
  9
$DIMDLE
 40
0.0
  9
$DIMEXE
 40
1.0
  9
$DIMTP
 40
0.0
  9
$DIMTM
 40
0.0
  9
$DIMTXT
 40
3.5
  9
$DIMCEN
 40
1.5
  9
$DIMTSZ
 40
0.0
  9
$DIMTOL
 70
     0
  9
$DIMLIM
 70
     0
  9
$DIMTIH
 70
     0
  9
$DIMTOH
 70
     0
  9
$DIMSE1
 70
     0
  9
$DIMSE2
 70
     0
  9
$DIMTAD
 70
     1
  9
$DIMZIN
 70
     8
  9
$DIMBLK
  1

  9
$DIMASO
 70
     1
  9
$DIMSHO
 70
     0
  9
$DIMPOST
  1

  9
$DIMAPOST
  1

  9
$DIMALT
 70
     0
  9
$DIMALTD
 70
     2
  9
$DIMALTF
 40
25.3999999999999986
  9
$DIMLFAC
 40
1.0
  9
$DIMTOFL
 70
     1
  9
$DIMTVP
 40
0.0
  9
$DIMTIX
 70
     0
  9
$DIMSOXD
 70
     0
  9
$DIMSAH
 70
     0
  9
$DIMBLK1
  1

  9
$DIMBLK2
  1

  9
$DIMSTYLE
  2
STANDARD
  9
$DIMCLRD
 70
     0
  9
$DIMCLRE
 70
     0
  9
$DIMCLRT
 70
     1
  9
$DIMTFAC
 40
0.5
  9
$DIMGAP
 40
1.5
  9
$LUNITS
 70
     2
  9
$LUPREC
 70
     2
  9
$SKETCHINC
 40
1.0
  9
$FILLETRAD
 40
0.9
  9
$AUNITS
 70
     0
  9
$AUPREC
 70
     0
  9
$MENU
  1
ACAD
  9
$ELEVATION
 40
0.0
  9
$PELEVATION
 40
0.0
  9
$THICKNESS
 40
0.0
  9
$LIMCHECK
 70
     0
  9
$BLIPMODE
 70
     0
  9
$CHAMFERA
 40
0.0
  9
$CHAMFERB
 40
0.0
  9
$SKPOLY
 70
     0
  9
$TDCREATE
 40
2455397.8646990740671754
  9
$TDUPDATE
 40
2458379.3334143520332873
  9
$TDINDWG
 40
0.1409369792
  9
$TDUSRTIMER
 40
0.1409369792
  9
$USRTIMER
 70
     1
  9
$ANGBASE
 50
0.0
  9
$ANGDIR
 70
     0
  9
$PDMODE
 70
     0
  9
$PDSIZE
 40
0.0
  9
$PLINEWID
 40
0.0
  9
$COORDS
 70
     1
  9
$SPLFRAME
 70
     0
  9
$SPLINETYPE
 70
     6
  9
$SPLINESEGS
 70
     8
  9
$ATTDIA
 70
     1
  9
$ATTREQ
 70
     1
  9
$HANDLING
 70
     1
  9
$HANDSEED
  5
11F1
  9
$SURFTAB1
 70
     6
  9
$SURFTAB2
 70
     6
  9
$SURFTYPE
 70
     6
  9
$SURFU
 70
     6
  9
$SURFV
 70
     6
  9
$UCSNAME
  2

  9
$UCSORG
 10
0.0
 20
0.0
 30
0.0
  9
$UCSXDIR
 10
1.0
 20
0.0
 30
0.0
  9
$UCSYDIR
 10
0.0
 20
1.0
 30
0.0
  9
$PUCSNAME
  2

  9
$PUCSORG
 10
0.0
 20
0.0
 30
0.0
  9
$PUCSXDIR
 10
1.0
 20
0.0
 30
0.0
  9
$PUCSYDIR
 10
0.0
 20
1.0
 30
0.0
  9
$USERI1
 70
     0
  9
$USERI2
 70
     0
  9
$USERI3
 70
     0
  9
$USERI4
 70
     0
  9
$USERI5
 70
     0
  9
$USERR1
 40
0.0
  9
$USERR2
 40
0.0
  9
$USERR3
 40
0.0
  9
$USERR4
 40
0.0
  9
$USERR5
 40
0.0
  9
$WORLDVIEW
 70
     1
  9
$SHADEDGE
 70
     3
  9
$SHADEDIF
 70
    70
  9
$TILEMODE
 70
     1
  9
$MAXACTVP
 70
    16
  9
$PLIMCHECK
 70
     0
  9
$PEXTMIN
 10
-0.1427478827882957
 20
-0.1588347790367663
 30
-0.0000000000000058
  9
$PEXTMAX
 10
12.0171954712045608
 20
16.6757320992539917
 30
0.0000000000000104
  9
$PLIMMIN
 10
-0.2500002402958907
 20
-0.2499999962453767
  9
$PLIMMAX
 10
10.7499995194082203
 20
8.2499997634587334
  9
$UNITMODE
 70
     0
  9
$VISRETAIN
 70
     0
  9
$PLINEGEN
 70
     0
  9
$PSLTSCALE
 70
     0
  0
ENDSEC
  0
SECTION
  2
TABLES
  0
TABLE
  2
VPORT
 70
     1
  0
VPORT
  2
*ACTIVE
 70
     0
 10
0.0
 20
0.0
 11
1.0
 21
1.0
 12
0.0662236350075887
 22
-40.5888208058771625
 13
0.0
 23
0.0
 14
1.0
 24
1.0
 15
10.0
 25
10.0
 16
-0.0000000000000834
 26
0.0
 36
375.6015222608261865
 17
-0.0000000000000284
 27
8.75
 37
29.9999999999999716
 40
207.3855228210942983
 41
1.868197278911564
 42
50.0
 43
0.0
 44
0.0
 50
0.0
 51
0.0
 71
     0
 72
  1500
 73
     1
 74
     0
 75
     0
 76
     0
 77
     0
 78
     0
  0
ENDTAB
  0
TABLE
  2
LTYPE
 70
     3
  0
LTYPE
  2
CONTINUOUS
 70
     0
  3
Solid line
 72
    65
 73
     0
 40
0.0
  0
LTYPE
  2
PHANTOM2
 70
     0
  3
Phantom (.5x) ___ _ _ ___ _ _ ___ _ _ ___ _ _
 72
    65
 73
     6
 40
1.25
 49
0.625
 49
-0.125
 49
0.125
 49
-0.125
 49
0.125
 49
-0.125
  0
LTYPE
  2
VERDECKT
 70
     0
  3
_ _ _ _ _ _ _ _ _ _ _ _ _ _ _ _ _ _ _ _ _ _ _
 72
    65
 73
     2
 40
0.375
 49
0.25
 49
-0.125
  0
ENDTAB
  0
TABLE
  2
LAYER
 70
     4
  0
LAYER
  2
0
 70
     0
 62
     7
  6
CONTINUOUS
  0
LAYER
  2
VOLL
 70
     0
 62
     1
  6
CONTINUOUS
  0
LAYER
  2
STEMPEL
 70
     0
 62
     3
  6
CONTINUOUS
  0
LAYER
  2
DEFPOINTS
 70
     0
 62
     7
  6
CONTINUOUS
  0
ENDTAB
  0
TABLE
  2
STYLE
 70
     2
  0
STYLE
  2
STANDARD
 70
     0
 40
0.0
 41
0.8
 50
0.0
 71
     0
 42
3.5
  3
simplex.shx
  4

  0
STYLE
  2
GREEKS
 70
     0
 40
0.0
 41
0.8
 50
0.0
 71
     0
 42
2.5
  3
SIMPLEX.shx
  4

  0
ENDTAB
  0
TABLE
  2
VIEW
 70
     0
  0
ENDTAB
  0
TABLE
  2
UCS
 70
     0
  0
ENDTAB
  0
TABLE
  2
APPID
 70
    12
  0
APPID
  2
ACAD
 70
     0
  0
APPID
  2
ACAD_NAV_VCDISPLAY
 70
     0
  0
APPID
  2
ACAD_MLEADERVER
 70
     0
  0
APPID
  2
ACAD_EXEMPT_FROM_CAD_STANDARDS
 70
     0
  0
APPID
  2
ACADANNOMONITORALERTICONDI
 70
     0
  0
APPID
  2
ACAD_DSTYLE_DIMRADIAL_EXTENSION
 70
     0
  0
APPID
  2
ACAECLAYERSTANDARD
 70
     0
  0
APPID
  2
ACCMTRANSPARENCY
 70
     0
  0
APPID
  2
GRADIENTCOLOR1ACI
 70
     0
  0
APPID
  2
GRADIENTCOLOR2ACI
 70
     0
  0
APPID
  2
ACAD_PSEXT
 70
     0
  0
APPID
  2
ACAD_OBJECT_CHANGE_GUID
 70
     0
  0
ENDTAB
  0
TABLE
  2
DIMSTYLE
 70
     1
  0
DIMSTYLE
  2
STANDARD
 70
     0
  3

  4

  5

  6

  7

 40
1.0
 41
0.18
 42
0.0625
 43
0.38
 44
0.18
 45
0.0
 46
0.0
 47
0.0
 48
0.0
140
0.18
141
0.09
142
0.0
143
25.3999999999999986
144
1.0
145
0.0
146
1.0
147
0.09
 71
     0
 72
     0
 73
     1
 74
     1
 75
     0
 76
     0
 77
     0
 78
     0
170
     0
171
     2
172
     0
173
     0
174
     0
175
     0
176
     0
177
     0
178
     0
  0
ENDTAB
  0
ENDSEC
  0
SECTION
  2
BLOCKS
  0
BLOCK
  8
0
  2
$MODEL_SPACE
 70
     0
 10
0.0
 20
0.0
 30
0.0
  3
$MODEL_SPACE
  1

  0
ENDBLK
  5
36
  8
0
  0
BLOCK
 67
     1
  8
0
  2
$PAPER_SPACE
 70
     0
 10
0.0
 20
0.0
 30
0.0
  3
$PAPER_SPACE
  1

  0
ENDBLK
  5
34
 67
     1
  8
0
  0
BLOCK
  8
0
  2
A$C3D78429F
 70
     0
 10
0.0
 20
0.0
 30
0.0
  3
A$C3D78429F
  1

  0
LINE
  5
1164
  8
0
  6
CONTINUOUS
 62
     3
 10
-42.5
 20
54.9999999999999005
 30
-0.0000000000000122
 11
42.5
 21
54.9999999999999005
 31
-0.0000000000000122
210
0.0
220
1.0
230
-0.0000000000000002
  0
LINE
  5
1165
  8
0
  6
CONTINUOUS
 62
     3
 10
-35.0
 20
-0.0000000000000284
 30
0.0
 11
35.0
 21
-0.0000000000000284
 31
0.0
210
0.0
220
1.0
230
-0.0000000000000002
  0
ARC
  5
1166
  8
0
  6
CONTINUOUS
 62
     3
 10
0.0000000005856577
 20
-164.9999999937494977
 30
0.0
 40
224.9999999943350986
210
0.0
220
-0.0000000000000002
230
-1.0
 50
79.3020525404472068
 51
100.6979474598459063
  0
ARC
  5
1167
  8
0
  6
CONTINUOUS
 62
     3
 10
41.6000000000003709
 20
55.2050181081259765
 30
0.0
 40
0.8999999999996433
210
0.0
220
-0.0000000000000002
230
-1.0
 50
0.0
 51
79.3020525404552075
  0
ARC
  5
1168
  8
0
  6
CONTINUOUS
 62
     3
 10
-41.6000000000003709
 20
55.2050181081259765
 30
0.0
 40
0.8999999999996363
210
0.0
220
-0.0000000000000002
230
-1.0
 50
100.6979474595492974
 51
180.0000000000044906
  0
LINE
  5
1169
  8
0
  6
CONTINUOUS
 62
     3
 10
42.5
 20
55.2050181081259126
 30
-0.0000000000000123
 11
42.5
 21
54.9999999999999005
 31
-0.0000000000000122
210
0.0
220
1.0
230
-0.0000000000000002
  0
LINE
  5
116A
  8
0
  6
CONTINUOUS
 62
     3
 10
-42.5
 20
55.2050181081259126
 30
-0.0000000000000123
 11
-42.5
 21
54.9999999999999005
 31
-0.0000000000000122
210
0.0
220
1.0
230
-0.0000000000000002
  0
LINE
  5
116B
  8
0
  6
CONTINUOUS
 62
     3
 10
36.5
 20
54.9999999999999005
 30
-0.0000000000000122
 11
36.5
 21
1.4999999999999429
 31
-0.0000000000000003
210
0.0
220
1.0
230
-0.0000000000000002
  0
LINE
  5
116C
  8
0
  6
CONTINUOUS
 62
     3
 10
-36.5
 20
54.9999999999999005
 30
-0.0000000000000122
 11
-36.5
 21
1.4999999999999429
 31
-0.0000000000000003
210
0.0
220
1.0
230
-0.0000000000000002
  0
ARC
  5
116D
  8
0
  6
CONTINUOUS
 62
     3
 10
35.0000000000000568
 20
1.4999999999999121
 30
0.0
 40
1.49999999999994
210
0.0
220
-0.0000000000000002
230
-1.0
 50
270.0
 51
0.0000000000033841
  0
ARC
  5
116E
  8
0
  6
CONTINUOUS
 62
     3
 10
-35.0000000000000568
 20
1.499999999999911
 30
0.0
 40
1.4999999999999429
210
0.0
220
-0.0000000000000002
230
-1.0
 50
179.9999999999988063
 51
270.0000000000021032
  0
LINE
  5
116F
  8
0
  6
VERDECKT
 62
     1
 10
33.5614485854565601
 20
53.769574527688647
 30
-0.0000000000000119
 11
34.5
 21
-0.0000000000000639
 31
0.0
210
0.0
220
1.0
230
-0.0000000000000002
  0
LINE
  5
1170
  8
0
  6
VERDECKT
 62
     1
 10
-33.5614485854565601
 20
53.769574527688647
 30
-0.0000000000000119
 11
-34.5
 21
-0.0000000000000639
 31
0.0
210
0.0
220
1.0
230
-0.0000000000000002
  0
ARC
  5
1171
  8
0
  6
VERDECKT
 62
     1
 10
31.5617531951437584
 20
53.7346697148141388
 30
0.0
 40
2.0000000000000209
210
0.0
220
-0.0000000000000002
230
-1.0
 50
0.999999999998106
 51
81.7893236929976837
  0
ARC
  5
1172
  8
0
  6
VERDECKT
 62
     1
 10
-31.5617531951437584
 20
53.7346697148141388
 30
0.0
 40
2.000000000000012
210
0.0
220
-0.0000000000000002
230
-1.0
 50
98.2106763070023163
 51
179.0000000000019043
  0
ARC
  5
1173
  8
0
  6
VERDECKT
 62
     1
 10
-0.0000000000018296
 20
-165.0000000000200941
 30
0.0
 40
223.0000000000219131
210
0.0
220
-0.0000000000000002
230
-1.0
 50
81.7893236929985932
 51
98.2106763070004689
  0
ENDBLK
  5
1175
  8
0
  0
BLOCK
  8
0
  2
A$C261C0D0C
 70
     0
 10
0.0
 20
0.0
 30
0.0
  3
A$C261C0D0C
  1

  0
CIRCLE
  5
1179
  8
0
  6
CONTINUOUS
 62
     3
 10
0.0000000000000123
 20
0.0000000000000161
 30
0.0
 40
42.5000000000000568
  0
CIRCLE
  5
117A
  8
0
  6
VERDECKT
 62
     1
 10
0.0000000000000122
 20
0.0000000000000161
 30
0.0
 40
36.5
  0
CIRCLE
  5
117B
  8
0
  6
VERDECKT
 62
     1
 10
0.0
 20
0.0000000000000127
 30
0.0
 40
34.5
  0
ENDBLK
  5
117D
  8
0
  0
ENDSEC
  0
SECTION
  2
ENTITIES
  0
TEXT
  5
8F
  8
VOLL
 10
78.076754716981128
 20
31.025947764705851
 30
0.0
 40
1.8
  1

  7
GREEKS
  0
INSERT
  5
1176
  8
STEMPEL
  2
A$C3D78429F
 10
0.0
 20
0.0
 30
0.0
  0
INSERT
  5
117E
  8
STEMPEL
  2
A$C261C0D0C
 10
0.0
 20
-92.5000000000000995
 30
0.0
  0
VIEWPORT
  5
69C
 67
     1
  8
0
 10
5.9371293544102821
 20
8.2583187898846422
 30
0.0
 40
33.2272908328569088
 41
16.9666578024348986
 68
     1
 69
     1
1001
ACAD
1000
MVIEW
1002
{
1070
    16
1010
0.0
1020
0.0
1030
0.0
1010
0.0
1020
0.0
1030
1.0
1040
0.0
1040
16.9666578024348986
1040
5.9371293544102821
1040
8.2583187898846422
1040
50.0
1040
0.0
1040
0.0
1070
     0
1070
  1500
1070
     1
1070
     1
1070
     0
1070
     0
1070
     0
1070
     0
1040
0.0
1040
0.0
1040
0.0
1040
10.0
1040
10.0
1040
10.0
1040
10.0
1070
     0
1002
{
1002
}
1002
}
  0
VIEWPORT
  5
6A1
 67
     1
  8
DEFPOINTS
 10
5.9372978602341169
 20
8.258630538344061
 30
0.0
 40
12.1586719838301391
 41
16.832653327735791
 68
     2
 69
     2
1001
ACAD
1000
MVIEW
1002
{
1070
    16
1010
0.0
1020
0.0
1030
0.0
1010
0.0
1020
0.0
1030
1.0
1040
0.0
1040
310.1524450258613115
1040
106.3019410091317951
1040
148.793502067557796
1040
50.0
1040
0.0
1040
0.0
1070
     0
1070
  1500
1070
     1
1070
     0
1070
     0
1070
     0
1070
     0
1070
     0
1040
0.0
1040
0.0
1040
0.0
1040
1.0
1040
1.0
1040
10.0
1040
10.0
1070
     0
1002
{
1002
}
1002
}
  0
VIEWPORT
  5
6A5
 67
     1
  8
DEFPOINTS
 10
9.1208011091111416
 20
6.0689773318846489
 30
0.0
 40
4.1455201476666721
 41
3.791109207410265
 68
     3
 69
     3
1001
ACAD
1000
MVIEW
1002
{
1070
    16
1010
340.1395665137367814
1020
136.3609171834604012
1030
3.2659548774250982
1010
0.0
1020
-38.0600164545447228
1030
148.0464993759003107
1040
0.0000000000000007
1040
86.6537103759827261
1040
0.0
1040
0.0
1040
50.0
1040
0.0
1040
0.0
1070
     0
1070
  1500
1070
     1
1070
     0
1070
     0
1070
     0
1070
     0
1070
     0
1040
0.0
1040
0.0
1040
0.0
1040
1.0
1040
1.0
1040
10.0
1040
10.0
1070
     0
1002
{
1002
}
1002
}
  0
ENDSEC
  0
EOF
