  0
SECTION
  2
HEADER
  9
$ACADVER
  1
AC1009
  9
$INSBASE
 10
0.0
 20
0.0
 30
0.0
  9
$EXTMIN
 10
-25.0000000000001386
 20
-100.0000000000000995
 30
-0.0000000000000095
  9
$EXTMAX
 10
25.1836547291094988
 20
42.9203216317437679
 30
0.0
  9
$LIMMIN
 10
0.0
 20
0.0
  9
$LIMMAX
 10
210.0
 20
297.0
  9
$ORTHOMODE
 70
     1
  9
$REGENMODE
 70
     1
  9
$FILLMODE
 70
     1
  9
$QTEXTMODE
 70
     0
  9
$MIRRTEXT
 70
     1
  9
$DRAGMODE
 70
     2
  9
$LTSCALE
 40
10.0
  9
$OSMODE
 70
  2559
  9
$ATTMODE
 70
     1
  9
$TEXTSIZE
 40
3.5
  9
$TRACEWID
 40
0.5
  9
$TEXTSTYLE
  7
STANDARD
  9
$CLAYER
  8
STEMPEL
  9
$CELTYPE
  6
BYLAYER
  9
$CECOLOR
 62
   256
  9
$DIMSCALE
 40
1.0
  9
$DIMASZ
 40
3.5
  9
$DIMEXO
 40
1.0
  9
$DIMDLI
 40
7.0
  9
$DIMRND
 40
0.0
  9
$DIMDLE
 40
0.0
  9
$DIMEXE
 40
1.0
  9
$DIMTP
 40
0.0
  9
$DIMTM
 40
0.0
  9
$DIMTXT
 40
3.5
  9
$DIMCEN
 40
1.5
  9
$DIMTSZ
 40
0.0
  9
$DIMTOL
 70
     0
  9
$DIMLIM
 70
     0
  9
$DIMTIH
 70
     0
  9
$DIMTOH
 70
     0
  9
$DIMSE1
 70
     0
  9
$DIMSE2
 70
     0
  9
$DIMTAD
 70
     1
  9
$DIMZIN
 70
     8
  9
$DIMBLK
  1

  9
$DIMASO
 70
     1
  9
$DIMSHO
 70
     0
  9
$DIMPOST
  1

  9
$DIMAPOST
  1

  9
$DIMALT
 70
     0
  9
$DIMALTD
 70
     2
  9
$DIMALTF
 40
25.3999999999999986
  9
$DIMLFAC
 40
1.0
  9
$DIMTOFL
 70
     1
  9
$DIMTVP
 40
0.0
  9
$DIMTIX
 70
     0
  9
$DIMSOXD
 70
     0
  9
$DIMSAH
 70
     0
  9
$DIMBLK1
  1

  9
$DIMBLK2
  1

  9
$DIMSTYLE
  2
STANDARD
  9
$DIMCLRD
 70
     0
  9
$DIMCLRE
 70
     0
  9
$DIMCLRT
 70
     1
  9
$DIMTFAC
 40
0.5
  9
$DIMGAP
 40
1.5
  9
$LUNITS
 70
     2
  9
$LUPREC
 70
     2
  9
$SKETCHINC
 40
1.0
  9
$FILLETRAD
 40
1.0
  9
$AUNITS
 70
     0
  9
$AUPREC
 70
     0
  9
$MENU
  1
ACAD
  9
$ELEVATION
 40
0.0
  9
$PELEVATION
 40
0.0
  9
$THICKNESS
 40
0.0
  9
$LIMCHECK
 70
     0
  9
$BLIPMODE
 70
     0
  9
$CHAMFERA
 40
0.0
  9
$CHAMFERB
 40
0.0
  9
$SKPOLY
 70
     0
  9
$TDCREATE
 40
2455397.8646990740671754
  9
$TDUPDATE
 40
2458379.3102199072018266
  9
$TDINDWG
 40
0.0579728009
  9
$TDUSRTIMER
 40
0.0579728009
  9
$USRTIMER
 70
     1
  9
$ANGBASE
 50
0.0
  9
$ANGDIR
 70
     0
  9
$PDMODE
 70
     0
  9
$PDSIZE
 40
0.0
  9
$PLINEWID
 40
0.0
  9
$COORDS
 70
     1
  9
$SPLFRAME
 70
     0
  9
$SPLINETYPE
 70
     6
  9
$SPLINESEGS
 70
     8
  9
$ATTDIA
 70
     1
  9
$ATTREQ
 70
     1
  9
$HANDLING
 70
     1
  9
$HANDSEED
  5
C1D
  9
$SURFTAB1
 70
     6
  9
$SURFTAB2
 70
     6
  9
$SURFTYPE
 70
     6
  9
$SURFU
 70
     6
  9
$SURFV
 70
     6
  9
$UCSNAME
  2

  9
$UCSORG
 10
0.0
 20
0.0
 30
0.0
  9
$UCSXDIR
 10
1.0
 20
0.0
 30
0.0
  9
$UCSYDIR
 10
0.0
 20
1.0
 30
0.0
  9
$PUCSNAME
  2

  9
$PUCSORG
 10
0.0
 20
0.0
 30
0.0
  9
$PUCSXDIR
 10
1.0
 20
0.0
 30
0.0
  9
$PUCSYDIR
 10
0.0
 20
1.0
 30
0.0
  9
$USERI1
 70
     0
  9
$USERI2
 70
     0
  9
$USERI3
 70
     0
  9
$USERI4
 70
     0
  9
$USERI5
 70
     0
  9
$USERR1
 40
0.0
  9
$USERR2
 40
0.0
  9
$USERR3
 40
0.0
  9
$USERR4
 40
0.0
  9
$USERR5
 40
0.0
  9
$WORLDVIEW
 70
     1
  9
$SHADEDGE
 70
     3
  9
$SHADEDIF
 70
    70
  9
$TILEMODE
 70
     1
  9
$MAXACTVP
 70
    16
  9
$PLIMCHECK
 70
     0
  9
$PEXTMIN
 10
-0.1427427568529112
 20
-0.1588354996385348
 30
-0.0000000000000053
  9
$PEXTMAX
 10
12.0168458310472506
 20
16.6755983123488889
 30
0.0000000000000099
  9
$PLIMMIN
 10
-0.2500002402958907
 20
-0.2499999962453767
  9
$PLIMMAX
 10
10.7499995194082203
 20
8.2499997634587334
  9
$UNITMODE
 70
     0
  9
$VISRETAIN
 70
     0
  9
$PLINEGEN
 70
     0
  9
$PSLTSCALE
 70
     0
  0
ENDSEC
  0
SECTION
  2
TABLES
  0
TABLE
  2
VPORT
 70
     1
  0
VPORT
  2
*ACTIVE
 70
     0
 10
0.0
 20
0.0
 11
1.0
 21
1.0
 12
18.3218883432979602
 22
-33.1618738336487908
 13
0.0
 23
0.0
 14
1.0
 24
1.0
 15
10.0
 25
10.0
 16
-0.0000000000000486
 26
0.0
 36
218.6684967721456871
 17
-0.0000000000000284
 27
4.7476024627685538
 37
17.2499999999999893
 40
140.2408330570385999
 41
1.868197278911564
 42
50.0
 43
0.0
 44
0.0
 50
0.0
 51
0.0
 71
     0
 72
  1500
 73
     1
 74
     0
 75
     0
 76
     0
 77
     0
 78
     0
  0
ENDTAB
  0
TABLE
  2
LTYPE
 70
     3
  0
LTYPE
  2
CONTINUOUS
 70
     0
  3
Solid line
 72
    65
 73
     0
 40
0.0
  0
LTYPE
  2
PHANTOM2
 70
     0
  3
Phantom (.5x) ___ _ _ ___ _ _ ___ _ _ ___ _ _
 72
    65
 73
     6
 40
1.25
 49
0.625
 49
-0.125
 49
0.125
 49
-0.125
 49
0.125
 49
-0.125
  0
LTYPE
  2
VERDECKT
 70
     0
  3
_ _ _ _ _ _ _ _ _ _ _ _ _ _ _ _ _ _ _ _ _ _ _
 72
    65
 73
     2
 40
0.375
 49
0.25
 49
-0.125
  0
ENDTAB
  0
TABLE
  2
LAYER
 70
     4
  0
LAYER
  2
0
 70
     0
 62
     7
  6
CONTINUOUS
  0
LAYER
  2
VOLL
 70
     0
 62
     1
  6
CONTINUOUS
  0
LAYER
  2
STEMPEL
 70
     0
 62
     3
  6
CONTINUOUS
  0
LAYER
  2
DEFPOINTS
 70
     0
 62
     7
  6
CONTINUOUS
  0
ENDTAB
  0
TABLE
  2
STYLE
 70
     2
  0
STYLE
  2
STANDARD
 70
     0
 40
0.0
 41
0.8
 50
0.0
 71
     0
 42
3.5
  3
simplex.shx
  4

  0
STYLE
  2
GREEKS
 70
     0
 40
0.0
 41
0.8
 50
0.0
 71
     0
 42
2.5
  3
SIMPLEX.shx
  4

  0
ENDTAB
  0
TABLE
  2
VIEW
 70
     0
  0
ENDTAB
  0
TABLE
  2
UCS
 70
     0
  0
ENDTAB
  0
TABLE
  2
APPID
 70
    12
  0
APPID
  2
ACAD
 70
     0
  0
APPID
  2
ACAD_NAV_VCDISPLAY
 70
     0
  0
APPID
  2
ACAD_MLEADERVER
 70
     0
  0
APPID
  2
ACAD_EXEMPT_FROM_CAD_STANDARDS
 70
     0
  0
APPID
  2
ACADANNOMONITORALERTICONDI
 70
     0
  0
APPID
  2
ACAD_DSTYLE_DIMRADIAL_EXTENSION
 70
     0
  0
APPID
  2
ACAECLAYERSTANDARD
 70
     0
  0
APPID
  2
ACCMTRANSPARENCY
 70
     0
  0
APPID
  2
GRADIENTCOLOR1ACI
 70
     0
  0
APPID
  2
GRADIENTCOLOR2ACI
 70
     0
  0
APPID
  2
ACAD_PSEXT
 70
     0
  0
APPID
  2
ACAD_OBJECT_CHANGE_GUID
 70
     0
  0
ENDTAB
  0
TABLE
  2
DIMSTYLE
 70
     1
  0
DIMSTYLE
  2
STANDARD
 70
     0
  3

  4

  5

  6

  7

 40
1.0
 41
0.18
 42
0.0625
 43
0.38
 44
0.18
 45
0.0
 46
0.0
 47
0.0
 48
0.0
140
0.18
141
0.09
142
0.0
143
25.3999999999999986
144
1.0
145
0.0
146
1.0
147
0.09
 71
     0
 72
     0
 73
     1
 74
     1
 75
     0
 76
     0
 77
     0
 78
     0
170
     0
171
     2
172
     0
173
     0
174
     0
175
     0
176
     0
177
     0
178
     0
  0
ENDTAB
  0
ENDSEC
  0
SECTION
  2
BLOCKS
  0
BLOCK
  8
0
  2
$MODEL_SPACE
 70
     0
 10
0.0
 20
0.0
 30
0.0
  3
$MODEL_SPACE
  1

  0
ENDBLK
  5
36
  8
0
  0
BLOCK
 67
     1
  8
0
  2
$PAPER_SPACE
 70
     0
 10
0.0
 20
0.0
 30
0.0
  3
$PAPER_SPACE
  1

  0
ENDBLK
  5
34
 67
     1
  8
0
  0
BLOCK
  8
0
  2
A$C0EDE5F78
 70
     0
 10
0.0
 20
0.0
 30
0.0
  3
A$C0EDE5F78
  1

  0
LINE
  5
B90
  8
0
  6
CONTINUOUS
 62
     3
 10
-25.0
 20
30.0000000000000213
 30
-0.0000000000000067
 11
25.0000000000000107
 21
30.0
 31
-0.0000000000000067
210
0.0000000000000002
220
1.0
230
-0.0000000000000002
  0
LINE
  5
B91
  8
0
  6
CONTINUOUS
 62
     3
 10
-19.5
 20
0.0000000000000043
 30
0.0
 11
19.5
 21
-0.0000000000000043
 31
0.0
210
0.0000000000000002
220
1.0
230
-0.0000000000000002
  0
ARC
  5
B92
  8
0
  6
CONTINUOUS
 62
     3
 10
0.0000000000395971
 20
-65.4999999996774136
 30
0.0
 40
99.999999999717005
210
0.0
220
-0.0000000000000002
230
-1.0
 50
75.9703345986880691
 51
104.0296654013558992
  0
ARC
  5
B93
  8
0
  6
CONTINUOUS
 62
     3
 10
24.0000000000002309
 20
30.546863561492831
 30
0.0
 40
0.9999999999998223
210
0.0
220
-0.0000000000000002
230
-1.0
 50
359.9999999999948841
 51
75.9703345986916929
  0
ARC
  5
B94
  8
0
  6
CONTINUOUS
 62
     3
 10
-24.0000000000002416
 20
30.5468635614928203
 30
0.0
 40
0.9999999999998243
210
0.0
220
-0.0000000000000002
230
-1.0
 50
104.0296654013083071
 51
180.0000000000050022
  0
LINE
  5
B95
  8
0
  6
CONTINUOUS
 62
     3
 10
25.0000000000000107
 20
30.5468635614927315
 30
-0.0000000000000068
 11
25.0000000000000107
 21
30.0
 31
-0.0000000000000067
210
0.0000000000000002
220
1.0
230
-0.0000000000000002
  0
LINE
  5
B96
  8
0
  6
CONTINUOUS
 62
     3
 10
-25.0
 20
30.5468635614927386
 30
-0.0000000000000068
 11
-25.0
 21
30.0000000000000213
 31
-0.0000000000000067
210
0.0000000000000002
220
1.0
230
-0.0000000000000002
  0
LINE
  5
B97
  8
0
  6
CONTINUOUS
 62
     3
 10
21.0000000000000107
 20
29.9999999999999787
 30
-0.0000000000000067
 11
21.0
 21
1.4999999999999949
 31
-0.0000000000000003
210
0.0000000000000002
220
1.0
230
-0.0000000000000002
  0
LINE
  5
B98
  8
0
  6
CONTINUOUS
 62
     3
 10
-20.9999999999999893
 20
29.9999999999999787
 30
-0.0000000000000067
 11
-21.0
 21
1.5000000000000051
 31
-0.0000000000000003
210
0.0000000000000002
220
1.0
230
-0.0000000000000002
  0
ARC
  5
B99
  8
0
  6
CONTINUOUS
 62
     3
 10
19.5
 20
1.5000000000000011
 30
0.0
 40
1.4999999999999969
210
0.0
220
-0.0000000000000002
230
-1.0
 50
270.0
 51
0.0000000000002417
  0
ARC
  5
B9A
  8
0
  6
CONTINUOUS
 62
     3
 10
-19.5
 20
1.4999999999999929
 30
0.0
 40
1.499999999999996
210
0.0
220
-0.0000000000000002
230
-1.0
 50
179.9999999999998863
 51
270.0000000000002274
  0
LINE
  5
B9B
  8
0
  6
VERDECKT
 62
     1
 10
18.9774196411710889
 20
29.9386087063011885
 30
-0.0000000000000066
 11
19.5
 21
-0.0000000000000043
 31
0.0
210
0.0000000000000002
220
1.0
230
-0.0000000000000002
  0
LINE
  5
B9C
  8
0
  6
VERDECKT
 62
     1
 10
-18.9774196411710712
 20
29.9386087063011885
 30
-0.0000000000000066
 11
-19.5
 21
0.0000000000000043
 31
0.0
210
0.0000000000000002
220
1.0
230
-0.0000000000000002
  0
ARC
  5
B9D
  8
0
  6
VERDECKT
 62
     1
 10
17.4776480984364717
 20
29.9124300966452807
 30
0.0
 40
1.5000000000000151
210
0.0
220
-0.0000000000000002
230
-1.0
 50
0.9999999999994797
 51
79.619642577132737
  0
ARC
  5
B9E
  8
0
  6
VERDECKT
 62
     1
 10
-17.4776480984364788
 20
29.9124300966452807
 30
0.0
 40
1.5000000000000151
210
0.0
220
-0.0000000000000002
230
-1.0
 50
100.3803574228673057
 51
179.0000000000005116
  0
ARC
  5
B9F
  8
0
  6
VERDECKT
 62
     1
 10
-0.0000000000813373
 20
-65.5000000008978276
 30
0.0
 40
98.5000000009791563
210
0.0
220
-0.0000000000000002
230
-1.0
 50
79.6196425771325664
 51
100.3803574227742956
  0
ENDBLK
  5
BA1
  8
0
  0
BLOCK
  8
0
  2
A$C5A143D8E
 70
     0
 10
0.0
 20
0.0
 30
0.0
  3
A$C5A143D8E
  1

  0
CIRCLE
  5
BA5
  8
0
  6
CONTINUOUS
 62
     3
 10
0.0000000000000068
 20
0.0000000000000084
 30
0.0
 40
25.0000000000000604
  0
CIRCLE
  5
BA6
  8
0
  6
VERDECKT
 62
     1
 10
0.0000000000000067
 20
0.0000000000000084
 30
0.0
 40
21.0000000000000604
  0
CIRCLE
  5
BA7
  8
0
  6
VERDECKT
 62
     1
 10
0.0
 20
0.0000000000000065
 30
0.0
 40
19.5
  0
ENDBLK
  5
BA9
  8
0
  0
ENDSEC
  0
SECTION
  2
ENTITIES
  0
TEXT
  5
8F
  8
VOLL
 10
78.076754716981128
 20
31.025947764705851
 30
0.0
 40
1.8
  1

  7
GREEKS
  0
INSERT
  5
BA2
  8
STEMPEL
  2
A$C0EDE5F78
 10
0.0
 20
0.0
 30
0.0
  0
INSERT
  5
BAA
  8
STEMPEL
  2
A$C5A143D8E
 10
-0.0000000000000056
 20
-75.0000000000000568
 30
0.0
  0
VIEWPORT
  5
69C
 67
     1
  8
0
 10
5.9372864048197949
 20
8.2586975350960792
 30
0.0
 40
33.2285811067597123
 41
16.9673166474755703
 68
     1
 69
     1
1001
ACAD
1000
MVIEW
1002
{
1070
    16
1010
0.0
1020
0.0
1030
0.0
1010
0.0
1020
0.0
1030
1.0
1040
0.0
1040
16.9673166474755703
1040
5.9372864048197949
1040
8.2586975350960792
1040
50.0
1040
0.0
1040
0.0
1070
     0
1070
  1500
1070
     1
1070
     1
1070
     0
1070
     0
1070
     0
1070
     0
1040
0.0
1040
0.0
1040
0.0
1040
10.0
1040
10.0
1040
10.0
1040
10.0
1070
     0
1002
{
1002
}
1002
}
  0
VIEWPORT
  5
6A1
 67
     1
  8
DEFPOINTS
 10
5.9372978602341169
 20
8.258630538344061
 30
0.0
 40
12.1586719838301391
 41
16.832653327735791
 68
     2
 69
     2
1001
ACAD
1000
MVIEW
1002
{
1070
    16
1010
0.0
1020
0.0
1030
0.0
1010
0.0
1020
0.0
1030
1.0
1040
0.0
1040
310.1524450258613115
1040
106.3019410091317951
1040
148.793502067557796
1040
50.0
1040
0.0
1040
0.0
1070
     0
1070
  1500
1070
     1
1070
     0
1070
     0
1070
     0
1070
     0
1070
     0
1040
0.0
1040
0.0
1040
0.0
1040
1.0
1040
1.0
1040
10.0
1040
10.0
1070
     0
1002
{
1002
}
1002
}
  0
VIEWPORT
  5
6A5
 67
     1
  8
DEFPOINTS
 10
9.1096442842070289
 20
6.4673587085840882
 30
0.0
 40
2.84399143006216
 41
2.7981190456060041
 68
     3
 69
     3
1001
ACAD
1000
MVIEW
1002
{
1070
    16
1010
340.1111887748058962
1020
123.1348282763253934
1030
-0.134227927010529
1010
0.0
1020
-38.1747586682759632
1030
148.4928255905471985
1040
0.0000000000000007
1040
50.9860080832359799
1040
0.0
1040
0.0
1040
50.0
1040
0.0
1040
0.0
1070
     0
1070
  1500
1070
     1
1070
     0
1070
     0
1070
     0
1070
     0
1070
     0
1040
0.0
1040
0.0
1040
0.0
1040
1.0
1040
1.0
1040
10.0
1040
10.0
1070
     0
1002
{
1002
}
1002
}
  0
ENDSEC
  0
EOF
