  0
SECTION
  2
HEADER
  9
$ACADVER
  1
AC1009
  9
$INSBASE
 10
0.0
 20
0.0
 30
0.0
  9
$EXTMIN
 10
-90.5032185475764663
 20
-90.5068191249056326
 30
1.9992478109875971
  9
$EXTMAX
 10
90.8283851970350042
 20
171.2458801906834083
 30
2.0021072323375502
  9
$LIMMIN
 10
0.0
 20
0.0
  9
$LIMMAX
 10
419.9999999999998863
 20
594.0
  9
$ORTHOMODE
 70
     1
  9
$REGENMODE
 70
     1
  9
$FILLMODE
 70
     1
  9
$QTEXTMODE
 70
     0
  9
$MIRRTEXT
 70
     1
  9
$DRAGMODE
 70
     2
  9
$LTSCALE
 40
20.0
  9
$OSMODE
 70
  1327
  9
$ATTMODE
 70
     1
  9
$TEXTSIZE
 40
3.5
  9
$TRACEWID
 40
0.5
  9
$TEXTSTYLE
  7
STANDARD
  9
$CLAYER
  8
0
  9
$CELTYPE
  6
BYLAYER
  9
$CECOLOR
 62
   256
  9
$DIMSCALE
 40
2.0
  9
$DIMASZ
 40
3.5
  9
$DIMEXO
 40
1.0
  9
$DIMDLI
 40
7.0
  9
$DIMRND
 40
0.0
  9
$DIMDLE
 40
0.0
  9
$DIMEXE
 40
1.0
  9
$DIMTP
 40
0.6
  9
$DIMTM
 40
0.6
  9
$DIMTXT
 40
3.5
  9
$DIMCEN
 40
1.5
  9
$DIMTSZ
 40
0.0
  9
$DIMTOL
 70
     0
  9
$DIMLIM
 70
     0
  9
$DIMTIH
 70
     0
  9
$DIMTOH
 70
     0
  9
$DIMSE1
 70
     0
  9
$DIMSE2
 70
     0
  9
$DIMTAD
 70
     1
  9
$DIMZIN
 70
     8
  9
$DIMBLK
  1

  9
$DIMASO
 70
     1
  9
$DIMSHO
 70
     0
  9
$DIMPOST
  1

  9
$DIMAPOST
  1

  9
$DIMALT
 70
     0
  9
$DIMALTD
 70
     2
  9
$DIMALTF
 40
25.3999999999999986
  9
$DIMLFAC
 40
1.0
  9
$DIMTOFL
 70
     1
  9
$DIMTVP
 40
0.0
  9
$DIMTIX
 70
     0
  9
$DIMSOXD
 70
     0
  9
$DIMSAH
 70
     0
  9
$DIMBLK1
  1

  9
$DIMBLK2
  1

  9
$DIMSTYLE
  2
STANDARD
  9
$DIMCLRD
 70
     0
  9
$DIMCLRE
 70
     0
  9
$DIMCLRT
 70
     1
  9
$DIMTFAC
 40
0.5142857142857143
  9
$DIMGAP
 40
1.5
  9
$LUNITS
 70
     2
  9
$LUPREC
 70
     2
  9
$SKETCHINC
 40
1.0
  9
$FILLETRAD
 40
0.0
  9
$AUNITS
 70
     0
  9
$AUPREC
 70
     0
  9
$MENU
  1
ACAD
  9
$ELEVATION
 40
0.0
  9
$PELEVATION
 40
0.0
  9
$THICKNESS
 40
0.0
  9
$LIMCHECK
 70
     0
  9
$BLIPMODE
 70
     0
  9
$CHAMFERA
 40
0.0
  9
$CHAMFERB
 40
0.0
  9
$SKPOLY
 70
     0
  9
$TDCREATE
 40
2451729.3350462969392538
  9
$TDUPDATE
 40
2458387.5922916671261191
  9
$TDINDWG
 40
0.1232037384
  9
$TDUSRTIMER
 40
0.1232037384
  9
$USRTIMER
 70
     1
  9
$ANGBASE
 50
0.0
  9
$ANGDIR
 70
     0
  9
$PDMODE
 70
     0
  9
$PDSIZE
 40
0.0
  9
$PLINEWID
 40
0.0
  9
$COORDS
 70
     1
  9
$SPLFRAME
 70
     0
  9
$SPLINETYPE
 70
     6
  9
$SPLINESEGS
 70
     8
  9
$ATTDIA
 70
     0
  9
$ATTREQ
 70
     0
  9
$HANDLING
 70
     1
  9
$HANDSEED
  5
1496
  9
$SURFTAB1
 70
     6
  9
$SURFTAB2
 70
     6
  9
$SURFTYPE
 70
     6
  9
$SURFU
 70
     6
  9
$SURFV
 70
     6
  9
$UCSNAME
  2

  9
$UCSORG
 10
0.0
 20
0.0
 30
0.0
  9
$UCSXDIR
 10
1.0
 20
0.0
 30
0.0
  9
$UCSYDIR
 10
0.0
 20
1.0
 30
0.0
  9
$PUCSNAME
  2

  9
$PUCSORG
 10
0.0
 20
0.0
 30
0.0
  9
$PUCSXDIR
 10
1.0
 20
0.0
 30
0.0
  9
$PUCSYDIR
 10
0.0
 20
1.0
 30
0.0
  9
$USERI1
 70
     0
  9
$USERI2
 70
     0
  9
$USERI3
 70
     0
  9
$USERI4
 70
     0
  9
$USERI5
 70
     0
  9
$USERR1
 40
0.0
  9
$USERR2
 40
0.0
  9
$USERR3
 40
0.0
  9
$USERR4
 40
0.0
  9
$USERR5
 40
0.0
  9
$WORLDVIEW
 70
     1
  9
$SHADEDGE
 70
     3
  9
$SHADEDIF
 70
    70
  9
$TILEMODE
 70
     1
  9
$MAXACTVP
 70
    16
  9
$PLIMCHECK
 70
     0
  9
$PEXTMIN
 10
-0.1378786349720507
 20
-0.1883066882989794
 30
-0.0000000000112498
  9
$PEXTMAX
 10
7.4580226843897881
 20
10.30680003001555
 30
0.0000000000002956
  9
$PLIMMIN
 10
-0.2500002402958907
 20
-0.2499999962453767
  9
$PLIMMAX
 10
10.7499995194082203
 20
8.2499997634587334
  9
$UNITMODE
 70
     0
  9
$VISRETAIN
 70
     0
  9
$PLINEGEN
 70
     0
  9
$PSLTSCALE
 70
     0
  0
ENDSEC
  0
SECTION
  2
TABLES
  0
TABLE
  2
VPORT
 70
     1
  0
VPORT
  2
*ACTIVE
 70
     0
 10
0.0
 20
0.0
 11
1.0
 21
1.0
 12
0.1625831622409919
 22
40.369530532888902
 13
0.0
 23
0.0
 14
1.0
 24
1.0
 15
10.0
 25
10.0
 16
-0.0000000000001465
 26
0.0
 36
659.9550376151453293
 17
0.0000001624882486
 27
0.0
 37
17.5000000000000107
 40
263.7109489364040087
 41
1.8514357053682891
 42
50.0
 43
0.0
 44
0.0
 50
0.0
 51
0.0
 71
     0
 72
  1500
 73
     1
 74
     0
 75
     0
 76
     0
 77
     0
 78
     0
  0
ENDTAB
  0
TABLE
  2
LTYPE
 70
     3
  0
LTYPE
  2
CONTINUOUS
 70
     0
  3
Solid line
 72
    65
 73
     0
 40
0.0
  0
LTYPE
  2
VERDECKT
 70
     0
  3
Verdeckt __ __ __ __ __ __ __ __ __ __ __ __ __
 72
    65
 73
     2
 40
0.375
 49
0.25
 49
-0.125
  0
ENDTAB
  0
TABLE
  2
LAYER
 70
    10
  0
LAYER
  2
0
 70
     0
 62
     7
  6
CONTINUOUS
  0
LAYER
  2
DEFPOINTS
 70
     0
 62
     7
  6
CONTINUOUS
  0
LAYER
  2
TEXT
 70
     0
 62
     7
  6
CONTINUOUS
  0
ENDTAB
  0
TABLE
  2
STYLE
 70
     4
  0
STYLE
  2
STANDARD
 70
     0
 40
0.0
 41
0.8
 50
0.0
 71
     0
 42
3.5
  3
simplex.shx
  4

  0
STYLE
  2
GREEKS
 70
     0
 40
0.0
 41
0.8
 50
0.0
 71
     0
 42
3.5
  3
SIMPLEX.shx
  4

  0
ENDTAB
  0
TABLE
  2
VIEW
 70
     2
  0
ENDTAB
  0
TABLE
  2
UCS
 70
     0
  0
ENDTAB
  0
TABLE
  2
APPID
 70
    10
  0
APPID
  2
ACAD
 70
     0
  0
APPID
  2
ACAD_EXEMPT_FROM_CAD_STANDARDS
 70
     0
  0
APPID
  2
ACAD_DSTYLE_DIMJAG
 70
     0
  0
APPID
  2
ACAD_DSTYLE_DIMTALN
 70
     0
  0
APPID
  2
ACAD_NAV_VCDISPLAY
 70
     0
  0
APPID
  2
ACAD_PSEXT
 70
     0
  0
APPID
  2
ACAECLAYERSTANDARD
 70
     0
  0
APPID
  2
ACCMTRANSPARENCY
 70
     0
  0
APPID
  2
ACAD_MLEADERVER
 70
     0
  0
APPID
  2
ACAD_OBJECT_CHANGE_GUID
 70
     0
  0
ENDTAB
  0
TABLE
  2
DIMSTYLE
 70
     2
  0
DIMSTYLE
  2
STANDARD
 70
     0
  3

  4

  5

  6

  7

 40
1.0
 41
0.18
 42
0.0625
 43
0.38
 44
0.18
 45
0.0
 46
0.0
 47
0.0
 48
0.0
140
0.18
141
0.09
142
0.0
143
25.3999999999999986
144
1.0
145
0.0
146
1.0
147
0.09
 71
     0
 72
     0
 73
     1
 74
     1
 75
     0
 76
     0
 77
     0
 78
     0
170
     0
171
     2
172
     0
173
     0
174
     0
175
     0
176
     0
177
     0
178
     0
  0
ENDTAB
  0
ENDSEC
  0
SECTION
  2
BLOCKS
  0
BLOCK
  8
0
  2
$MODEL_SPACE
 70
     0
 10
0.0
 20
0.0
 30
0.0
  3
$MODEL_SPACE
  1

  0
ENDBLK
  5
47
  8
0
  0
BLOCK
 67
     1
  8
0
  2
$PAPER_SPACE
 70
     0
 10
0.0
 20
0.0
 30
0.0
  3
$PAPER_SPACE
  1

  0
ENDBLK
  5
45
 67
     1
  8
0
  0
BLOCK
  8
0
  2
A$C561B0CDD
 70
     0
 10
0.0
 20
0.0
 30
0.0
  3
A$C561B0CDD
  1

  0
CIRCLE
  5
13FC
  8
0
  6
CONTINUOUS
 62
     3
 10
-117.9957126052499063
 20
5.9021315414940458
 30
0.0
 40
72.5000000000000568
  0
CIRCLE
  5
13FD
  8
0
  6
CONTINUOUS
 62
     3
 10
-117.9957126052499063
 20
5.9021315414940476
 30
0.0
 40
80.5000000000009095
  0
CIRCLE
  5
13FE
  8
0
  6
CONTINUOUS
 62
     3
 10
-117.9957126052499063
 20
5.9021315414940476
 30
0.0
 40
90.5
  0
CIRCLE
  5
13FF
  8
0
  6
VERDECKT
 62
     1
 10
-117.9957126052499063
 20
5.9021315414940476
 30
0.0
 40
84.5000000000000142
  0
CIRCLE
  5
1400
  8
0
  6
VERDECKT
 62
     1
 10
-117.9957126052499063
 20
5.9021315414940467
 30
0.0
 40
85.6073547818157294
  0
CIRCLE
  5
1401
  8
0
  6
VERDECKT
 62
     1
 10
-117.9957126052499063
 20
5.9021315414940467
 30
0.0
 40
87.5
  0
CIRCLE
  5
1402
  8
0
  6
VERDECKT
 62
     1
 10
-117.9957126052499063
 20
5.9021315414940458
 30
0.0
 40
88.4999999999999858
  0
CIRCLE
  5
1403
  8
0
  6
VERDECKT
 62
     1
 10
-117.9957126052499063
 20
5.9021315414940458
 30
0.0
 40
85.5
  0
CIRCLE
  5
1404
  8
0
  6
VERDECKT
 62
     1
 10
-117.9957126052499063
 20
5.9021315414940458
 30
0.0
 40
83.4282032302754715
  0
ENDBLK
  5
1406
  8
0
  0
BLOCK
  8
0
  2
A$C26FD6EC1
 70
     0
 10
0.0
 20
0.0
 30
0.0
  3
A$C26FD6EC1
  1

  0
LINE
  5
140A
  8
0
  6
CONTINUOUS
 62
     3
 10
-85.0151724426985993
 20
35.0000000000000284
 30
-0.0000000000000078
 11
85.0151724426985993
 21
35.0000000000000284
 31
-0.0000000000000078
210
0.0
220
1.0
230
-0.0000000000000002
  0
LINE
  5
140B
  8
0
  6
CONTINUOUS
 62
     3
 10
-90.5
 20
27.0000000000000107
 30
-0.000000000000006
 11
90.5
 21
27.0000000000000107
 31
-0.000000000000006
210
0.0
220
1.0
230
-0.0000000000000002
  0
LINE
  5
140C
  8
0
  6
CONTINUOUS
 62
     3
 10
-85.6073547818157294
 20
24.0000000000000107
 30
-0.0000000000000053
 11
85.6073547818157294
 21
24.0000000000000107
 31
-0.0000000000000053
210
0.0
220
1.0
230
-0.0000000000000002
  0
LINE
  5
140D
  8
0
  6
CONTINUOUS
 62
     3
 10
-87.5
 20
18.8000000000000114
 30
-0.0000000000000042
 11
87.5
 21
18.8000000000000114
 31
-0.0000000000000042
210
0.0
220
1.0
230
-0.0000000000000002
  0
LINE
  5
140E
  8
0
  6
CONTINUOUS
 62
     3
 10
-87.5
 20
14.0000000000000604
 30
-0.0000000000000031
 11
87.5
 21
14.0000000000000604
 31
-0.0000000000000031
210
0.0
220
1.0
230
-0.0000000000000002
  0
LINE
  5
140F
  8
0
  6
CONTINUOUS
 62
     3
 10
-90.5
 20
11.0
 30
-0.0000000000000024
 11
90.5
 21
11.0
 31
-0.0000000000000024
210
0.0
220
1.0
230
-0.0000000000000002
  0
LINE
  5
1410
  8
0
  6
CONTINUOUS
 62
     3
 10
-90.5
 20
10.0
 30
-0.0000000000000022
 11
90.5
 21
10.0
 31
-0.0000000000000022
210
0.0
220
1.0
230
-0.0000000000000002
  0
LINE
  5
1411
  8
0
  6
CONTINUOUS
 62
     3
 10
-87.5
 20
7.0000000000000009
 30
-0.0000000000000016
 11
87.5
 21
7.0000000000000009
 31
-0.0000000000000016
210
0.0
220
1.0
230
-0.0000000000000002
  0
LINE
  5
1412
  8
0
  6
CONTINUOUS
 62
     3
 10
-87.5
 20
6.1961524227066898
 30
-0.0000000000000014
 11
87.5
 21
6.1961524227066898
 31
-0.0000000000000014
210
0.0
220
1.0
230
-0.0000000000000002
  0
LINE
  5
1413
  8
0
  6
CONTINUOUS
 62
     3
 10
-90.5
 20
1.0
 30
-0.0000000000000002
 11
90.5
 21
1.0
 31
-0.0000000000000002
210
0.0
220
1.0
230
-0.0000000000000002
  0
LINE
  5
1414
  8
0
  6
CONTINUOUS
 62
     3
 10
-76.5
 20
0.0
 30
0.0
 11
76.5
 21
0.0
 31
0.0
210
0.0
220
1.0
230
-0.0000000000000002
  0
ARC
  5
1415
  8
0
  6
CONTINUOUS
 62
     3
 10
85.0151724426985993
 20
32.5000000000000213
 30
0.0
 40
2.5000000000000151
210
0.0
220
-0.0000000000000002
230
-1.0
 50
30.0000000000001812
 51
90.0
  0
ARC
  5
1416
  8
0
  6
CONTINUOUS
 62
     3
 10
-85.0151724426985993
 20
32.5000000000000213
 30
0.0
 40
2.5000000000000142
210
0.0
220
-0.0000000000000002
230
-1.0
 50
90.0
 51
149.999999999999801
  0
LINE
  5
1417
  8
0
  6
CONTINUOUS
 62
     3
 10
87.1802359521597054
 20
33.7500000000000284
 30
-0.0000000000000075
 11
90.1650635094611062
 21
28.5801270189222301
 31
-0.0000000000000063
210
0.0
220
1.0
230
-0.0000000000000002
  0
LINE
  5
1418
  8
0
  6
CONTINUOUS
 62
     3
 10
-87.1802359521597054
 20
33.7500000000000284
 30
-0.0000000000000075
 11
-90.1650635094611062
 21
28.5801270189222301
 31
-0.0000000000000063
210
0.0
220
1.0
230
-0.0000000000000002
  0
ARC
  5
1419
  8
0
  6
CONTINUOUS
 62
     3
 10
87.3433012701899685
 20
27.16506350946133
 30
0.0
 40
3.1566987298100169
210
0.0
220
-0.0000000000000002
230
-1.0
 50
359.999999999996021
 51
26.6329495084445291
  0
ARC
  5
141A
  8
0
  6
CONTINUOUS
 62
     3
 10
-87.3433012701899685
 20
27.16506350946133
 30
0.0
 40
3.1566987298100182
210
0.0
220
-0.0000000000000002
230
-1.0
 50
153.3670504915554034
 51
180.0000000000038938
  0
LINE
  5
141B
  8
0
  6
CONTINUOUS
 62
     3
 10
90.5
 20
27.1650635094611204
 30
-0.000000000000006
 11
90.5
 21
27.0000000000000107
 31
-0.000000000000006
210
0.0
220
1.0
230
-0.0000000000000002
  0
LINE
  5
141C
  8
0
  6
CONTINUOUS
 62
     3
 10
-90.5
 20
27.1650635094611204
 30
-0.000000000000006
 11
-90.5
 21
27.0000000000000107
 31
-0.000000000000006
210
0.0
220
1.0
230
-0.0000000000000002
  0
ARC
  5
141D
  8
0
  6
CONTINUOUS
 62
     3
 10
85.5
 20
26.0000000000000213
 30
0.0
 40
1.0
210
0.0
220
-0.0000000000000002
230
-1.0
 50
90.0
 51
180.0000000000007105
  0
ARC
  5
141E
  8
0
  6
CONTINUOUS
 62
     3
 10
-85.5
 20
26.0000000000000213
 30
0.0
 40
1.0
210
0.0
220
-0.0000000000000002
230
-1.0
 50
0.0
 51
90.00000000000081
  0
LINE
  5
141F
  8
0
  6
CONTINUOUS
 62
     3
 10
84.5000000000000142
 20
26.0000000000000107
 30
-0.0000000000000058
 11
84.5000000000000142
 21
25.0000000000000107
 31
-0.0000000000000056
210
0.0
220
1.0
230
-0.0000000000000002
  0
LINE
  5
1420
  8
0
  6
CONTINUOUS
 62
     3
 10
-84.5000000000000142
 20
26.0000000000000107
 30
-0.0000000000000058
 11
-84.5000000000000142
 21
25.0000000000000107
 31
-0.0000000000000056
210
0.0
220
1.0
230
-0.0000000000000002
  0
ARC
  5
1421
  8
0
  6
CONTINUOUS
 62
     3
 10
85.5
 20
25.0
 30
0.0
 40
0.9999999999999857
210
0.0
220
-0.0000000000000002
230
-1.0
 50
179.9999999999994031
 51
270.0
  0
ARC
  5
1422
  8
0
  6
CONTINUOUS
 62
     3
 10
-85.5
 20
25.0
 30
0.0
 40
0.9999999999999893
210
0.0
220
-0.0000000000000002
230
-1.0
 50
270.0
 51
0.0000000000006107
  0
LINE
  5
1423
  8
0
  6
CONTINUOUS
 62
     3
 10
85.6073547818157294
 20
24.0000000000000107
 30
-0.0000000000000053
 11
87.5
 21
18.8000000000000114
 31
-0.0000000000000042
210
0.0
220
1.0
230
-0.0000000000000002
  0
LINE
  5
1424
  8
0
  6
CONTINUOUS
 62
     3
 10
-85.6073547818157294
 20
24.0000000000000107
 30
-0.0000000000000053
 11
-87.5
 21
18.8000000000000114
 31
-0.0000000000000042
210
0.0
220
1.0
230
-0.0000000000000002
  0
LINE
  5
1425
  8
0
  6
CONTINUOUS
 62
     3
 10
87.5
 20
18.8000000000000114
 30
-0.0000000000000042
 11
87.5
 21
14.0000000000000604
 31
-0.0000000000000031
210
0.0
220
1.0
230
-0.0000000000000002
  0
LINE
  5
1426
  8
0
  6
CONTINUOUS
 62
     3
 10
-87.5
 20
18.8000000000000114
 30
-0.0000000000000042
 11
-87.5
 21
14.0000000000000604
 31
-0.0000000000000031
210
0.0
220
1.0
230
-0.0000000000000002
  0
LINE
  5
1427
  8
0
  6
CONTINUOUS
 62
     3
 10
87.5
 20
14.0000000000000604
 30
-0.0000000000000031
 11
90.5
 21
11.0
 31
-0.0000000000000024
210
0.0
220
1.0
230
-0.0000000000000002
  0
LINE
  5
1428
  8
0
  6
CONTINUOUS
 62
     3
 10
-87.5
 20
14.0000000000000604
 30
-0.0000000000000031
 11
-90.5
 21
11.0
 31
-0.0000000000000024
210
0.0
220
1.0
230
-0.0000000000000002
  0
LINE
  5
1429
  8
0
  6
CONTINUOUS
 62
     3
 10
90.5
 20
11.0
 30
-0.0000000000000024
 11
90.5
 21
10.0
 31
-0.0000000000000022
210
0.0
220
1.0
230
-0.0000000000000002
  0
LINE
  5
142A
  8
0
  6
CONTINUOUS
 62
     3
 10
-90.5
 20
11.0
 30
-0.0000000000000024
 11
-90.5
 21
10.0
 31
-0.0000000000000022
210
0.0
220
1.0
230
-0.0000000000000002
  0
LINE
  5
142B
  8
0
  6
CONTINUOUS
 62
     3
 10
-87.5
 20
7.0000000000000009
 30
-0.0000000000000016
 11
-90.5
 21
10.0
 31
-0.0000000000000022
210
0.0
220
1.0
230
-0.0000000000000002
  0
LINE
  5
142C
  8
0
  6
CONTINUOUS
 62
     3
 10
87.5
 20
7.0000000000000009
 30
-0.0000000000000016
 11
90.5
 21
10.0
 31
-0.0000000000000022
210
0.0
220
1.0
230
-0.0000000000000002
  0
LINE
  5
142D
  8
0
  6
CONTINUOUS
 62
     3
 10
87.5
 20
7.0000000000000009
 30
-0.0000000000000016
 11
87.5
 21
6.1961524227066898
 31
-0.0000000000000014
210
0.0
220
1.0
230
-0.0000000000000002
  0
LINE
  5
142E
  8
0
  6
CONTINUOUS
 62
     3
 10
-87.5
 20
7.0000000000000009
 30
-0.0000000000000016
 11
-87.5
 21
6.1961524227066898
 31
-0.0000000000000014
210
0.0
220
1.0
230
-0.0000000000000002
  0
LINE
  5
142F
  8
0
  6
CONTINUOUS
 62
     3
 10
87.5
 20
6.1961524227066898
 30
-0.0000000000000014
 11
90.5
 21
1.0
 31
-0.0000000000000002
210
0.0
220
1.0
230
-0.0000000000000002
  0
LINE
  5
1430
  8
0
  6
CONTINUOUS
 62
     3
 10
-87.5
 20
6.1961524227066898
 30
-0.0000000000000014
 11
-90.5
 21
1.0
 31
-0.0000000000000002
210
0.0
220
1.0
230
-0.0000000000000002
  0
ARC
  5
1431
  8
0
  6
CONTINUOUS
 62
     3
 10
76.5
 20
8.0000000000000284
 30
0.0
 40
8.0000000000000266
210
0.0
220
-0.0000000000000002
230
-1.0
 50
270.0
 51
298.9550243718597926
  0
ARC
  5
1432
  8
0
  6
CONTINUOUS
 62
     3
 10
-76.5
 20
8.0000000000000266
 30
0.0
 40
8.0000000000000302
210
0.0
220
-0.0000000000000002
230
-1.0
 50
241.0449756281400937
 51
270.0
  0
LINE
  5
1433
  8
0
  6
VERDECKT
 62
     1
 10
-72.4999999999998863
 20
2.0
 30
-0.0000000000000004
 11
72.5000000000001137
 21
2.0
 31
-0.0000000000000004
210
0.0
220
1.0
230
-0.0000000000000002
  0
LINE
  5
1434
  8
0
  6
VERDECKT
 62
     1
 10
-85.5
 20
4.0
 30
-0.0000000000000009
 11
85.5
 21
4.0
 31
-0.0000000000000009
210
0.0
220
1.0
230
-0.0000000000000002
  0
ARC
  5
1435
  8
0
  6
VERDECKT
 62
     1
 10
72.4999999999999432
 20
9.9999999999999982
 30
0.0
 40
8.0000000000000533
210
0.0
220
-0.0000000000000002
230
-1.0
 50
270.0
 51
359.9999999999960778
  0
ARC
  5
1436
  8
0
  6
VERDECKT
 62
     1
 10
-72.4999999999999432
 20
9.9999999999999982
 30
0.0
 40
8.0000000000000568
210
0.0
220
-0.0000000000000002
230
-1.0
 50
180.0000000000030127
 51
269.9999999999992042
  0
LINE
  5
1437
  8
0
  6
VERDECKT
 62
     1
 10
80.5000000000004547
 20
27.0000000000000107
 30
-0.000000000000006
 11
80.5000000000004547
 21
9.9999999999995755
 31
-0.0000000000000022
210
0.0
220
1.0
230
-0.0000000000000002
  0
LINE
  5
1438
  8
0
  6
VERDECKT
 62
     1
 10
-80.5000000000004547
 20
27.0000000000000107
 30
-0.000000000000006
 11
-80.5000000000004547
 21
9.9999999999995755
 31
-0.0000000000000022
210
0.0
220
1.0
230
-0.0000000000000002
  0
LINE
  5
1439
  8
0
  6
VERDECKT
 62
     1
 10
-80.5000000000008669
 20
27.0000000000000107
 30
-0.000000000000006
 11
-82.1470964436737461
 21
33.1470476127563032
 31
-0.0000000000000074
210
0.0
220
1.0
230
-0.0000000000000002
  0
LINE
  5
143A
  8
0
  6
VERDECKT
 62
     1
 10
80.5000000000008669
 20
27.0000000000000107
 30
-0.000000000000006
 11
82.1470964436737461
 21
33.1470476127563032
 31
-0.0000000000000074
210
0.0
220
1.0
230
-0.0000000000000002
  0
ARC
  5
143B
  8
0
  6
VERDECKT
 62
     1
 10
84.5619110093963968
 20
32.5000000000000711
 30
0.0
 40
2.4999999999999711
210
0.0
220
-0.0000000000000002
230
-1.0
 50
89.9999999999983658
 51
165.0000000000013927
  0
ARC
  5
143C
  8
0
  6
VERDECKT
 62
     1
 10
-84.5619110093963968
 20
32.5000000000000711
 30
0.0
 40
2.4999999999999618
210
0.0
220
-0.0000000000000002
230
-1.0
 50
14.9999999999985807
 51
90.0000000000016342
  0
LINE
  5
143D
  8
0
  6
VERDECKT
 62
     1
 10
85.5
 20
4.0
 30
-0.0000000000000009
 11
88.4999999999999858
 21
1.0
 31
-0.0000000000000002
210
0.0
220
1.0
230
-0.0000000000000002
  0
LINE
  5
143E
  8
0
  6
VERDECKT
 62
     1
 10
-85.5
 20
4.0
 30
-0.0000000000000009
 11
-88.4999999999999858
 21
1.0
 31
-0.0000000000000002
210
0.0
220
1.0
230
-0.0000000000000002
  0
ARC
  5
143F
  8
0
  6
VERDECKT
 62
     1
 10
76.4999999999999858
 20
8.0000000000000941
 30
0.0
 40
8.0000000000000977
210
0.0
220
-0.0000000000000002
230
-1.0
 50
298.9550243718596789
 51
329.9999999999985789
  0
ARC
  5
1440
  8
0
  6
VERDECKT
 62
     1
 10
-76.4999999999999716
 20
8.0000000000001066
 30
0.0
 40
8.0000000000001155
210
0.0
220
-0.0000000000000002
230
-1.0
 50
210.0000000000013927
 51
241.0449756281402074
  0
LINE
  5
1441
  8
0
  6
VERDECKT
 62
     1
 10
72.5
 20
2.0
 30
-0.0000000000000004
 11
72.5
 21
0.0
 31
0.0
210
0.0
220
1.0
230
-0.0000000000000002
  0
LINE
  5
1442
  8
0
  6
VERDECKT
 62
     1
 10
-72.5
 20
2.0
 30
-0.0000000000000004
 11
-72.5
 21
0.0
 31
0.0
210
0.0
220
1.0
230
-0.0000000000000002
  0
ENDBLK
  5
1444
  8
0
  0
ENDSEC
  0
SECTION
  2
ENTITIES
  0
TEXT
  5
208
  8
TEXT
 10
99.8426346073358957
 20
42.0193948925661331
 30
0.0
 40
2.0
  1

 41
0.8
  7
GREEKS
 72
     1
 11
99.8426346073358957
 21
42.0193948925661331
 31
0.0
  0
INSERT
  5
1407
  8
0
  2
A$C561B0CDD
 10
117.9957126052499063
 20
-5.9021315414940458
 30
2.0
  0
INSERT
  5
1445
  8
0
  2
A$C26FD6EC1
 10
0.0
 20
135.6199577666965013
 30
2.0
  0
VIEWPORT
  5
1340
 67
     1
  8
0
 10
4.1358176040006631
 20
5.0590869915406591
 30
0.0
 40
19.5672313761604286
 41
10.5686799273799803
 68
     1
 69
     1
1001
ACAD
1000
MVIEW
1002
{
1070
    16
1010
0.0
1020
0.0
1030
0.0
1010
0.0
1020
0.0
1030
1.0
1040
0.0
1040
10.5686799273799803
1040
4.1358176040006631
1040
5.0590869915406591
1040
50.0
1040
0.0
1040
0.0
1070
     0
1070
  1500
1070
     1
1070
     1
1070
     0
1070
     0
1070
     0
1070
     0
1040
0.0
1040
0.0
1040
0.0
1040
10.0
1040
10.0
1040
10.0
1040
10.0
1070
     0
1002
{
1002
}
1002
}
  0
ENDSEC
  0
EOF
