  0
SECTION
  2
HEADER
  9
$ACADVER
  1
AC1009
  9
$INSBASE
 10
0.0
 20
0.0
 30
0.0
  9
$EXTMIN
 10
-75.7087182068834181
 20
-75.7113730336207027
 30
-0.0011397837316736
  9
$EXTMAX
 10
75.7162923179522522
 20
135.6725836877623124
 30
0.0013661853154758
  9
$LIMMIN
 10
0.0
 20
0.0
  9
$LIMMAX
 10
210.0
 20
297.0
  9
$ORTHOMODE
 70
     1
  9
$REGENMODE
 70
     1
  9
$FILLMODE
 70
     1
  9
$QTEXTMODE
 70
     0
  9
$MIRRTEXT
 70
     1
  9
$DRAGMODE
 70
     2
  9
$LTSCALE
 40
10.0
  9
$OSMODE
 70
  1327
  9
$ATTMODE
 70
     1
  9
$TEXTSIZE
 40
3.5
  9
$TRACEWID
 40
0.5
  9
$TEXTSTYLE
  7
STANDARD
  9
$CLAYER
  8
0
  9
$CELTYPE
  6
BYLAYER
  9
$CECOLOR
 62
   256
  9
$DIMSCALE
 40
1.0
  9
$DIMASZ
 40
3.5
  9
$DIMEXO
 40
1.0
  9
$DIMDLI
 40
7.0
  9
$DIMRND
 40
0.0
  9
$DIMDLE
 40
0.0
  9
$DIMEXE
 40
1.0
  9
$DIMTP
 40
0.6
  9
$DIMTM
 40
0.6
  9
$DIMTXT
 40
3.5
  9
$DIMCEN
 40
1.5
  9
$DIMTSZ
 40
0.0
  9
$DIMTOL
 70
     0
  9
$DIMLIM
 70
     0
  9
$DIMTIH
 70
     0
  9
$DIMTOH
 70
     0
  9
$DIMSE1
 70
     0
  9
$DIMSE2
 70
     0
  9
$DIMTAD
 70
     1
  9
$DIMZIN
 70
     8
  9
$DIMBLK
  1

  9
$DIMASO
 70
     1
  9
$DIMSHO
 70
     0
  9
$DIMPOST
  1

  9
$DIMAPOST
  1

  9
$DIMALT
 70
     0
  9
$DIMALTD
 70
     2
  9
$DIMALTF
 40
25.3999999999999986
  9
$DIMLFAC
 40
1.0
  9
$DIMTOFL
 70
     1
  9
$DIMTVP
 40
0.0
  9
$DIMTIX
 70
     0
  9
$DIMSOXD
 70
     0
  9
$DIMSAH
 70
     0
  9
$DIMBLK1
  1

  9
$DIMBLK2
  1

  9
$DIMSTYLE
  2
STANDARD
  9
$DIMCLRD
 70
     0
  9
$DIMCLRE
 70
     0
  9
$DIMCLRT
 70
     1
  9
$DIMTFAC
 40
0.5142857142857143
  9
$DIMGAP
 40
1.5
  9
$LUNITS
 70
     2
  9
$LUPREC
 70
     2
  9
$SKETCHINC
 40
1.0
  9
$FILLETRAD
 40
0.0
  9
$AUNITS
 70
     0
  9
$AUPREC
 70
     0
  9
$MENU
  1
ACAD
  9
$ELEVATION
 40
0.0
  9
$PELEVATION
 40
0.0
  9
$THICKNESS
 40
0.0
  9
$LIMCHECK
 70
     0
  9
$BLIPMODE
 70
     0
  9
$CHAMFERA
 40
0.0
  9
$CHAMFERB
 40
0.0
  9
$SKPOLY
 70
     0
  9
$TDCREATE
 40
2451729.3350462969392538
  9
$TDUPDATE
 40
2458387.5881712972186506
  9
$TDINDWG
 40
0.1157064468
  9
$TDUSRTIMER
 40
0.1157064468
  9
$USRTIMER
 70
     1
  9
$ANGBASE
 50
0.0
  9
$ANGDIR
 70
     0
  9
$PDMODE
 70
     0
  9
$PDSIZE
 40
0.0
  9
$PLINEWID
 40
0.0
  9
$COORDS
 70
     1
  9
$SPLFRAME
 70
     0
  9
$SPLINETYPE
 70
     6
  9
$SPLINESEGS
 70
     8
  9
$ATTDIA
 70
     0
  9
$ATTREQ
 70
     0
  9
$HANDLING
 70
     1
  9
$HANDSEED
  5
11B2
  9
$SURFTAB1
 70
     6
  9
$SURFTAB2
 70
     6
  9
$SURFTYPE
 70
     6
  9
$SURFU
 70
     6
  9
$SURFV
 70
     6
  9
$UCSNAME
  2

  9
$UCSORG
 10
0.0
 20
0.0
 30
0.0
  9
$UCSXDIR
 10
1.0
 20
0.0
 30
0.0
  9
$UCSYDIR
 10
0.0
 20
1.0
 30
0.0
  9
$PUCSNAME
  2

  9
$PUCSORG
 10
0.0
 20
0.0
 30
0.0
  9
$PUCSXDIR
 10
1.0
 20
0.0
 30
0.0
  9
$PUCSYDIR
 10
0.0
 20
1.0
 30
0.0
  9
$USERI1
 70
     0
  9
$USERI2
 70
     0
  9
$USERI3
 70
     0
  9
$USERI4
 70
     0
  9
$USERI5
 70
     0
  9
$USERR1
 40
0.0
  9
$USERR2
 40
0.0
  9
$USERR3
 40
0.0
  9
$USERR4
 40
0.0
  9
$USERR5
 40
0.0
  9
$WORLDVIEW
 70
     1
  9
$SHADEDGE
 70
     3
  9
$SHADEDIF
 70
    70
  9
$TILEMODE
 70
     1
  9
$MAXACTVP
 70
    16
  9
$PLIMCHECK
 70
     0
  9
$PEXTMIN
 10
-0.1278078343990714
 20
-0.1459959877067156
 30
-0.0000000349181948
  9
$PEXTMAX
 10
6.1781917782406914
 20
8.3448214262428309
 30
0.0000000814935746
  9
$PLIMMIN
 10
-0.2500002402958907
 20
-0.2499999962453767
  9
$PLIMMAX
 10
10.7499995194082203
 20
8.2499997634587334
  9
$UNITMODE
 70
     0
  9
$VISRETAIN
 70
     0
  9
$PLINEGEN
 70
     0
  9
$PSLTSCALE
 70
     0
  0
ENDSEC
  0
SECTION
  2
TABLES
  0
TABLE
  2
VPORT
 70
     1
  0
VPORT
  2
*ACTIVE
 70
     0
 10
0.0
 20
0.0
 11
1.0
 21
1.0
 12
0.0037879705151482
 22
29.980605327070819
 13
0.0
 23
0.0
 14
1.0
 24
1.0
 15
10.0
 25
10.0
 16
-0.0000000000001227
 26
0.0
 36
552.6425695660974498
 17
-0.000000914980717
 27
0.0
 37
15.5002088546752805
 40
212.9653828315180988
 41
1.8514357053682891
 42
50.0
 43
0.0
 44
0.0
 50
0.0
 51
0.0
 71
     0
 72
  1500
 73
     1
 74
     0
 75
     0
 76
     0
 77
     0
 78
     0
  0
ENDTAB
  0
TABLE
  2
LTYPE
 70
     3
  0
LTYPE
  2
CONTINUOUS
 70
     0
  3
Solid line
 72
    65
 73
     0
 40
0.0
  0
LTYPE
  2
VERDECKT
 70
     0
  3
Verdeckt __ __ __ __ __ __ __ __ __ __ __ __ __
 72
    65
 73
     2
 40
0.375
 49
0.25
 49
-0.125
  0
ENDTAB
  0
TABLE
  2
LAYER
 70
    10
  0
LAYER
  2
0
 70
     0
 62
     7
  6
CONTINUOUS
  0
LAYER
  2
DEFPOINTS
 70
     0
 62
     7
  6
CONTINUOUS
  0
LAYER
  2
TEXT
 70
     0
 62
     7
  6
CONTINUOUS
  0
ENDTAB
  0
TABLE
  2
STYLE
 70
     4
  0
STYLE
  2
STANDARD
 70
     0
 40
0.0
 41
0.8
 50
0.0
 71
     0
 42
3.5
  3
simplex.shx
  4

  0
STYLE
  2
GREEKS
 70
     0
 40
0.0
 41
0.8
 50
0.0
 71
     0
 42
3.5
  3
SIMPLEX.shx
  4

  0
ENDTAB
  0
TABLE
  2
VIEW
 70
     2
  0
ENDTAB
  0
TABLE
  2
UCS
 70
     0
  0
ENDTAB
  0
TABLE
  2
APPID
 70
     8
  0
APPID
  2
ACAD
 70
     0
  0
APPID
  2
ACAD_NAV_VCDISPLAY
 70
     0
  0
APPID
  2
ACAD_PSEXT
 70
     0
  0
APPID
  2
ACAECLAYERSTANDARD
 70
     0
  0
APPID
  2
ACCMTRANSPARENCY
 70
     0
  0
APPID
  2
ACAD_EXEMPT_FROM_CAD_STANDARDS
 70
     0
  0
APPID
  2
ACAD_MLEADERVER
 70
     0
  0
APPID
  2
ACAD_OBJECT_CHANGE_GUID
 70
     0
  0
ENDTAB
  0
TABLE
  2
DIMSTYLE
 70
     2
  0
DIMSTYLE
  2
STANDARD
 70
     0
  3

  4

  5

  6

  7

 40
1.0
 41
0.18
 42
0.0625
 43
0.38
 44
0.18
 45
0.0
 46
0.0
 47
0.0
 48
0.0
140
0.18
141
0.09
142
0.0
143
25.3999999999999986
144
1.0
145
0.0
146
1.0
147
0.09
 71
     0
 72
     0
 73
     1
 74
     1
 75
     0
 76
     0
 77
     0
 78
     0
170
     0
171
     2
172
     0
173
     0
174
     0
175
     0
176
     0
177
     0
178
     0
  0
ENDTAB
  0
ENDSEC
  0
SECTION
  2
BLOCKS
  0
BLOCK
  8
0
  2
$MODEL_SPACE
 70
     0
 10
0.0
 20
0.0
 30
0.0
  3
$MODEL_SPACE
  1

  0
ENDBLK
  5
47
  8
0
  0
BLOCK
 67
     1
  8
0
  2
$PAPER_SPACE
 70
     0
 10
0.0
 20
0.0
 30
0.0
  3
$PAPER_SPACE
  1

  0
ENDBLK
  5
45
 67
     1
  8
0
  0
BLOCK
  8
0
  2
A$C32D6727F
 70
     0
 10
0.0
 20
0.0
 30
0.0
  3
A$C32D6727F
  1

  0
CIRCLE
  5
1118
  8
0
  6
CONTINUOUS
 62
     3
 10
-38.7163670360054084
 20
-33.2214403524979218
 30
0.0
 40
61.5
  0
CIRCLE
  5
1119
  8
0
  6
CONTINUOUS
 62
     3
 10
-38.7163670360054013
 20
-33.2214403524979218
 30
0.0
 40
67.4999999999999432
  0
CIRCLE
  5
111A
  8
0
  6
CONTINUOUS
 62
     3
 10
-38.7163670360054013
 20
-33.2214403524979218
 30
0.0
 40
75.5
  0
CIRCLE
  5
111B
  8
0
  6
CONTINUOUS
 62
     3
 10
-38.7163670360054084
 20
-33.2214403524979218
 30
0.0
 40
75.7000000000000455
  0
CIRCLE
  5
111C
  8
0
  6
VERDECKT
 62
     1
 10
-38.7163670360054013
 20
-33.2214403524979218
 30
0.0
 40
70.0
  0
CIRCLE
  5
111D
  8
0
  6
VERDECKT
 62
     1
 10
-38.7163670360054013
 20
-33.2214403524979218
 30
0.0
 40
71.4801488286690301
  0
CIRCLE
  5
111E
  8
0
  6
VERDECKT
 62
     1
 10
-38.7163670360054013
 20
-33.2214403524979218
 30
0.0
 40
73.3000000000000682
  0
CIRCLE
  5
111F
  8
0
  6
VERDECKT
 62
     1
 10
-38.7163670360054084
 20
-33.2214403524979218
 30
0.0
 40
73.5
  0
CIRCLE
  5
1120
  8
0
  6
VERDECKT
 62
     1
 10
-38.7163670360054084
 20
-33.2214403524979218
 30
0.0
 40
73.7000000000000455
  0
CIRCLE
  5
1121
  8
0
  6
VERDECKT
 62
     1
 10
-38.7163670360054084
 20
-33.2214403524979218
 30
0.0
 40
70.7000000000000455
  0
CIRCLE
  5
1122
  8
0
  6
VERDECKT
 62
     1
 10
-38.7163670360054084
 20
-33.2214403524979218
 30
0.0
 40
70.1568542494924259
  0
ENDBLK
  5
1124
  8
0
  0
BLOCK
  8
0
  2
A$C5F497592
 70
     0
 10
0.0
 20
0.0
 30
0.0
  3
A$C5F497592
  1

  0
LINE
  5
1128
  8
0
  6
CONTINUOUS
 62
     3
 10
-75.5
 20
23.9999999999999787
 30
-0.0000000000000053
 11
75.5
 21
23.9999999999999787
 31
-0.0000000000000053
210
0.0
220
1.0
230
-0.0000000000000002
  0
LINE
  5
1129
  8
0
  6
CONTINUOUS
 62
     3
 10
-71.4801488286690301
 20
20.9999999999999716
 30
-0.0000000000000047
 11
71.4801488286690301
 21
20.9999999999999716
 31
-0.0000000000000047
210
0.0
220
1.0
230
-0.0000000000000002
  0
LINE
  5
112A
  8
0
  6
CONTINUOUS
 62
     3
 10
-73.3000000000000682
 20
15.9999999999999698
 30
-0.0000000000000036
 11
73.3000000000000682
 21
15.9999999999999698
 31
-0.0000000000000036
210
0.0
220
1.0
230
-0.0000000000000002
  0
LINE
  5
112B
  8
0
  6
CONTINUOUS
 62
     3
 10
-73.3000000000000682
 20
12.8999999999999506
 30
-0.0000000000000029
 11
73.3000000000000682
 21
12.8999999999999506
 31
-0.0000000000000029
210
0.0
220
1.0
230
-0.0000000000000002
  0
LINE
  5
112C
  8
0
  6
CONTINUOUS
 62
     3
 10
-75.7000000000000455
 20
10.4999999999999698
 30
-0.0000000000000023
 11
75.7000000000000455
 21
10.4999999999999698
 31
-0.0000000000000023
210
0.0
220
1.0
230
-0.0000000000000002
  0
LINE
  5
112D
  8
0
  6
CONTINUOUS
 62
     3
 10
-75.7000000000000455
 20
9.4999999999999734
 30
-0.0000000000000021
 11
75.7000000000000455
 21
9.4999999999999734
 31
-0.0000000000000021
210
0.0
220
1.0
230
-0.0000000000000002
  0
LINE
  5
112E
  8
0
  6
CONTINUOUS
 62
     3
 10
-73.5
 20
7.2999999999999563
 30
-0.0000000000000016
 11
73.5
 21
7.2999999999999563
 31
-0.0000000000000016
210
0.0
220
1.0
230
-0.0000000000000002
  0
LINE
  5
112F
  8
0
  6
CONTINUOUS
 62
     3
 10
-73.5
 20
4.8105117766515377
 30
-0.0000000000000011
 11
73.5
 21
4.8105117766515377
 31
-0.0000000000000011
210
0.0
220
1.0
230
-0.0000000000000002
  0
LINE
  5
1130
  8
0
  6
CONTINUOUS
 62
     3
 10
-75.7000000000000455
 20
1.0
 30
-0.0000000000000002
 11
75.7000000000000455
 21
1.0
 31
-0.0000000000000002
210
0.0
220
1.0
230
-0.0000000000000002
  0
LINE
  5
1131
  8
0
  6
CONTINUOUS
 62
     3
 10
-64.5
 20
-0.0000000000000071
 30
0.0
 11
64.5
 21
-0.0000000000000071
 31
0.0
210
0.0
220
1.0
230
-0.0000000000000002
  0
ARC
  5
1132
  8
0
  6
CONTINUOUS
 62
     3
 10
71.4763738396167412
 20
28.262276023763409
 30
0.0
 40
2.738140989595709
210
0.0
220
-0.0000000000000002
230
-1.0
 50
89.0000225123286839
 51
89.9999999999994316
  0
ARC
  5
1133
  8
0
  6
CONTINUOUS
 62
     3
 10
-71.4763738396167412
 20
28.262276023763409
 30
0.0
 40
2.738140989595709
210
0.0
220
-0.0000000000000002
230
-1.0
 50
90.0000000000005826
 51
90.9999774876713303
  0
LINE
  5
1134
  8
0
  6
CONTINUOUS
 62
     3
 10
71.4763738396167696
 20
31.0004170133591295
 30
-0.0000000000000069
 11
-71.4763738396167696
 21
31.0004170133591188
 31
-0.0000000000000069
210
0.0
220
1.0
230
-0.0000000000000002
  0
ARC
  5
1135
  8
0
  6
CONTINUOUS
 62
     3
 10
71.4752842323437534
 20
28.1998510592900011
 30
0.0
 40
2.8005754627136819
210
0.0
220
-0.0000000000000002
230
-1.0
 50
15.0000000000002807
 51
89.0000225123270354
  0
ARC
  5
1136
  8
0
  6
CONTINUOUS
 62
     3
 10
-71.4752842323437818
 20
28.1998510592900402
 30
0.0
 40
2.8005754627136592
210
0.0
220
-0.0000000000000002
230
-1.0
 50
90.9999774876726804
 51
165.0000000000003126
  0
LINE
  5
1137
  8
0
  6
CONTINUOUS
 62
     3
 10
74.1804324002503392
 20
28.9246933262871089
 30
-0.0000000000000064
 11
75.4999999999999716
 21
23.9999999999999716
 31
-0.0000000000000053
210
0.0
220
1.0
230
-0.0000000000000002
  0
LINE
  5
1138
  8
0
  6
CONTINUOUS
 62
     3
 10
-74.1804324002503392
 20
28.9246933262871089
 30
-0.0000000000000064
 11
-75.4999999999999716
 21
23.9999999999999716
 31
-0.0000000000000053
210
0.0
220
1.0
230
-0.0000000000000002
  0
ARC
  5
1139
  8
0
  6
CONTINUOUS
 62
     3
 10
70.9999999999998295
 20
23.0000000000000604
 30
0.0
 40
0.9999999999998223
210
0.0
220
-0.0000000000000002
230
-1.0
 50
89.9999999999902229
 51
180.0000000000044054
  0
ARC
  5
113A
  8
0
  6
CONTINUOUS
 62
     3
 10
-70.9999999999998295
 20
23.0000000000000604
 30
0.0
 40
0.9999999999998294
210
0.0
220
-0.0000000000000002
230
-1.0
 50
359.9999999999955094
 51
90.0000000000097771
  0
LINE
  5
113B
  8
0
  6
CONTINUOUS
 62
     3
 10
70.0
 20
22.9999999999999787
 30
-0.0000000000000051
 11
70.0
 21
21.9999999999999716
 31
-0.0000000000000049
210
0.0
220
1.0
230
-0.0000000000000002
  0
LINE
  5
113C
  8
0
  6
CONTINUOUS
 62
     3
 10
-70.0
 20
22.9999999999999787
 30
-0.0000000000000051
 11
-70.0
 21
21.9999999999999716
 31
-0.0000000000000049
210
0.0
220
1.0
230
-0.0000000000000002
  0
ARC
  5
113D
  8
0
  6
CONTINUOUS
 62
     3
 10
71.0000000000000142
 20
22.0000000000000604
 30
0.0
 40
1.000000000000085
210
0.0
220
-0.0000000000000002
230
-1.0
 50
180.0000000000046043
 51
269.9999999999992042
  0
ARC
  5
113E
  8
0
  6
CONTINUOUS
 62
     3
 10
-71.0000000000000142
 20
22.0000000000000604
 30
0.0
 40
1.000000000000081
210
0.0
220
-0.0000000000000002
230
-1.0
 50
270.0
 51
359.9999999999944862
  0
LINE
  5
113F
  8
0
  6
CONTINUOUS
 62
     3
 10
71.4801488286690301
 20
20.9999999999999716
 30
-0.0000000000000047
 11
73.3000000000000682
 21
15.9999999999999698
 31
-0.0000000000000036
210
0.0
220
1.0
230
-0.0000000000000002
  0
LINE
  5
1140
  8
0
  6
CONTINUOUS
 62
     3
 10
-71.4801488286690301
 20
20.9999999999999716
 30
-0.0000000000000047
 11
-73.3000000000000682
 21
15.9999999999999698
 31
-0.0000000000000036
210
0.0
220
1.0
230
-0.0000000000000002
  0
LINE
  5
1141
  8
0
  6
CONTINUOUS
 62
     3
 10
73.3000000000000682
 20
15.9999999999999698
 30
-0.0000000000000036
 11
73.3000000000000682
 21
12.8999999999999506
 31
-0.0000000000000029
210
0.0
220
1.0
230
-0.0000000000000002
  0
LINE
  5
1142
  8
0
  6
CONTINUOUS
 62
     3
 10
-73.3000000000000682
 20
15.9999999999999698
 30
-0.0000000000000036
 11
-73.3000000000000682
 21
12.8999999999999506
 31
-0.0000000000000029
210
0.0
220
1.0
230
-0.0000000000000002
  0
LINE
  5
1143
  8
0
  6
CONTINUOUS
 62
     3
 10
73.3000000000000682
 20
12.8999999999999506
 30
-0.0000000000000029
 11
75.7000000000000455
 21
10.4999999999999698
 31
-0.0000000000000023
210
0.0
220
1.0
230
-0.0000000000000002
  0
LINE
  5
1144
  8
0
  6
CONTINUOUS
 62
     3
 10
-73.3000000000000682
 20
12.8999999999999506
 30
-0.0000000000000029
 11
-75.7000000000000455
 21
10.4999999999999698
 31
-0.0000000000000023
210
0.0
220
1.0
230
-0.0000000000000002
  0
LINE
  5
1145
  8
0
  6
CONTINUOUS
 62
     3
 10
75.7000000000000455
 20
10.4999999999999698
 30
-0.0000000000000023
 11
75.7000000000000455
 21
9.4999999999999734
 31
-0.0000000000000021
210
0.0
220
1.0
230
-0.0000000000000002
  0
LINE
  5
1146
  8
0
  6
CONTINUOUS
 62
     3
 10
-75.7000000000000455
 20
10.4999999999999698
 30
-0.0000000000000023
 11
-75.7000000000000455
 21
9.4999999999999734
 31
-0.0000000000000021
210
0.0
220
1.0
230
-0.0000000000000002
  0
LINE
  5
1147
  8
0
  6
CONTINUOUS
 62
     3
 10
-73.5
 20
7.2999999999999563
 30
-0.0000000000000016
 11
-75.7000000000000455
 21
9.4999999999999734
 31
-0.0000000000000021
210
0.0
220
1.0
230
-0.0000000000000002
  0
LINE
  5
1148
  8
0
  6
CONTINUOUS
 62
     3
 10
73.5
 20
7.2999999999999563
 30
-0.0000000000000016
 11
75.7000000000000455
 21
9.4999999999999734
 31
-0.0000000000000021
210
0.0
220
1.0
230
-0.0000000000000002
  0
LINE
  5
1149
  8
0
  6
CONTINUOUS
 62
     3
 10
73.5
 20
7.2999999999999563
 30
-0.0000000000000016
 11
73.5
 21
4.8105117766515377
 31
-0.0000000000000011
210
0.0
220
1.0
230
-0.0000000000000002
  0
LINE
  5
114A
  8
0
  6
CONTINUOUS
 62
     3
 10
-73.5
 20
7.2999999999999563
 30
-0.0000000000000016
 11
-73.5
 21
4.8105117766515377
 31
-0.0000000000000011
210
0.0
220
1.0
230
-0.0000000000000002
  0
LINE
  5
114B
  8
0
  6
CONTINUOUS
 62
     3
 10
73.5
 20
4.8105117766515377
 30
-0.0000000000000011
 11
75.7000000000000455
 21
1.0
 31
-0.0000000000000002
210
0.0
220
1.0
230
-0.0000000000000002
  0
LINE
  5
114C
  8
0
  6
CONTINUOUS
 62
     3
 10
-73.5
 20
4.8105117766515377
 30
-0.0000000000000011
 11
-75.7000000000000455
 21
1.0
 31
-0.0000000000000002
210
0.0
220
1.0
230
-0.0000000000000002
  0
ARC
  5
114D
  8
0
  6
CONTINUOUS
 62
     3
 10
64.5000000000000426
 20
6.0000000000000346
 30
0.0
 40
6.0000000000000391
210
0.0
220
-0.0000000000000002
230
-1.0
 50
270.0
 51
303.5573097619212035
  0
ARC
  5
114E
  8
0
  6
CONTINUOUS
 62
     3
 10
-64.5000000000000426
 20
6.000000000000024
 30
0.0
 40
6.0000000000000302
210
0.0
220
-0.0000000000000002
230
-1.0
 50
236.4426902380791944
 51
270.0000000000003979
  0
LINE
  5
114F
  8
0
  6
VERDECKT
 62
     1
 10
-61.5
 20
2.0
 30
-0.0000000000000004
 11
61.5
 21
2.0
 31
-0.0000000000000004
210
0.0
220
1.0
230
-0.0000000000000002
  0
LINE
  5
1150
  8
0
  6
VERDECKT
 62
     1
 10
-70.7000000000000455
 20
4.0
 30
-0.0000000000000009
 11
70.7000000000000455
 21
4.0
 31
-0.0000000000000009
210
0.0
220
1.0
230
-0.0000000000000002
  0
ARC
  5
1151
  8
0
  6
VERDECKT
 62
     1
 10
61.5000000000000497
 20
7.9999999999999378
 30
0.0
 40
5.9999999999999512
210
0.0
220
-0.0000000000000002
230
-1.0
 50
270.0
 51
0.0000000000010941
  0
ARC
  5
1152
  8
0
  6
VERDECKT
 62
     1
 10
-61.5000000000000497
 20
7.9999999999999361
 30
0.0
 40
5.9999999999999503
210
0.0
220
-0.0000000000000002
230
-1.0
 50
179.9999999999994031
 51
270.0000000000005116
  0
LINE
  5
1153
  8
0
  6
VERDECKT
 62
     1
 10
67.5
 20
23.9999999999999787
 30
-0.0000000000000053
 11
67.5
 21
8.0000000000000018
 31
-0.0000000000000018
210
0.0
220
1.0
230
-0.0000000000000002
  0
LINE
  5
1154
  8
0
  6
VERDECKT
 62
     1
 10
-67.5
 20
23.9999999999999787
 30
-0.0000000000000053
 11
-67.5
 21
8.0000000000000018
 31
-0.0000000000000018
210
0.0
220
1.0
230
-0.0000000000000002
  0
LINE
  5
1155
  8
0
  6
VERDECKT
 62
     1
 10
-67.4999999999999432
 20
23.9999999999999787
 30
-0.0000000000000053
 11
-68.8195675997496323
 21
28.9246933262871195
 31
-0.0000000000000064
210
0.0
220
1.0
230
-0.0000000000000002
  0
LINE
  5
1156
  8
0
  6
VERDECKT
 62
     1
 10
67.4999999999999432
 20
23.9999999999999787
 30
-0.0000000000000053
 11
68.8195675997496323
 21
28.9246933262871195
 31
-0.0000000000000064
210
0.0
220
1.0
230
-0.0000000000000002
  0
ARC
  5
1157
  8
0
  6
VERDECKT
 62
     1
 10
71.4763738396167554
 20
28.2622760237693313
 30
0.0
 40
2.7381409895897981
210
0.0
220
-0.0000000000000002
230
-1.0
 50
89.9999999999997158
 51
165.999977487671714
  0
ARC
  5
1158
  8
0
  6
VERDECKT
 62
     1
 10
-71.4763738396167554
 20
28.2622760237693313
 30
0.0
 40
2.7381409895897888
210
0.0
220
-0.0000000000000002
230
-1.0
 50
14.0000225123281794
 51
90.0000000000002984
  0
LINE
  5
1159
  8
0
  6
VERDECKT
 62
     1
 10
70.7000000000000455
 20
4.0
 30
-0.0000000000000009
 11
73.7000000000000455
 21
1.0
 31
-0.0000000000000002
210
0.0
220
1.0
230
-0.0000000000000002
  0
LINE
  5
115A
  8
0
  6
VERDECKT
 62
     1
 10
-70.7000000000000455
 20
4.0
 30
-0.0000000000000009
 11
-73.7000000000000455
 21
1.0
 31
-0.0000000000000002
210
0.0
220
1.0
230
-0.0000000000000002
  0
ARC
  5
115B
  8
0
  6
VERDECKT
 62
     1
 10
64.5000000000000853
 20
5.9999999999999254
 30
0.0
 40
5.9999999999999174
210
0.0
220
-0.0000000000000002
230
-1.0
 50
303.5573097619208056
 51
340.5287793655101041
  0
ARC
  5
115C
  8
0
  6
VERDECKT
 62
     1
 10
-64.5
 20
6.0000000000000302
 30
0.0
 40
6.000000000000056
210
0.0
220
-0.0000000000000002
230
-1.0
 50
199.4712206344904928
 51
236.4426902380789954
  0
LINE
  5
115D
  8
0
  6
VERDECKT
 62
     1
 10
61.5
 20
2.0
 30
-0.0000000000000004
 11
61.5
 21
0.0
 31
0.0
210
0.0
220
1.0
230
-0.0000000000000002
  0
LINE
  5
115E
  8
0
  6
VERDECKT
 62
     1
 10
-61.5
 20
2.0
 30
-0.0000000000000004
 11
-61.5
 21
0.0
 31
0.0
210
0.0
220
1.0
230
-0.0000000000000002
  0
ENDBLK
  5
1160
  8
0
  0
ENDSEC
  0
SECTION
  2
ENTITIES
  0
TEXT
  5
208
  8
TEXT
 10
99.8426346073358957
 20
42.0193948925661331
 30
0.0
 40
2.0
  1

 41
0.8
  7
GREEKS
 72
     1
 11
99.8426346073358957
 21
42.0193948925661331
 31
0.0
  0
INSERT
  5
1125
  8
0
  2
A$C32D6727F
 10
38.7163670360054084
 20
33.2214403524979218
 30
0.0
  0
INSERT
  5
1161
  8
0
  2
A$C5F497592
 10
0.0000000000000071
 20
104.1259077030948959
 30
0.0
  0
VIEWPORT
  5
1069
 67
     1
  8
0
 10
3.4099074507600191
 20
4.0996856894340432
 30
0.0
 40
15.8313443681599395
 41
8.5508474975698672
 68
     1
 69
     1
1001
ACAD
1000
MVIEW
1002
{
1070
    16
1010
0.0
1020
0.0
1030
0.0
1010
0.0
1020
0.0
1030
1.0
1040
0.0
1040
8.5508474975698672
1040
3.4099074507600191
1040
4.0996856894340432
1040
50.0
1040
0.0
1040
0.0
1070
     0
1070
  1500
1070
     1
1070
     1
1070
     0
1070
     0
1070
     0
1070
     0
1040
0.0
1040
0.0
1040
0.0
1040
10.0
1040
10.0
1040
10.0
1040
10.0
1070
     0
1002
{
1002
}
1002
}
  0
ENDSEC
  0
EOF
