  0
SECTION
  2
HEADER
  9
$ACADVER
  1
AC1009
  9
$INSBASE
 10
0.0
 20
0.0
 30
0.0
  9
$EXTMIN
 10
-60.0000000000001066
 20
-60.0033151496190129
 30
9.4999999999999378
  9
$EXTMAX
 10
59.9999999999998934
 20
108.6681586486292019
 30
9.4999999999999432
  9
$LIMMIN
 10
0.0
 20
0.0
  9
$LIMMAX
 10
210.0
 20
297.0
  9
$ORTHOMODE
 70
     1
  9
$REGENMODE
 70
     1
  9
$FILLMODE
 70
     1
  9
$QTEXTMODE
 70
     0
  9
$MIRRTEXT
 70
     1
  9
$DRAGMODE
 70
     2
  9
$LTSCALE
 40
10.0
  9
$OSMODE
 70
    39
  9
$ATTMODE
 70
     1
  9
$TEXTSIZE
 40
3.5
  9
$TRACEWID
 40
0.5
  9
$TEXTSTYLE
  7
STANDARD
  9
$CLAYER
  8
0
  9
$CELTYPE
  6
BYLAYER
  9
$CECOLOR
 62
   256
  9
$DIMSCALE
 40
1.0
  9
$DIMASZ
 40
3.5
  9
$DIMEXO
 40
1.0
  9
$DIMDLI
 40
7.0
  9
$DIMRND
 40
0.0
  9
$DIMDLE
 40
0.0
  9
$DIMEXE
 40
1.0
  9
$DIMTP
 40
0.0
  9
$DIMTM
 40
0.0
  9
$DIMTXT
 40
3.5
  9
$DIMCEN
 40
1.5
  9
$DIMTSZ
 40
0.0
  9
$DIMTOL
 70
     0
  9
$DIMLIM
 70
     0
  9
$DIMTIH
 70
     0
  9
$DIMTOH
 70
     0
  9
$DIMSE1
 70
     0
  9
$DIMSE2
 70
     0
  9
$DIMTAD
 70
     1
  9
$DIMZIN
 70
     8
  9
$DIMBLK
  1

  9
$DIMASO
 70
     1
  9
$DIMSHO
 70
     0
  9
$DIMPOST
  1

  9
$DIMAPOST
  1

  9
$DIMALT
 70
     0
  9
$DIMALTD
 70
     2
  9
$DIMALTF
 40
25.3999999999999986
  9
$DIMLFAC
 40
1.0
  9
$DIMTOFL
 70
     1
  9
$DIMTVP
 40
0.0
  9
$DIMTIX
 70
     0
  9
$DIMSOXD
 70
     0
  9
$DIMSAH
 70
     0
  9
$DIMBLK1
  1

  9
$DIMBLK2
  1

  9
$DIMSTYLE
  2
STANDARD
  9
$DIMCLRD
 70
     0
  9
$DIMCLRE
 70
     0
  9
$DIMCLRT
 70
     1
  9
$DIMTFAC
 40
0.5
  9
$DIMGAP
 40
1.5
  9
$LUNITS
 70
     2
  9
$LUPREC
 70
     2
  9
$SKETCHINC
 40
1.0
  9
$FILLETRAD
 40
0.8
  9
$AUNITS
 70
     0
  9
$AUPREC
 70
     0
  9
$MENU
  1
ACAD
  9
$ELEVATION
 40
0.0
  9
$PELEVATION
 40
0.0
  9
$THICKNESS
 40
0.0
  9
$LIMCHECK
 70
     0
  9
$BLIPMODE
 70
     0
  9
$CHAMFERA
 40
0.0
  9
$CHAMFERB
 40
0.0
  9
$SKPOLY
 70
     0
  9
$TDCREATE
 40
2455397.8646990740671754
  9
$TDUPDATE
 40
2458418.3507175929844379
  9
$TDINDWG
 40
0.0994622454
  9
$TDUSRTIMER
 40
0.0994622454
  9
$USRTIMER
 70
     1
  9
$ANGBASE
 50
0.0
  9
$ANGDIR
 70
     0
  9
$PDMODE
 70
     0
  9
$PDSIZE
 40
0.0
  9
$PLINEWID
 40
0.0
  9
$COORDS
 70
     1
  9
$SPLFRAME
 70
     0
  9
$SPLINETYPE
 70
     6
  9
$SPLINESEGS
 70
     8
  9
$ATTDIA
 70
     1
  9
$ATTREQ
 70
     1
  9
$HANDLING
 70
     1
  9
$HANDSEED
  5
118C
  9
$SURFTAB1
 70
     6
  9
$SURFTAB2
 70
     6
  9
$SURFTYPE
 70
     6
  9
$SURFU
 70
     6
  9
$SURFV
 70
     6
  9
$UCSNAME
  2

  9
$UCSORG
 10
0.0
 20
0.0
 30
0.0
  9
$UCSXDIR
 10
1.0
 20
0.0
 30
0.0
  9
$UCSYDIR
 10
0.0
 20
1.0
 30
0.0
  9
$PUCSNAME
  2

  9
$PUCSORG
 10
0.0
 20
0.0
 30
0.0
  9
$PUCSXDIR
 10
1.0
 20
0.0
 30
0.0
  9
$PUCSYDIR
 10
0.0
 20
1.0
 30
0.0
  9
$USERI1
 70
     0
  9
$USERI2
 70
     0
  9
$USERI3
 70
     0
  9
$USERI4
 70
     0
  9
$USERI5
 70
     0
  9
$USERR1
 40
0.0
  9
$USERR2
 40
0.0
  9
$USERR3
 40
0.0
  9
$USERR4
 40
0.0
  9
$USERR5
 40
0.0
  9
$WORLDVIEW
 70
     1
  9
$SHADEDGE
 70
     3
  9
$SHADEDIF
 70
    70
  9
$TILEMODE
 70
     1
  9
$MAXACTVP
 70
    16
  9
$PLIMCHECK
 70
     0
  9
$PEXTMIN
 10
-0.1189413608950858
 20
-0.0884478377232085
 30
-0.0000000000000053
  9
$PEXTMAX
 10
16.3317262423263116
 20
22.8657076229282694
 30
0.0000000000000099
  9
$PLIMMIN
 10
-0.2500002402958907
 20
-0.2499999962453767
  9
$PLIMMAX
 10
10.7499995194082203
 20
8.2499997634587334
  9
$UNITMODE
 70
     0
  9
$VISRETAIN
 70
     0
  9
$PLINEGEN
 70
     0
  9
$PSLTSCALE
 70
     0
  0
ENDSEC
  0
SECTION
  2
TABLES
  0
TABLE
  2
VPORT
 70
     1
  0
VPORT
  2
*ACTIVE
 70
     0
 10
0.0
 20
0.0
 11
1.0
 21
1.0
 12
-27.036108029003401
 22
29.3267984475082208
 13
0.0
 23
0.0
 14
1.0
 24
1.0
 15
10.0
 25
10.0
 16
-0.0000000000000975
 26
0.0
 36
438.9578748067564788
 17
-0.0000006010837694
 27
-0.0016593933105469
 37
13.5000000000000302
 40
271.9508980095162087
 41
2.0800000000000001
 42
50.0
 43
0.0
 44
0.0
 50
0.0
 51
0.0
 71
     0
 72
  1500
 73
     1
 74
     0
 75
     0
 76
     0
 77
     0
 78
     0
  0
ENDTAB
  0
TABLE
  2
LTYPE
 70
     3
  0
LTYPE
  2
CONTINUOUS
 70
     0
  3
Solid line
 72
    65
 73
     0
 40
0.0
  0
LTYPE
  2
PHANTOM2
 70
     0
  3
Phantom (.5x) ___ _ _ ___ _ _ ___ _ _ ___ _ _
 72
    65
 73
     6
 40
1.25
 49
0.625
 49
-0.125
 49
0.125
 49
-0.125
 49
0.125
 49
-0.125
  0
LTYPE
  2
VERDECKT
 70
     0
  3
Verdeckt __ __ __ __ __ __ __ __ __ __ __ __ __
 72
    65
 73
     2
 40
0.375
 49
0.25
 49
-0.125
  0
ENDTAB
  0
TABLE
  2
LAYER
 70
     3
  0
LAYER
  2
0
 70
     0
 62
     7
  6
CONTINUOUS
  0
LAYER
  2
VOLL
 70
     0
 62
     1
  6
CONTINUOUS
  0
LAYER
  2
DEFPOINTS
 70
     0
 62
     7
  6
CONTINUOUS
  0
ENDTAB
  0
TABLE
  2
STYLE
 70
     3
  0
STYLE
  2
STANDARD
 70
     0
 40
0.0
 41
0.8
 50
0.0
 71
     0
 42
3.5
  3
simplex.shx
  4

  0
STYLE
  2
ANNOTATIVE
 70
     0
 40
0.0
 41
1.0
 50
0.0
 71
     0
 42
0.2
  3
txt
  4

  0
STYLE
  2
GREEKS
 70
     0
 40
0.0
 41
0.8
 50
0.0
 71
     0
 42
2.5
  3
SIMPLEX.shx
  4

  0
ENDTAB
  0
TABLE
  2
VIEW
 70
     0
  0
ENDTAB
  0
TABLE
  2
UCS
 70
     0
  0
ENDTAB
  0
TABLE
  2
APPID
 70
    13
  0
APPID
  2
ACAD
 70
     0
  0
APPID
  2
ACADANNOTATIVE
 70
     0
  0
APPID
  2
ACAD_NAV_VCDISPLAY
 70
     0
  0
APPID
  2
ACAD_MLEADERVER
 70
     0
  0
APPID
  2
ACAD_EXEMPT_FROM_CAD_STANDARDS
 70
     0
  0
APPID
  2
ACAD_DSTYLE_DIMRADIAL_EXTENSION
 70
     0
  0
APPID
  2
ACAECLAYERSTANDARD
 70
     0
  0
APPID
  2
ACCMTRANSPARENCY
 70
     0
  0
APPID
  2
GRADIENTCOLOR1ACI
 70
     0
  0
APPID
  2
GRADIENTCOLOR2ACI
 70
     0
  0
APPID
  2
ACAD_PSEXT
 70
     0
  0
APPID
  2
ACAD_OBJECT_CHANGE_GUID
 70
     0
  0
APPID
  2
ACADANNOMONITORALERTICONDI
 70
     0
  0
ENDTAB
  0
TABLE
  2
DIMSTYLE
 70
     2
  0
DIMSTYLE
  2
STANDARD
 70
     0
  3

  4

  5

  6

  7

 40
1.0
 41
0.18
 42
0.0625
 43
0.38
 44
0.18
 45
0.0
 46
0.0
 47
0.0
 48
0.0
140
0.18
141
0.09
142
0.0
143
25.3999999999999986
144
1.0
145
0.0
146
1.0
147
0.09
 71
     0
 72
     0
 73
     1
 74
     1
 75
     0
 76
     0
 77
     0
 78
     0
170
     0
171
     2
172
     0
173
     0
174
     0
175
     0
176
     0
177
     0
178
     0
  0
DIMSTYLE
  2
ANNOTATIVE
 70
     0
  3

  4

  5

  6

  7

 40
1.0
 41
0.18
 42
0.0625
 43
0.38
 44
0.18
 45
0.0
 46
0.0
 47
0.0
 48
0.0
140
0.18
141
0.09
142
0.0
143
25.3999999999999986
144
1.0
145
0.0
146
1.0
147
0.09
 71
     0
 72
     0
 73
     1
 74
     1
 75
     0
 76
     0
 77
     0
 78
     0
170
     0
171
     2
172
     0
173
     0
174
     0
175
     0
176
     0
177
     0
178
     0
  0
ENDTAB
  0
ENDSEC
  0
SECTION
  2
BLOCKS
  0
BLOCK
  8
0
  2
$MODEL_SPACE
 70
     0
 10
0.0
 20
0.0
 30
0.0
  3
$MODEL_SPACE
  1

  0
ENDBLK
  5
110B
  8
0
  0
BLOCK
 67
     1
  8
0
  2
$PAPER_SPACE
 70
     0
 10
0.0
 20
0.0
 30
0.0
  3
$PAPER_SPACE
  1

  0
ENDBLK
  5
1107
 67
     1
  8
0
  0
BLOCK
  8
0
  2
A$C5432671F
 70
     0
 10
0.0
 20
0.0
 30
0.0
  3
A$C5432671F
  1

  0
CIRCLE
  5
100E
  8
0
  6
CONTINUOUS
 62
     3
 10
-3.2918994325981381
 20
-6.0068928508668389
 30
0.0
 40
51.7999999999999972
  0
CIRCLE
  5
100F
  8
0
  6
CONTINUOUS
 62
     3
 10
-3.2918994325981421
 20
-6.0068928508668398
 30
0.0
 40
47.5
  0
CIRCLE
  5
1010
  8
0
  6
CONTINUOUS
 62
     3
 10
-3.2918994325981981
 20
-6.0085504256763507
 30
0.0
 40
60.0
  0
CIRCLE
  5
1011
  8
0
  6
CONTINUOUS
 62
     3
 10
-3.2918994325981941
 20
-6.0085504256763507
 30
0.0
 40
59.5
  0
CIRCLE
  5
1012
  8
0
  6
VERDECKT
 62
     1
 10
-3.2918994325981958
 20
-6.0085504256763507
 30
0.0
 40
57.75
  0
CIRCLE
  5
1013
  8
0
  6
VERDECKT
 62
     1
 10
-3.2918994325981981
 20
-6.0085504256763507
 30
0.0
 40
57.1171444324796695
  0
CIRCLE
  5
1014
  8
0
  6
VERDECKT
 62
     1
 10
-3.2918994325981981
 20
-6.0085504256763507
 30
0.0
 40
58.0
  0
CIRCLE
  5
1015
  8
0
  6
VERDECKT
 62
     1
 10
-3.2918994325981981
 20
-6.0085504256763507
 30
0.0
 40
56.5995849235806077
  0
CIRCLE
  5
1016
  8
0
  6
VERDECKT
 62
     1
 10
-3.2918994325981981
 20
-6.0085504256763507
 30
0.0
 40
54.3989794855663575
  0
CIRCLE
  5
1017
  8
0
  6
VERDECKT
 62
     1
 10
-3.2918994325981941
 20
-6.0085504256763507
 30
0.0
 40
54.8394515204001891
  0
ENDBLK
  5
1019
  8
0
  0
BLOCK
  8
0
  2
A$C496623C0
 70
     0
 10
0.0
 20
0.0
 30
0.0
  3
A$C496623C0
  1

  0
LINE
  5
101D
  8
0
  6
CONTINUOUS
 62
     3
 10
-55.6090464708852892
 20
27.0000000000000888
 30
-0.000000000000006
 11
55.6090464708851613
 21
27.0000000000000888
 31
-0.000000000000006
210
0.0
220
1.0
230
-0.0000000000000002
  0
LINE
  5
101E
  8
0
  6
CONTINUOUS
 62
     3
 10
-57.7500000000000497
 20
11.0
 30
-0.0000000000000024
 11
57.7499999999999503
 21
11.0
 31
-0.0000000000000024
210
0.0
220
1.0
230
-0.0000000000000002
  0
LINE
  5
101F
  8
0
  6
CONTINUOUS
 62
     3
 10
-59.5000000000000497
 20
9.4999999999999432
 30
-0.0000000000000021
 11
59.4999999999999289
 21
9.4999999999999432
 31
-0.0000000000000021
210
0.0
220
1.0
230
-0.0000000000000002
  0
LINE
  5
1020
  8
0
  6
CONTINUOUS
 62
     3
 10
-59.5000000000000497
 20
8.4999999999999734
 30
-0.0000000000000019
 11
59.4999999999999289
 21
8.4999999999999734
 31
-0.0000000000000019
210
0.0
220
1.0
230
-0.0000000000000002
  0
LINE
  5
1021
  8
0
  6
CONTINUOUS
 62
     3
 10
-57.1171444324797406
 20
6.1171444324796198
 30
-0.0000000000000014
 11
57.1171444324796127
 21
6.1171444324796198
 31
-0.0000000000000014
210
0.0
220
1.0
230
-0.0000000000000002
  0
LINE
  5
1022
  8
0
  6
CONTINUOUS
 62
     3
 10
-60.0000000000000497
 20
2.0000000000000271
 30
-0.0000000000000004
 11
59.9999999999999289
 21
2.0000000000000271
 31
-0.0000000000000004
210
0.0
220
1.0
230
-0.0000000000000002
  0
LINE
  5
1023
  8
0
  6
CONTINUOUS
 62
     3
 10
-49.5000000000000568
 20
0.0
 30
0.0
 11
49.4999999999999289
 21
0.0
 31
0.0
210
0.0
220
1.0
230
-0.0000000000000002
  0
LINE
  5
1024
  8
0
  6
CONTINUOUS
 62
     3
 10
-59.5000000000000497
 20
19.9999999999999716
 30
-0.0000000000000044
 11
59.4999999999999289
 21
19.9999999999999716
 31
-0.0000000000000044
210
0.0
220
1.0
230
-0.0000000000000002
  0
ARC
  5
1025
  8
0
  6
CONTINUOUS
 62
     3
 10
55.6394515204002573
 20
19.1999999999999282
 30
0.0
 40
0.8000000000000078
210
0.0
220
-0.0000000000000002
230
-1.0
 50
89.9999999999959357
 51
199.8552143693227094
  0
ARC
  5
1026
  8
0
  6
CONTINUOUS
 62
     3
 10
-55.6394515204001294
 20
19.1999999999999282
 30
0.0
 40
0.800000000000011
210
0.0
220
-0.0000000000000002
230
-1.0
 50
340.1447856306771769
 51
90.0000000000040643
  0
LINE
  5
1027
  8
0
  6
CONTINUOUS
 62
     3
 10
54.8870084006467991
 20
18.9282844289778716
 30
-0.0000000000000042
 11
57.7499999999999716
 21
11.0000000000000107
 31
-0.0000000000000024
210
0.0
220
1.0
230
-0.0000000000000002
  0
LINE
  5
1028
  8
0
  6
CONTINUOUS
 62
     3
 10
-54.8870084006469199
 20
18.9282844289778716
 30
-0.0000000000000042
 11
-57.7500000000000924
 21
11.0000000000000107
 31
-0.0000000000000024
210
0.0
220
1.0
230
-0.0000000000000002
  0
LINE
  5
1029
  8
0
  6
CONTINUOUS
 62
     3
 10
57.7499999999999503
 20
11.0
 30
-0.0000000000000024
 11
59.4999999999999289
 21
9.4999999999999432
 31
-0.0000000000000021
210
0.0
220
1.0
230
-0.0000000000000002
  0
LINE
  5
102A
  8
0
  6
CONTINUOUS
 62
     3
 10
-57.7500000000000497
 20
11.0
 30
-0.0000000000000024
 11
-59.5000000000000497
 21
9.4999999999999432
 31
-0.0000000000000021
210
0.0
220
1.0
230
-0.0000000000000002
  0
LINE
  5
102B
  8
0
  6
CONTINUOUS
 62
     3
 10
59.4999999999999289
 20
9.4999999999999432
 30
-0.0000000000000021
 11
59.4999999999999289
 21
8.4999999999999734
 31
-0.0000000000000019
210
0.0
220
1.0
230
-0.0000000000000002
  0
LINE
  5
102C
  8
0
  6
CONTINUOUS
 62
     3
 10
-59.5000000000000497
 20
9.4999999999999432
 30
-0.0000000000000021
 11
-59.5000000000000497
 21
8.4999999999999734
 31
-0.0000000000000019
210
0.0
220
1.0
230
-0.0000000000000002
  0
LINE
  5
102D
  8
0
  6
CONTINUOUS
 62
     3
 10
-57.1171444324797406
 20
6.1171444324796269
 30
-0.0000000000000014
 11
-59.5000000000000497
 21
8.4999999999999805
 31
-0.0000000000000019
210
0.0
220
1.0
230
-0.0000000000000002
  0
LINE
  5
102E
  8
0
  6
CONTINUOUS
 62
     3
 10
57.1171444324796127
 20
6.1171444324796269
 30
-0.0000000000000014
 11
59.4999999999999218
 21
8.4999999999999805
 31
-0.0000000000000019
210
0.0
220
1.0
230
-0.0000000000000002
  0
LINE
  5
102F
  8
0
  6
CONTINUOUS
 62
     3
 10
57.1171444324796127
 20
6.1171444324796163
 30
-0.0000000000000014
 11
59.9999999999999218
 21
2.0000000000000231
 31
-0.0000000000000004
210
0.0
220
1.0
230
-0.0000000000000002
  0
LINE
  5
1030
  8
0
  6
CONTINUOUS
 62
     3
 10
-57.1171444324797406
 20
6.1171444324796163
 30
-0.0000000000000014
 11
-60.0000000000000497
 21
2.0000000000000231
 31
-0.0000000000000004
210
0.0
220
1.0
230
-0.0000000000000002
  0
ARC
  5
1031
  8
0
  6
CONTINUOUS
 62
     3
 10
49.5000000000000568
 20
5.0000000000000089
 30
0.0
 40
5.0000000000000169
210
0.0
220
-0.0000000000000002
230
-1.0
 50
270.0
 51
323.1301023541565201
  0
ARC
  5
1032
  8
0
  6
CONTINUOUS
 62
     3
 10
-49.4999999999999289
 20
5.000000000000008
 30
0.0
 40
5.0000000000000151
210
0.0
220
-0.0000000000000002
230
-1.0
 50
216.8698976458435936
 51
270.0000000000001137
  0
ARC
  5
1033
  8
0
  6
CONTINUOUS
 62
     3
 10
55.6090464708853034
 20
25.5000000000001599
 30
0.0
 40
1.4999999999999341
210
0.0
220
-0.0000000000000002
230
-1.0
 50
25.8941133784700988
 51
90.0000000000002842
  0
ARC
  5
1034
  8
0
  6
CONTINUOUS
 62
     3
 10
-55.6090464708851826
 20
25.5000000000001599
 30
0.0
 40
1.4999999999999341
210
0.0
220
-0.0000000000000002
230
-1.0
 50
89.9999999999997442
 51
154.1058866215298906
  0
LINE
  5
1035
  8
0
  6
CONTINUOUS
 62
     3
 10
56.9584504483274614
 20
26.1550640469930116
 30
-0.0000000000000058
 11
59.0984106065127932
 21
21.7468374586478888
 31
-0.0000000000000048
210
0.0
220
1.0
230
-0.0000000000000002
  0
LINE
  5
1036
  8
0
  6
CONTINUOUS
 62
     3
 10
-56.9584504483275893
 20
26.1550640469930116
 30
-0.0000000000000058
 11
-59.0984106065129069
 21
21.7468374586478888
 31
-0.0000000000000048
210
0.0
220
1.0
230
-0.0000000000000002
  0
ARC
  5
1037
  8
0
  6
CONTINUOUS
 62
     3
 10
55.4999999999990408
 20
19.9999999999996483
 30
0.0
 40
4.0000000000010081
210
0.0
220
-0.0000000000000002
230
-1.0
 50
0.0
 51
25.8941133784668907
  0
ARC
  5
1038
  8
0
  6
CONTINUOUS
 62
     3
 10
-55.4999999999989413
 20
19.9999999999996483
 30
0.0
 40
4.000000000001009
210
0.0
220
-0.0000000000000002
230
-1.0
 50
154.1058866215286116
 51
179.9999999999953957
  0
LINE
  5
1039
  8
0
  6
VERDECKT
 62
     1
 10
-51.7999999999999972
 20
17.0867734926427808
 30
-0.0000000000000038
 11
51.7999999999999972
 21
17.0867734926427808
 31
-0.0000000000000038
210
0.0
220
1.0
230
-0.0000000000000002
  0
LINE
  5
103A
  8
0
  6
VERDECKT
 62
     1
 10
47.5
 20
1.5560159748481781
 30
-0.0000000000000003
 11
-47.5
 21
1.5560159748481781
 31
-0.0000000000000003
210
0.0
220
1.0
230
-0.0000000000000002
  0
LINE
  5
103B
  8
0
  6
VERDECKT
 62
     1
 10
-56.5995849235806503
 20
4.000000000000056
 30
-0.0000000000000009
 11
56.5995849235805508
 21
4.000000000000056
 31
-0.0000000000000009
210
0.0
220
1.0
230
-0.0000000000000002
  0
ARC
  5
103C
  8
0
  6
VERDECKT
 62
     1
 10
55.6090464708852323
 20
25.5067734926428606
 30
0.0
 40
1.499999999999968
210
0.0
220
-0.0000000000000002
230
-1.0
 50
95.4470566892314451
 51
165.0000000000017906
  0
ARC
  5
103D
  8
0
  6
VERDECKT
 62
     1
 10
-55.6090464708852323
 20
25.5067734926428606
 30
0.0
 40
1.499999999999968
210
0.0
220
-0.0000000000000002
230
-1.0
 50
14.9999999999981704
 51
84.5529433107685549
  0
LINE
  5
103E
  8
0
  6
VERDECKT
 62
     1
 10
-51.7999999999999901
 20
17.0867734926427808
 30
-0.0000000000000038
 11
-54.1601577314516476
 21
25.89500206029658
 31
-0.0000000000000057
210
0.0
220
1.0
230
-0.0000000000000002
  0
LINE
  5
103F
  8
0
  6
VERDECKT
 62
     1
 10
51.7999999999999901
 20
17.0867734926427808
 30
-0.0000000000000038
 11
54.1601577314516476
 21
25.89500206029658
 31
-0.0000000000000057
210
0.0
220
1.0
230
-0.0000000000000002
  0
LINE
  5
1040
  8
0
  6
VERDECKT
 62
     1
 10
51.7999999999999972
 20
17.0867734926427808
 30
-0.0000000000000038
 11
51.7999999999999972
 21
6.506773492642794
 31
-0.0000000000000014
210
0.0
220
1.0
230
-0.0000000000000002
  0
LINE
  5
1041
  8
0
  6
VERDECKT
 62
     1
 10
-51.7999999999999972
 20
17.0867734926427808
 30
-0.0000000000000038
 11
-51.7999999999999972
 21
6.506773492642794
 31
-0.0000000000000014
210
0.0
220
1.0
230
-0.0000000000000002
  0
ARC
  5
1042
  8
0
  6
VERDECKT
 62
     1
 10
46.7999999999999403
 20
6.5067734926428491
 30
0.0
 40
5.000000000000056
210
0.0
220
-0.0000000000000002
230
-1.0
 50
278.0478462473118952
 51
359.9999999999992042
  0
ARC
  5
1043
  8
0
  6
VERDECKT
 62
     1
 10
-46.7999999999999403
 20
6.5067734926428491
 30
0.0
 40
5.000000000000056
210
0.0
220
-0.0000000000000002
230
-1.0
 50
180.0000000000005969
 51
261.9521537526879911
  0
LINE
  5
1044
  8
0
  6
VERDECKT
 62
     1
 10
-47.5
 20
0.0
 30
0.0
 11
-47.5
 21
1.5560159748481781
 31
-0.0000000000000003
210
0.0
220
1.0
230
-0.0000000000000002
  0
LINE
  5
1045
  8
0
  6
VERDECKT
 62
     1
 10
47.5
 20
0.0
 30
0.0
 11
47.5
 21
1.5560159748481781
 31
-0.0000000000000003
210
0.0
220
1.0
230
-0.0000000000000002
  0
LINE
  5
1046
  8
0
  6
VERDECKT
 62
     1
 10
56.5995849235805082
 20
4.0000000000000391
 30
-0.0000000000000009
 11
57.9999999999999005
 21
2.0000000000000111
 31
-0.0000000000000004
210
0.0
220
1.0
230
-0.0000000000000002
  0
LINE
  5
1047
  8
0
  6
VERDECKT
 62
     1
 10
-56.5995849235806503
 20
4.0000000000000391
 30
-0.0000000000000009
 11
-58.0000000000000284
 21
2.0000000000000111
 31
-0.0000000000000004
210
0.0
220
1.0
230
-0.0000000000000002
  0
ARC
  5
1048
  8
0
  6
VERDECKT
 62
     1
 10
49.5000000000001705
 20
4.9999999999999467
 30
0.0
 40
4.9999999999998881
210
0.0
220
-0.0000000000000002
230
-1.0
 50
323.130102354156179
 51
348.4630409671851794
  0
ARC
  5
1049
  8
0
  6
VERDECKT
 62
     1
 10
-49.5000000000000284
 20
4.9999999999999538
 30
0.0
 40
4.9999999999999032
210
0.0
220
-0.0000000000000002
230
-1.0
 50
191.5369590328147922
 51
216.8698976458435936
  0
ENDBLK
  5
104B
  8
0
  0
ENDSEC
  0
SECTION
  2
ENTITIES
  0
TEXT
  5
8F
  8
VOLL
 10
78.076754716981128
 20
31.025947764705851
 30
0.0
 40
1.8
  1

  7
GREEKS
  0
INSERT
  5
101A
  8
0
  2
A$C5432671F
 10
3.2918994325980862
 20
6.0052352760573351
 30
9.4999999999999432
  0
INSERT
  5
104C
  8
0
  2
A$C496623C0
 10
-0.0000000000000528
 20
81.2991672054113508
 30
9.4999999999999432
  0
VIEWPORT
  5
BE9
 67
     1
  8
0
 10
8.1065199238553891
 20
12.1371090067253196
 30
0.0
 40
45.6059760950356008
 41
24.6327625435762201
 68
     1
 69
     1
1001
ACAD
1000
MVIEW
1002
{
1070
    16
1010
0.0
1020
0.0
1030
0.0
1010
0.0
1020
0.0
1030
1.0
1040
0.0
1040
24.6327625435762201
1040
8.1065199238553891
1040
12.1371090067253196
1040
50.0
1040
0.0
1040
0.0
1070
     0
1070
  1500
1070
     1
1070
     1
1070
     0
1070
     0
1070
     0
1070
     0
1040
0.0
1040
0.0
1040
0.0
1040
10.0
1040
10.0
1040
10.0
1040
10.0
1070
     0
1002
{
1002
}
1002
}
  0
ENDSEC
  0
EOF
