  0
SECTION
  2
HEADER
  9
$ACADVER
  1
AC1009
  9
$INSBASE
 10
0.0
 20
0.0
 30
0.0
  9
$EXTMIN
 10
-42.8000000000000185
 20
-112.7999999999999972
 30
-0.0000000000000071
  9
$EXTMAX
 10
42.8000000000000185
 20
92.5000000000000284
 30
22.5000000000000107
  9
$LIMMIN
 10
0.0
 20
0.0
  9
$LIMMAX
 10
420.0000000000001137
 20
297.0
  9
$ORTHOMODE
 70
     1
  9
$REGENMODE
 70
     1
  9
$FILLMODE
 70
     1
  9
$QTEXTMODE
 70
     0
  9
$MIRRTEXT
 70
     1
  9
$DRAGMODE
 70
     2
  9
$LTSCALE
 40
10.0
  9
$OSMODE
 70
   183
  9
$ATTMODE
 70
     1
  9
$TEXTSIZE
 40
3.5
  9
$TRACEWID
 40
1.0
  9
$TEXTSTYLE
  7
STANDARD
  9
$CLAYER
  8
BEM
  9
$CELTYPE
  6
BYLAYER
  9
$CECOLOR
 62
   256
  9
$DIMSCALE
 40
1.0
  9
$DIMASZ
 40
3.5
  9
$DIMEXO
 40
1.0
  9
$DIMDLI
 40
7.0
  9
$DIMRND
 40
0.0
  9
$DIMDLE
 40
0.0
  9
$DIMEXE
 40
1.0
  9
$DIMTP
 40
0.0
  9
$DIMTM
 40
0.0
  9
$DIMTXT
 40
3.5
  9
$DIMCEN
 40
1.5
  9
$DIMTSZ
 40
0.0
  9
$DIMTOL
 70
     0
  9
$DIMLIM
 70
     0
  9
$DIMTIH
 70
     0
  9
$DIMTOH
 70
     0
  9
$DIMSE1
 70
     0
  9
$DIMSE2
 70
     0
  9
$DIMTAD
 70
     1
  9
$DIMZIN
 70
     8
  9
$DIMBLK
  1

  9
$DIMASO
 70
     1
  9
$DIMSHO
 70
     0
  9
$DIMPOST
  1

  9
$DIMAPOST
  1

  9
$DIMALT
 70
     0
  9
$DIMALTD
 70
     2
  9
$DIMALTF
 40
25.3999999999999986
  9
$DIMLFAC
 40
1.0
  9
$DIMTOFL
 70
     1
  9
$DIMTVP
 40
0.5714285714285714
  9
$DIMTIX
 70
     0
  9
$DIMSOXD
 70
     0
  9
$DIMSAH
 70
     0
  9
$DIMBLK1
  1

  9
$DIMBLK2
  1

  9
$DIMSTYLE
  2
STANDARD
  9
$DIMCLRD
 70
     0
  9
$DIMCLRE
 70
     0
  9
$DIMCLRT
 70
     1
  9
$DIMTFAC
 40
1.0
  9
$DIMGAP
 40
1.5
  9
$LUNITS
 70
     2
  9
$LUPREC
 70
     2
  9
$SKETCHINC
 40
1.0
  9
$FILLETRAD
 40
0.0
  9
$AUNITS
 70
     0
  9
$AUPREC
 70
     0
  9
$MENU
  1
ACAD
  9
$ELEVATION
 40
0.0
  9
$PELEVATION
 40
0.0
  9
$THICKNESS
 40
0.0
  9
$LIMCHECK
 70
     0
  9
$BLIPMODE
 70
     0
  9
$CHAMFERA
 40
0.0
  9
$CHAMFERB
 40
0.0
  9
$SKPOLY
 70
     0
  9
$TDCREATE
 40
2451729.4487384259700775
  9
$TDUPDATE
 40
2458374.4730555559508502
  9
$TDINDWG
 40
0.1766320718
  9
$TDUSRTIMER
 40
0.1766320718
  9
$USRTIMER
 70
     1
  9
$ANGBASE
 50
0.0
  9
$ANGDIR
 70
     0
  9
$PDMODE
 70
     0
  9
$PDSIZE
 40
0.0
  9
$PLINEWID
 40
0.0
  9
$COORDS
 70
     1
  9
$SPLFRAME
 70
     0
  9
$SPLINETYPE
 70
     6
  9
$SPLINESEGS
 70
     8
  9
$ATTDIA
 70
     1
  9
$ATTREQ
 70
     1
  9
$HANDLING
 70
     1
  9
$HANDSEED
  5
D16
  9
$SURFTAB1
 70
     6
  9
$SURFTAB2
 70
     6
  9
$SURFTYPE
 70
     6
  9
$SURFU
 70
     6
  9
$SURFV
 70
     6
  9
$UCSNAME
  2

  9
$UCSORG
 10
0.0
 20
0.0
 30
0.0
  9
$UCSXDIR
 10
1.0
 20
0.0
 30
0.0
  9
$UCSYDIR
 10
0.0
 20
1.0
 30
0.0
  9
$PUCSNAME
  2

  9
$PUCSORG
 10
0.0
 20
0.0
 30
0.0
  9
$PUCSXDIR
 10
1.0
 20
0.0
 30
0.0
  9
$PUCSYDIR
 10
0.0
 20
1.0
 30
0.0
  9
$USERI1
 70
     0
  9
$USERI2
 70
     0
  9
$USERI3
 70
     0
  9
$USERI4
 70
     0
  9
$USERI5
 70
     0
  9
$USERR1
 40
0.0
  9
$USERR2
 40
0.0
  9
$USERR3
 40
0.0
  9
$USERR4
 40
0.0
  9
$USERR5
 40
0.0
  9
$WORLDVIEW
 70
     1
  9
$SHADEDGE
 70
     3
  9
$SHADEDIF
 70
    70
  9
$TILEMODE
 70
     1
  9
$MAXACTVP
 70
    16
  9
$PLIMCHECK
 70
     0
  9
$PEXTMIN
 10
1.0000000000000000E+20
 20
1.0000000000000000E+20
 30
1.0000000000000000E+20
  9
$PEXTMAX
 10
-1.0000000000000000E+20
 20
-1.0000000000000000E+20
 30
-1.0000000000000000E+20
  9
$PLIMMIN
 10
-0.2500002402958907
 20
-0.2499999962453767
  9
$PLIMMAX
 10
10.7499995194082203
 20
8.2499997634587334
  9
$UNITMODE
 70
     0
  9
$VISRETAIN
 70
     0
  9
$PLINEGEN
 70
     0
  9
$PSLTSCALE
 70
     0
  0
ENDSEC
  0
SECTION
  2
TABLES
  0
TABLE
  2
VPORT
 70
     1
  0
VPORT
  2
*ACTIVE
 70
     0
 10
0.0
 20
0.0
 11
1.0
 21
1.0
 12
0.0
 22
0.0
 13
0.0
 23
0.0
 14
2.5
 24
2.5
 15
10.0
 25
10.0
 16
-0.000000000000135
 26
0.0
 36
601.4465987137426737
 17
36.4634251980883519
 27
21.8517571965398787
 37
11.25
 40
243.0365684770576138
 41
1.8224299065420559
 42
50.0
 43
0.0
 44
0.0
 50
0.0
 51
0.0
 71
     0
 72
   500
 73
     1
 74
     0
 75
     0
 76
     0
 77
     0
 78
     0
  0
ENDTAB
  0
TABLE
  2
LTYPE
 70
     5
  0
LTYPE
  2
CONTINUOUS
 70
     0
  3
Solid line
 72
    65
 73
     0
 40
0.0
  0
LTYPE
  2
VERDECKT
 70
     0
  3
Verdeckt __ __ __ __ __ __ __ __ __ __ __ __ __
 72
    65
 73
     2
 40
0.375
 49
0.25
 49
-0.125
  0
ENDTAB
  0
TABLE
  2
LAYER
 70
    14
  0
LAYER
  2
0
 70
     0
 62
     7
  6
CONTINUOUS
  0
LAYER
  2
BEM
 70
     0
 62
     7
  6
CONTINUOUS
  0
LAYER
  2
GUMMI
 70
     0
 62
   250
  6
CONTINUOUS
  0
LAYER
  2
ADSK_ASSOC_ENTITY_BACKUPS
 70
     1
 62
    -7
  6
CONTINUOUS
  0
ENDTAB
  0
TABLE
  2
STYLE
 70
     4
  0
STYLE
  2
STANDARD
 70
     0
 40
0.0
 41
0.8
 50
0.0
 71
     0
 42
3.5
  3
simplex.shx
  4

  0
STYLE
  2
GREEKS
 70
     0
 40
0.0
 41
0.8
 50
0.0
 71
     0
 42
3.5
  3
SIMPLEX.shx
  4

  0
STYLE
  2

 70
     1
 40
0.0
 41
1.0
 50
0.0
 71
     0
 42
3.5
  3
ltypeshp.shx
  4

  0
ENDTAB
  0
TABLE
  2
VIEW
 70
     1
  0
ENDTAB
  0
TABLE
  2
UCS
 70
     0
  0
ENDTAB
  0
TABLE
  2
APPID
 70
    17
  0
APPID
  2
ACAD
 70
     0
  0
APPID
  2
ACAECLAYERSTANDARD
 70
     0
  0
APPID
  2
ACCMTRANSPARENCY
 70
     0
  0
APPID
  2
ACAD_NAV_VCDISPLAY
 70
     0
  0
APPID
  2
ACAD_PSEXT
 70
     0
  0
APPID
  2
ACAD_EXEMPT_FROM_CAD_STANDARDS
 70
     0
  0
APPID
  2
ACSYNERGY
 70
     0
  0
APPID
  2
SYNERGY_BODY_TBR_ID
 70
     0
  0
APPID
  2
ACAD_VIEW_EDGE_ID
 70
     0
  0
APPID
  2
ACSYNERGYSKETCH
 70
     0
  0
APPID
  2
ACAD_MODELDOC_XFORM
 70
     0
  0
APPID
  2
ACAD_MLEADERVER
 70
     0
  0
APPID
  2
ACAD_DIMASSOC_CALC_DIMLFAC
 70
     0
  0
APPID
  2
ACAD_DIMASSOC_DIMLFAC
 70
     0
  0
APPID
  2
ACAD_DIMASSOC_OVERRIDDEN_D
 70
     0
  0
APPID
  2
ACAD_DSTYLE_DIMRADIAL_EXTENSION
 70
     0
  0
APPID
  2
ACADANNOMONITORALERTICONDI
 70
     0
  0
ENDTAB
  0
TABLE
  2
DIMSTYLE
 70
     2
  0
DIMSTYLE
  2
STANDARD
 70
     0
  3

  4

  5

  6

  7

 40
1.0
 41
0.18
 42
0.0625
 43
0.38
 44
0.18
 45
0.0
 46
0.0
 47
0.0
 48
0.0
140
0.18
141
0.09
142
0.0
143
25.3999999999999986
144
1.0
145
0.0
146
1.0
147
0.09
 71
     0
 72
     0
 73
     1
 74
     1
 75
     0
 76
     0
 77
     0
 78
     0
170
     0
171
     2
172
     0
173
     0
174
     0
175
     0
176
     0
177
     0
178
     0
  0
ENDTAB
  0
ENDSEC
  0
SECTION
  2
BLOCKS
  0
BLOCK
  8
0
  2
$MODEL_SPACE
 70
     0
 10
0.0
 20
0.0
 30
0.0
  3
$MODEL_SPACE
  1

  0
ENDBLK
  5
41
  8
0
  0
BLOCK
 67
     1
  8
0
  2
$PAPER_SPACE
 70
     0
 10
0.0
 20
0.0
 30
0.0
  3
$PAPER_SPACE
  1

  0
ENDBLK
  5
3F
 67
     1
  8
0
  0
BLOCK
  8
0
  2
*S2
 70
     1
 10
0.0
 20
0.0
 30
0.0
  3
*S2
  1

  0
ENDBLK
  5
3F0
  8
0
  0
BLOCK
  8
0
  2
A$C09846BB5
 70
     0
 10
0.0
 20
0.0
 30
0.0
  3
A$C09846BB5
  1

  0
LINE
  5
C7A
  8
0
  6
CONTINUOUS
 62
     3
 10
-42.2999999999999972
 20
17.5000000000000107
 30
-0.0000000000000039
 11
42.3000000000000185
 21
17.4999999999999787
 31
-0.0000000000000039
210
0.0000000000000002
220
1.0
230
-0.0000000000000002
  0
LINE
  5
C7B
  8
0
  6
CONTINUOUS
 62
     3
 10
-40.4999999999999929
 20
12.0050451610908393
 30
-0.0000000000000027
 11
40.4999999999999929
 21
12.0050451610908198
 31
-0.0000000000000027
210
0.0000000000000002
220
1.0
230
-0.0000000000000002
  0
LINE
  5
C7C
  8
0
  6
CONTINUOUS
 62
     3
 10
-40.4999999999999929
 20
10.9000000000000394
 30
-0.0000000000000024
 11
40.4999999999999929
 21
10.9000000000000199
 31
-0.0000000000000024
210
0.0000000000000002
220
1.0
230
-0.0000000000000002
  0
LINE
  5
C7D
  8
0
  6
CONTINUOUS
 62
     3
 10
-41.900000000000027
 20
9.5000000000000036
 30
-0.0000000000000021
 11
41.900000000000027
 21
9.4999999999999858
 31
-0.0000000000000021
210
0.0000000000000002
220
1.0
230
-0.0000000000000002
  0
LINE
  5
C7E
  8
0
  6
CONTINUOUS
 62
     3
 10
-41.900000000000027
 20
8.5000000000000036
 30
-0.0000000000000019
 11
41.900000000000027
 21
8.4999999999999858
 31
-0.0000000000000019
210
0.0000000000000002
220
1.0
230
-0.0000000000000002
  0
LINE
  5
C7F
  8
0
  6
CONTINUOUS
 62
     3
 10
-40.5000000000000497
 20
7.1000000000000263
 30
-0.0000000000000016
 11
40.5000000000000497
 21
7.1000000000000076
 31
-0.0000000000000016
210
0.0000000000000002
220
1.0
230
-0.0000000000000002
  0
LINE
  5
C80
  8
0
  6
CONTINUOUS
 62
     3
 10
-40.5000000000000497
 20
6.5000000000000027
 30
-0.0000000000000014
 11
40.5000000000000497
 21
6.4999999999999849
 31
-0.0000000000000014
210
0.0000000000000002
220
1.0
230
-0.0000000000000002
  0
LINE
  5
C81
  8
0
  6
CONTINUOUS
 62
     3
 10
-42.7999999999999972
 20
2.5000000000000022
 30
-0.0000000000000006
 11
42.7999999999999972
 21
2.499999999999984
 31
-0.0000000000000006
210
0.0000000000000002
220
1.0
230
-0.0000000000000002
  0
LINE
  5
C82
  8
0
  6
CONTINUOUS
 62
     3
 10
-34.5
 20
0.0000000000000075
 30
0.0
 11
34.5
 21
-0.0000000000000075
 31
0.0
210
0.0000000000000002
220
1.0
230
-0.0000000000000002
  0
ARC
  5
C83
  8
0
  6
CONTINUOUS
 62
     3
 10
38.8970615154280281
 20
21.5
 30
0.0
 40
1.0000000000000191
210
0.0
220
-0.0000000000000002
230
-1.0
 50
29.411913665530399
 51
89.9999999999996021
  0
ARC
  5
C84
  8
0
  6
CONTINUOUS
 62
     3
 10
-38.8970615154280495
 20
21.4999999999999893
 30
0.0
 40
1.000000000000024
210
0.0
220
-0.0000000000000002
230
-1.0
 50
90.0000000000004263
 51
150.5880863344696081
  0
LINE
  5
C85
  8
0
  6
CONTINUOUS
 62
     3
 10
38.8970615154280566
 20
22.5000000000000107
 30
-0.000000000000005
 11
-38.8970615154280424
 21
22.5000000000000284
 31
-0.000000000000005
210
0.0000000000000002
220
1.0
230
-0.0000000000000002
  0
LINE
  5
C86
  8
0
  6
CONTINUOUS
 62
     3
 10
39.7681732327773219
 20
21.99108489683233
 30
-0.0000000000000049
 11
42.3000000000000327
 21
17.4999999999999893
 31
-0.0000000000000039
210
0.0000000000000002
220
1.0
230
-0.0000000000000002
  0
LINE
  5
C87
  8
0
  6
CONTINUOUS
 62
     3
 10
-39.7681732327773005
 20
21.9910848968323513
 30
-0.0000000000000049
 11
-42.3000000000000114
 21
17.5000000000000107
 31
-0.0000000000000039
210
0.0000000000000002
220
1.0
230
-0.0000000000000002
  0
ARC
  5
C88
  8
0
  6
CONTINUOUS
 62
     3
 10
39.2140740033710884
 20
17.0000000000000604
 30
0.0
 40
0.5
210
0.0
220
-0.0000000000000002
230
-1.0
 50
90.0000000000016342
 51
199.9999999999986073
  0
ARC
  5
C89
  8
0
  6
CONTINUOUS
 62
     3
 10
-39.2140740033711026
 20
17.0000000000000391
 30
0.0
 40
0.5000000000000017
210
0.0
220
-0.0000000000000002
230
-1.0
 50
340.0000000000014211
 51
89.99999999999838
  0
LINE
  5
C8A
  8
0
  6
CONTINUOUS
 62
     3
 10
38.7442276929781428
 20
16.8289899283372186
 30
-0.0000000000000037
 11
40.5
 21
12.0050451610908198
 31
-0.0000000000000027
210
0.0000000000000002
220
1.0
230
-0.0000000000000002
  0
LINE
  5
C8B
  8
0
  6
CONTINUOUS
 62
     3
 10
-38.7442276929781286
 20
16.8289899283372293
 30
-0.0000000000000037
 11
-40.5
 21
12.0050451610908393
 31
-0.0000000000000027
210
0.0000000000000002
220
1.0
230
-0.0000000000000002
  0
LINE
  5
C8C
  8
0
  6
CONTINUOUS
 62
     3
 10
40.4999999999999929
 20
12.0050451610908198
 30
-0.0000000000000027
 11
40.4999999999999929
 21
10.9000000000000199
 31
-0.0000000000000024
210
0.0000000000000002
220
1.0
230
-0.0000000000000002
  0
LINE
  5
C8D
  8
0
  6
CONTINUOUS
 62
     3
 10
-40.4999999999999929
 20
12.0050451610908393
 30
-0.0000000000000027
 11
-40.4999999999999929
 21
10.9000000000000394
 31
-0.0000000000000024
210
0.0000000000000002
220
1.0
230
-0.0000000000000002
  0
LINE
  5
C8E
  8
0
  6
CONTINUOUS
 62
     3
 10
40.4999999999999929
 20
10.9000000000000199
 30
-0.0000000000000024
 11
41.900000000000027
 21
9.4999999999999858
 31
-0.0000000000000021
210
0.0000000000000002
220
1.0
230
-0.0000000000000002
  0
LINE
  5
C8F
  8
0
  6
CONTINUOUS
 62
     3
 10
-40.4999999999999929
 20
10.9000000000000394
 30
-0.0000000000000024
 11
-41.900000000000027
 21
9.5000000000000036
 31
-0.0000000000000021
210
0.0000000000000002
220
1.0
230
-0.0000000000000002
  0
LINE
  5
C90
  8
0
  6
CONTINUOUS
 62
     3
 10
41.900000000000027
 20
9.4999999999999858
 30
-0.0000000000000021
 11
41.900000000000027
 21
8.4999999999999858
 31
-0.0000000000000019
210
0.0000000000000002
220
1.0
230
-0.0000000000000002
  0
LINE
  5
C91
  8
0
  6
CONTINUOUS
 62
     3
 10
-41.900000000000027
 20
9.5000000000000036
 30
-0.0000000000000021
 11
-41.900000000000027
 21
8.5000000000000036
 31
-0.0000000000000019
210
0.0000000000000002
220
1.0
230
-0.0000000000000002
  0
LINE
  5
C92
  8
0
  6
CONTINUOUS
 62
     3
 10
-40.5000000000000568
 20
7.1000000000000263
 30
-0.0000000000000016
 11
-41.900000000000027
 21
8.5000000000000036
 31
-0.0000000000000019
210
0.0000000000000002
220
1.0
230
-0.0000000000000002
  0
LINE
  5
C93
  8
0
  6
CONTINUOUS
 62
     3
 10
40.5000000000000568
 20
7.1000000000000076
 30
-0.0000000000000016
 11
41.900000000000027
 21
8.4999999999999858
 31
-0.0000000000000019
210
0.0000000000000002
220
1.0
230
-0.0000000000000002
  0
LINE
  5
C94
  8
0
  6
CONTINUOUS
 62
     3
 10
40.5000000000000568
 20
7.1000000000000076
 30
-0.0000000000000016
 11
40.5000000000000568
 21
6.4999999999999849
 31
-0.0000000000000014
210
0.0000000000000002
220
1.0
230
-0.0000000000000002
  0
LINE
  5
C95
  8
0
  6
CONTINUOUS
 62
     3
 10
-40.5000000000000568
 20
7.1000000000000263
 30
-0.0000000000000016
 11
-40.5000000000000568
 21
6.5000000000000027
 31
-0.0000000000000014
210
0.0000000000000002
220
1.0
230
-0.0000000000000002
  0
LINE
  5
C96
  8
0
  6
CONTINUOUS
 62
     3
 10
40.5000000000000568
 20
6.4999999999999849
 30
-0.0000000000000014
 11
42.8000000000000114
 21
2.499999999999984
 31
-0.0000000000000006
210
0.0000000000000002
220
1.0
230
-0.0000000000000002
  0
LINE
  5
C97
  8
0
  6
CONTINUOUS
 62
     3
 10
-40.5000000000000568
 20
6.5000000000000027
 30
-0.0000000000000014
 11
-42.8000000000000114
 21
2.5000000000000022
 31
-0.0000000000000006
210
0.0000000000000002
220
1.0
230
-0.0000000000000002
  0
ARC
  5
C98
  8
0
  6
CONTINUOUS
 62
     3
 10
34.5000000000000071
 20
3.9999999999999938
 30
0.0
 40
3.999999999999988
210
0.0
220
-0.0000000000000002
230
-1.0
 50
269.9999999999998863
 51
337.9756871629579109
  0
ARC
  5
C99
  8
0
  6
CONTINUOUS
 62
     3
 10
-34.5000000000000071
 20
3.9999999999999778
 30
0.0
 40
3.9999999999999858
210
0.0
220
-0.0000000000000002
230
-1.0
 50
202.0243128370420891
 51
270.0000000000001137
  0
LINE
  5
C9A
  8
0
  6
VERDECKT
 62
     1
 10
-36.9999999999999929
 20
16.5
 30
-0.0000000000000037
 11
37.0000000000000071
 21
16.4999999999999893
 31
-0.0000000000000037
210
0.0000000000000002
220
1.0
230
-0.0000000000000002
  0
LINE
  5
C9B
  8
0
  6
VERDECKT
 62
     1
 10
-32.0
 20
1.5
 30
-0.0000000000000003
 11
32.0
 21
1.4999999999999849
 31
-0.0000000000000003
210
0.0000000000000002
220
1.0
230
-0.0000000000000002
  0
LINE
  5
C9C
  8
0
  6
VERDECKT
 62
     1
 10
37.0000000000000071
 20
16.4999999999999893
 30
-0.0000000000000037
 11
37.0
 21
6.4999999999999858
 31
-0.0000000000000014
210
0.0000000000000002
220
1.0
230
-0.0000000000000002
  0
LINE
  5
C9D
  8
0
  6
VERDECKT
 62
     1
 10
-36.9999999999999929
 20
16.5
 30
-0.0000000000000037
 11
-37.0
 21
6.5000000000000018
 31
-0.0000000000000014
210
0.0000000000000002
220
1.0
230
-0.0000000000000002
  0
LINE
  5
C9E
  8
0
  6
VERDECKT
 62
     1
 10
-36.9999999999999929
 20
16.5
 30
-0.0000000000000037
 11
-37.9122537624158369
 21
21.6736481776669692
 31
-0.0000000000000048
210
0.0000000000000002
220
1.0
230
-0.0000000000000002
  0
LINE
  5
C9F
  8
0
  6
VERDECKT
 62
     1
 10
37.0000000000000071
 20
16.4999999999999893
 30
-0.0000000000000037
 11
37.9122537624158511
 21
21.6736481776669514
 31
-0.0000000000000048
210
0.0000000000000002
220
1.0
230
-0.0000000000000002
  0
ARC
  5
CA0
  8
0
  6
VERDECKT
 62
     1
 10
38.8970615154280424
 20
21.5000000000000284
 30
0.0
 40
0.9999999999999964
210
0.0
220
-0.0000000000000002
230
-1.0
 50
90.0000000000000284
 51
169.9999999999996021
  0
ARC
  5
CA1
  8
0
  6
VERDECKT
 62
     1
 10
-38.8970615154280566
 20
21.5000000000000213
 30
0.0
 40
0.9999999999999984
210
0.0
220
-0.0000000000000002
230
-1.0
 50
10.0000000000004192
 51
90.0000000000000284
  0
LINE
  5
CA2
  8
0
  6
VERDECKT
 62
     1
 10
40.1756658041690571
 20
4.0274399525987823
 30
-0.0000000000000009
 11
41.0
 21
2.499999999999984
 31
-0.0000000000000006
210
0.0000000000000002
220
1.0
230
-0.0000000000000002
  0
LINE
  5
CA3
  8
0
  6
VERDECKT
 62
     1
 10
-40.1756658041690571
 20
4.0274399525988001
 30
-0.0000000000000009
 11
-41.0
 21
2.5000000000000022
 31
-0.0000000000000006
210
0.0000000000000002
220
1.0
230
-0.0000000000000002
  0
ARC
  5
CA4
  8
0
  6
VERDECKT
 62
     1
 10
39.3836461788299204
 20
3.6000000000000139
 30
0.0
 40
0.8999999999999989
210
0.0
220
-0.0000000000000002
230
-1.0
 50
28.3550060284104184
 51
90.0000000000000568
  0
ARC
  5
CA5
  8
0
  6
VERDECKT
 62
     1
 10
39.3836461788299204
 20
3.6000000000000112
 30
0.0
 40
0.8999999999999994
210
0.0
220
-0.0000000000000002
230
-1.0
 50
90.0000000000000284
 51
175.3175831377321003
  0
ARC
  5
CA6
  8
0
  6
VERDECKT
 62
     1
 10
-39.3836461788299204
 20
3.599999999999993
 30
0.0
 40
0.9000000000000019
210
0.0
220
-0.0000000000000002
230
-1.0
 50
4.6824168622679156
 51
90.0000000000000284
  0
ARC
  5
CA7
  8
0
  6
VERDECKT
 62
     1
 10
-39.3836461788299204
 20
3.599999999999997
 30
0.0
 40
0.8999999999999968
210
0.0
220
-0.0000000000000002
230
-1.0
 50
90.0000000000000284
 51
151.6449939715895994
  0
LINE
  5
CA8
  8
0
  6
VERDECKT
 62
     1
 10
39.3836461788299204
 20
4.4999999999999947
 30
-0.000000000000001
 11
-39.3836461788299204
 21
4.5000000000000107
 31
-0.000000000000001
210
0.0000000000000002
220
1.0
230
-0.0000000000000002
  0
ARC
  5
CA9
  8
0
  6
VERDECKT
 62
     1
 10
34.4999999999997016
 20
4.0000000000000542
 30
0.0
 40
4.0000000000002931
210
0.0
220
-0.0000000000000002
230
-1.0
 50
337.9756871629587067
 51
355.3175831377296845
  0
ARC
  5
CAA
  8
0
  6
VERDECKT
 62
     1
 10
-34.4999999999997016
 20
4.00000000000004
 30
0.0
 40
4.0000000000002931
210
0.0
220
-0.0000000000000002
230
-1.0
 50
184.6824168622702871
 51
202.0243128370412933
  0
LINE
  5
CAB
  8
0
  6
VERDECKT
 62
     1
 10
32.0
 20
1.4999999999999849
 30
-0.0000000000000003
 11
32.0
 21
-0.0000000000000141
 31
0.0
210
0.0000000000000002
220
1.0
230
-0.0000000000000002
  0
LINE
  5
CAC
  8
0
  6
VERDECKT
 62
     1
 10
-32.0
 20
1.5
 30
-0.0000000000000003
 11
-32.0
 21
-0.0000000000000001
 31
0.0
210
0.0000000000000002
220
1.0
230
-0.0000000000000002
  0
ARC
  5
CAD
  8
0
  6
VERDECKT
 62
     1
 10
32.0
 20
6.4999999999999982
 30
0.0
 40
4.9999999999999956
210
0.0
220
-0.0000000000000002
230
-1.0
 50
270.0
 51
0.0
  0
ARC
  5
CAE
  8
0
  6
VERDECKT
 62
     1
 10
-32.0
 20
6.4999999999999867
 30
0.0
 40
5.0
210
0.0
220
-0.0000000000000002
230
-1.0
 50
180.0
 51
270.0
  0
ENDBLK
  5
CB0
  8
0
  0
BLOCK
  8
0
  2
A$C3817261A
 70
     0
 10
0.0
 20
0.0
 30
0.0
  3
A$C3817261A
  1

  0
CIRCLE
  5
CB4
  8
0
  6
CONTINUOUS
 62
     3
 10
0.0000000000000037
 20
0.000000000000003
 30
0.0
 40
37.0
  0
CIRCLE
  5
CB5
  8
0
  6
CONTINUOUS
 62
     3
 10
0.0000000000000039
 20
0.0000000000000031
 30
0.0
 40
42.3000000000000114
  0
CIRCLE
  5
CB6
  8
0
  6
CONTINUOUS
 62
     3
 10
0.0000000000000006
 20
0.0000000000000021
 30
0.0
 40
42.8000000000000114
  0
CIRCLE
  5
CB7
  8
0
  6
CONTINUOUS
 62
     3
 10
0.0000000000000003
 20
0.0000000000000021
 30
0.0
 40
32.0
  0
CIRCLE
  5
CB8
  8
0
  6
VERDECKT
 62
     1
 10
0.0000000000000027
 20
0.0000000000000027
 30
0.0
 40
40.4999999999999929
  0
CIRCLE
  5
CB9
  8
0
  6
VERDECKT
 62
     1
 10
0.0000000000000021
 20
0.0000000000000026
 30
0.0
 40
41.900000000000027
  0
CIRCLE
  5
CBA
  8
0
  6
VERDECKT
 62
     1
 10
0.0000000000000006
 20
0.0000000000000021
 30
0.0
 40
41.0
  0
CIRCLE
  5
CBB
  8
0
  6
VERDECKT
 62
     1
 10
0.0000000000000038
 20
0.000000000000003
 30
0.0
 40
38.7140740033711026
  0
ENDBLK
  5
CBD
  8
0
  0
ENDSEC
  0
SECTION
  2
ENTITIES
  0
INSERT
  5
3F2
  8
ADSK_ASSOC_ENTITY_BACKUPS
  2
*S2
 10
0.0
 20
0.0
 30
0.0
  0
INSERT
  5
CB1
  8
BEM
  2
A$C09846BB5
 10
-0.0000000000000039
 20
70.0
 30
0.0
  0
INSERT
  5
CBE
  8
BEM
  2
A$C3817261A
 10
-0.0000000000000039
 20
0.0
 30
0.0
  0
VIEWPORT
  5
3CE
 67
     1
  8
0
 10
5.2499996395561643
 20
3.999999883606677
 30
0.0
 40
15.5991064195008207
 41
8.5595096763414773
 68
     1
 69
     1
1001
ACAD
1000
MVIEW
1002
{
1070
    16
1010
0.0
1020
0.0
1030
0.0
1010
0.0
1020
0.0
1030
1.0
1040
0.0
1040
8.5595096763414773
1040
5.2499996395561643
1040
3.999999883606677
1040
50.0
1040
0.0
1040
0.0
1070
     0
1070
   500
1070
     1
1070
     1
1070
     0
1070
     0
1070
     0
1070
     0
1040
0.0
1040
0.0
1040
0.0
1040
10.0
1040
10.0
1040
10.0
1040
10.0
1070
     0
1002
{
1002
}
1002
}
  0
ENDSEC
  0
EOF
