  0
SECTION
  2
HEADER
  9
$ACADVER
  1
AC1009
  9
$INSBASE
 10
0.0
 20
0.0
 30
0.0
  9
$EXTMIN
 10
-32.0073846904646828
 20
-32.0100395172020171
 30
-0.4805639218173852
  9
$EXTMAX
 10
32.004303334751512
 20
63.0212407280006275
 30
18.0005640078715388
  9
$LIMMIN
 10
0.0
 20
0.0
  9
$LIMMAX
 10
210.0
 20
297.0
  9
$ORTHOMODE
 70
     1
  9
$REGENMODE
 70
     1
  9
$FILLMODE
 70
     1
  9
$QTEXTMODE
 70
     0
  9
$MIRRTEXT
 70
     1
  9
$DRAGMODE
 70
     2
  9
$LTSCALE
 40
10.0
  9
$OSMODE
 70
  1327
  9
$ATTMODE
 70
     1
  9
$TEXTSIZE
 40
3.5
  9
$TRACEWID
 40
0.5
  9
$TEXTSTYLE
  7
STANDARD
  9
$CLAYER
  8
0
  9
$CELTYPE
  6
BYLAYER
  9
$CECOLOR
 62
   256
  9
$DIMSCALE
 40
1.0
  9
$DIMASZ
 40
3.5
  9
$DIMEXO
 40
1.0
  9
$DIMDLI
 40
7.0
  9
$DIMRND
 40
0.0
  9
$DIMDLE
 40
0.0
  9
$DIMEXE
 40
1.0
  9
$DIMTP
 40
0.6
  9
$DIMTM
 40
0.6
  9
$DIMTXT
 40
3.5
  9
$DIMCEN
 40
1.5
  9
$DIMTSZ
 40
0.0
  9
$DIMTOL
 70
     0
  9
$DIMLIM
 70
     0
  9
$DIMTIH
 70
     0
  9
$DIMTOH
 70
     0
  9
$DIMSE1
 70
     0
  9
$DIMSE2
 70
     0
  9
$DIMTAD
 70
     1
  9
$DIMZIN
 70
     8
  9
$DIMBLK
  1

  9
$DIMASO
 70
     1
  9
$DIMSHO
 70
     0
  9
$DIMPOST
  1

  9
$DIMAPOST
  1

  9
$DIMALT
 70
     0
  9
$DIMALTD
 70
     2
  9
$DIMALTF
 40
25.3999999999999986
  9
$DIMLFAC
 40
1.0
  9
$DIMTOFL
 70
     1
  9
$DIMTVP
 40
0.0
  9
$DIMTIX
 70
     0
  9
$DIMSOXD
 70
     0
  9
$DIMSAH
 70
     0
  9
$DIMBLK1
  1

  9
$DIMBLK2
  1

  9
$DIMSTYLE
  2
STANDARD
  9
$DIMCLRD
 70
     0
  9
$DIMCLRE
 70
     0
  9
$DIMCLRT
 70
     1
  9
$DIMTFAC
 40
0.5142857142857143
  9
$DIMGAP
 40
1.5
  9
$LUNITS
 70
     2
  9
$LUPREC
 70
     2
  9
$SKETCHINC
 40
1.0
  9
$FILLETRAD
 40
0.0
  9
$AUNITS
 70
     0
  9
$AUPREC
 70
     0
  9
$MENU
  1
ACAD
  9
$ELEVATION
 40
0.0
  9
$PELEVATION
 40
0.0
  9
$THICKNESS
 40
0.0
  9
$LIMCHECK
 70
     0
  9
$BLIPMODE
 70
     0
  9
$CHAMFERA
 40
0.0
  9
$CHAMFERB
 40
0.0
  9
$SKPOLY
 70
     0
  9
$TDCREATE
 40
2451729.3350462969392538
  9
$TDUPDATE
 40
2458387.5523958331905305
  9
$TDINDWG
 40
0.0880467477
  9
$TDUSRTIMER
 40
0.0880467477
  9
$USRTIMER
 70
     1
  9
$ANGBASE
 50
0.0
  9
$ANGDIR
 70
     0
  9
$PDMODE
 70
     0
  9
$PDSIZE
 40
0.0
  9
$PLINEWID
 40
0.0
  9
$COORDS
 70
     1
  9
$SPLFRAME
 70
     0
  9
$SPLINETYPE
 70
     6
  9
$SPLINESEGS
 70
     8
  9
$ATTDIA
 70
     0
  9
$ATTREQ
 70
     0
  9
$HANDLING
 70
     1
  9
$HANDSEED
  5
A87
  9
$SURFTAB1
 70
     6
  9
$SURFTAB2
 70
     6
  9
$SURFTYPE
 70
     6
  9
$SURFU
 70
     6
  9
$SURFV
 70
     6
  9
$UCSNAME
  2

  9
$UCSORG
 10
0.0
 20
0.0
 30
0.0
  9
$UCSXDIR
 10
1.0
 20
0.0
 30
0.0
  9
$UCSYDIR
 10
0.0
 20
1.0
 30
0.0
  9
$PUCSNAME
  2

  9
$PUCSORG
 10
0.0
 20
0.0
 30
0.0
  9
$PUCSXDIR
 10
1.0
 20
0.0
 30
0.0
  9
$PUCSYDIR
 10
0.0
 20
1.0
 30
0.0
  9
$USERI1
 70
     0
  9
$USERI2
 70
     0
  9
$USERI3
 70
     0
  9
$USERI4
 70
     0
  9
$USERI5
 70
     0
  9
$USERR1
 40
0.0
  9
$USERR2
 40
0.0
  9
$USERR3
 40
0.0
  9
$USERR4
 40
0.0
  9
$USERR5
 40
0.0
  9
$WORLDVIEW
 70
     1
  9
$SHADEDGE
 70
     3
  9
$SHADEDIF
 70
    70
  9
$TILEMODE
 70
     1
  9
$MAXACTVP
 70
    16
  9
$PLIMCHECK
 70
     0
  9
$PEXTMIN
 10
1.0000000000000000E+20
 20
1.0000000000000000E+20
 30
1.0000000000000000E+20
  9
$PEXTMAX
 10
-1.0000000000000000E+20
 20
-1.0000000000000000E+20
 30
-1.0000000000000000E+20
  9
$PLIMMIN
 10
-0.2500002402958907
 20
-0.2499999962453767
  9
$PLIMMAX
 10
10.7499995194082203
 20
8.2499997634587334
  9
$UNITMODE
 70
     0
  9
$VISRETAIN
 70
     0
  9
$PLINEGEN
 70
     0
  9
$PSLTSCALE
 70
     0
  0
ENDSEC
  0
SECTION
  2
TABLES
  0
TABLE
  2
VPORT
 70
     1
  0
VPORT
  2
*ACTIVE
 70
     0
 10
0.0
 20
0.0
 11
1.0
 21
1.0
 12
-0.0015406778565747
 22
15.5056006053993105
 13
0.0
 23
0.0
 14
1.0
 24
1.0
 15
10.0
 25
10.0
 16
-0.000000000000053
 26
0.0
 36
238.695611938629412
 17
0.0
 27
0.0
 37
8.9999999999999982
 40
95.7422374540196444
 41
1.8826466916354549
 42
50.0
 43
0.0
 44
0.0
 50
0.0
 51
0.0
 71
     0
 72
  1500
 73
     1
 74
     0
 75
     0
 76
     0
 77
     0
 78
     0
  0
ENDTAB
  0
TABLE
  2
LTYPE
 70
     3
  0
LTYPE
  2
CONTINUOUS
 70
     0
  3
Solid line
 72
    65
 73
     0
 40
0.0
  0
LTYPE
  2
VERDECKT
 70
     0
  3
Verdeckt __ __ __ __ __ __ __ __ __ __ __ __ __
 72
    65
 73
     2
 40
0.375
 49
0.25
 49
-0.125
  0
ENDTAB
  0
TABLE
  2
LAYER
 70
    10
  0
LAYER
  2
0
 70
     0
 62
     7
  6
CONTINUOUS
  0
LAYER
  2
DEFPOINTS
 70
     0
 62
     7
  6
CONTINUOUS
  0
LAYER
  2
TEXT
 70
     0
 62
     7
  6
CONTINUOUS
  0
LAYER
  2
DICHTUNG
 70
     0
 62
   250
  6
CONTINUOUS
  0
ENDTAB
  0
TABLE
  2
STYLE
 70
     4
  0
STYLE
  2
STANDARD
 70
     0
 40
0.0
 41
0.8
 50
0.0
 71
     0
 42
3.5
  3
simplex.shx
  4

  0
STYLE
  2
GREEKS
 70
     0
 40
0.0
 41
0.8
 50
0.0
 71
     0
 42
3.5
  3
SIMPLEX.shx
  4

  0
ENDTAB
  0
TABLE
  2
VIEW
 70
     4
  0
ENDTAB
  0
TABLE
  2
UCS
 70
     0
  0
ENDTAB
  0
TABLE
  2
APPID
 70
     8
  0
APPID
  2
ACAD
 70
     0
  0
APPID
  2
ACAD_EXEMPT_FROM_CAD_STANDARDS
 70
     0
  0
APPID
  2
ACAD_NAV_VCDISPLAY
 70
     0
  0
APPID
  2
ACAD_PSEXT
 70
     0
  0
APPID
  2
ACAECLAYERSTANDARD
 70
     0
  0
APPID
  2
ACCMTRANSPARENCY
 70
     0
  0
APPID
  2
ACAD_MLEADERVER
 70
     0
  0
APPID
  2
ACAD_OBJECT_CHANGE_GUID
 70
     0
  0
ENDTAB
  0
TABLE
  2
DIMSTYLE
 70
     2
  0
DIMSTYLE
  2
STANDARD
 70
     0
  3

  4

  5

  6

  7

 40
1.0
 41
0.18
 42
0.0625
 43
0.38
 44
0.18
 45
0.0
 46
0.0
 47
0.0
 48
0.0
140
0.18
141
0.09
142
0.0
143
25.3999999999999986
144
1.0
145
0.0
146
1.0
147
0.09
 71
     0
 72
     0
 73
     1
 74
     1
 75
     0
 76
     0
 77
     0
 78
     0
170
     0
171
     2
172
     0
173
     0
174
     0
175
     0
176
     0
177
     0
178
     0
  0
ENDTAB
  0
ENDSEC
  0
SECTION
  2
BLOCKS
  0
BLOCK
  8
0
  2
$MODEL_SPACE
 70
     0
 10
0.0
 20
0.0
 30
0.0
  3
$MODEL_SPACE
  1

  0
ENDBLK
  5
47
  8
0
  0
BLOCK
 67
     1
  8
0
  2
$PAPER_SPACE
 70
     0
 10
0.0
 20
0.0
 30
0.0
  3
$PAPER_SPACE
  1

  0
ENDBLK
  5
45
 67
     1
  8
0
  0
BLOCK
  8
0
  2
A$C08C5354B
 70
     0
 10
0.0
 20
0.0
 30
0.0
  3
A$C08C5354B
  1

  0
CIRCLE
  5
9B1
  8
0
  6
CONTINUOUS
 62
     3
 10
-0.0000000000000002
 20
0.0000000000000038
 30
0.0
 40
24.0
  0
CIRCLE
  5
9B2
  8
0
  6
CONTINUOUS
 62
     3
 10
-0.0000000000000027
 20
0.0000000000000045
 30
0.0
 40
27.0
  0
CIRCLE
  5
9B3
  8
0
  6
CONTINUOUS
 62
     3
 10
-0.000000000000004
 20
0.0000000000000049
 30
0.0
 40
28.0557993196750317
  0
CIRCLE
  5
9B4
  8
0
  6
CONTINUOUS
 62
     3
 10
-0.0000000000000029
 20
0.0000000000000046
 30
0.0
 40
32.0
  0
CIRCLE
  5
9B5
  8
0
  6
VERDECKT
 62
     1
 10
-0.0000000000000019
 20
0.0000000000000043
 30
0.0
 40
30.25
  0
CIRCLE
  5
9B6
  8
0
  6
VERDECKT
 62
     1
 10
-0.0000000000000016
 20
0.0000000000000042
 30
0.0
 40
30.8499999999999694
  0
CIRCLE
  5
9B7
  8
0
  6
VERDECKT
 62
     1
 10
-0.0000000000000005
 20
0.0000000000000039
 30
0.0
 40
30.0000000000000604
  0
CIRCLE
  5
9B8
  8
0
  6
VERDECKT
 62
     1
 10
-0.0000000000000028
 20
0.0000000000000045
 30
0.0
 40
28.8140740033710188
  0
ENDBLK
  5
9BA
  8
0
  0
BLOCK
  8
0
  2
A$C01717165
 70
     0
 10
0.0
 20
0.0
 30
0.0
  3
A$C01717165
  1

  0
LINE
  5
9BE
  8
0
  6
CONTINUOUS
 62
     3
 10
-28.2472232502673783
 20
17.9999999999999289
 30
-0.000000000000004
 11
28.2472232502673783
 21
17.9999999999999289
 31
-0.000000000000004
210
0.0
220
1.0
230
-0.0000000000000002
  0
LINE
  5
9BF
  8
0
  6
CONTINUOUS
 62
     3
 10
-31.9999999999999396
 20
12.9999999999999396
 30
-0.0000000000000029
 11
32.0000000000000568
 21
12.9999999999999396
 31
-0.0000000000000029
210
0.0
220
1.0
230
-0.0000000000000002
  0
LINE
  5
9C0
  8
0
  6
CONTINUOUS
 62
     3
 10
-30.2499999999999503
 20
8.4666622578998005
 30
-0.0000000000000019
 11
30.2500000000000604
 21
8.4666622578998005
 31
-0.0000000000000019
210
0.0
220
1.0
230
-0.0000000000000002
  0
LINE
  5
9C1
  8
0
  6
CONTINUOUS
 62
     3
 10
-30.2499999999999503
 20
7.5999999999999392
 30
-0.0000000000000017
 11
30.2500000000000604
 21
7.5999999999999392
 31
-0.0000000000000017
210
0.0
220
1.0
230
-0.0000000000000002
  0
LINE
  5
9C2
  8
0
  6
CONTINUOUS
 62
     3
 10
-30.8499999999999588
 20
6.999999999999944
 30
-0.0000000000000016
 11
30.8499999999999588
 21
6.999999999999944
 31
-0.0000000000000016
210
0.0
220
1.0
230
-0.0000000000000002
  0
LINE
  5
9C3
  8
0
  6
CONTINUOUS
 62
     3
 10
-30.8499999999999588
 20
5.999999999999944
 30
-0.0000000000000013
 11
30.8499999999999588
 21
5.999999999999944
 31
-0.0000000000000013
210
0.0
220
1.0
230
-0.0000000000000002
  0
LINE
  5
9C4
  8
0
  6
CONTINUOUS
 62
     3
 10
-30.2499999999999503
 20
5.3999999999999488
 30
-0.0000000000000012
 11
30.2500000000000604
 21
5.3999999999999488
 31
-0.0000000000000012
210
0.0
220
1.0
230
-0.0000000000000002
  0
LINE
  5
9C5
  8
0
  6
CONTINUOUS
 62
     3
 10
-30.2499999999999503
 20
4.7528871108916917
 30
-0.0000000000000011
 11
30.2500000000000604
 21
4.7528871108916917
 31
-0.0000000000000011
210
0.0
220
1.0
230
-0.0000000000000002
  0
LINE
  5
9C6
  8
0
  6
CONTINUOUS
 62
     3
 10
-31.9999999999999396
 20
1.0
 30
-0.0000000000000002
 11
32.0000000000000568
 21
1.0
 31
-0.0000000000000002
210
0.0
220
1.0
230
-0.0000000000000002
  0
LINE
  5
9C7
  8
0
  6
CONTINUOUS
 62
     3
 10
-25.4999999999999396
 20
0.0
 30
0.0
 11
25.5000000000000604
 21
0.0
 31
0.0
210
0.0
220
1.0
230
-0.0000000000000002
  0
ARC
  5
9C8
  8
0
  6
CONTINUOUS
 62
     3
 10
28.2472232502674991
 20
16.5000000000000284
 30
0.0
 40
1.4999999999999001
210
0.0
220
-0.0000000000000002
230
-1.0
 50
30.0000000000004796
 51
90.0000000000046043
  0
ARC
  5
9C9
  8
0
  6
CONTINUOUS
 62
     3
 10
-28.2472232502674991
 20
16.5000000000000284
 30
0.0
 40
1.4999999999999001
210
0.0
220
-0.0000000000000002
230
-1.0
 50
89.9999999999953957
 51
149.9999999999994884
  0
LINE
  5
9CA
  8
0
  6
CONTINUOUS
 62
     3
 10
29.5462613559440506
 20
17.2499999999999787
 30
-0.0000000000000038
 11
31.9999999999999787
 21
12.9999999999999307
 31
-0.0000000000000029
210
0.0
220
1.0
230
-0.0000000000000002
  0
LINE
  5
9CB
  8
0
  6
CONTINUOUS
 62
     3
 10
-29.5462613559440506
 20
17.2499999999999787
 30
-0.0000000000000038
 11
-31.9999999999999787
 21
12.9999999999999307
 31
-0.0000000000000029
210
0.0
220
1.0
230
-0.0000000000000002
  0
ARC
  5
9CC
  8
0
  6
CONTINUOUS
 62
     3
 10
29.3140740033710507
 20
12.4999999999999201
 30
0.0
 40
0.5000000000000266
210
0.0
220
-0.0000000000000002
230
-1.0
 50
90.0
 51
199.9999999999955094
  0
ARC
  5
9CD
  8
0
  6
CONTINUOUS
 62
     3
 10
-29.3140740033710507
 20
12.4999999999999201
 30
0.0
 40
0.5000000000000295
210
0.0
220
-0.0000000000000002
230
-1.0
 50
340.0000000000043769
 51
90.0
  0
LINE
  5
9CE
  8
0
  6
CONTINUOUS
 62
     3
 10
28.8442276929780483
 20
12.3289899283371103
 30
-0.0000000000000027
 11
30.25
 21
8.4666622578998005
 31
-0.0000000000000019
210
0.0
220
1.0
230
-0.0000000000000002
  0
LINE
  5
9CF
  8
0
  6
CONTINUOUS
 62
     3
 10
-28.8442276929780483
 20
12.3289899283371103
 30
-0.0000000000000027
 11
-30.25
 21
8.4666622578998005
 31
-0.0000000000000019
210
0.0
220
1.0
230
-0.0000000000000002
  0
LINE
  5
9D0
  8
0
  6
CONTINUOUS
 62
     3
 10
30.25
 20
8.4666622578998005
 30
-0.0000000000000019
 11
30.25
 21
7.5999999999999392
 31
-0.0000000000000017
210
0.0
220
1.0
230
-0.0000000000000002
  0
LINE
  5
9D1
  8
0
  6
CONTINUOUS
 62
     3
 10
-30.25
 20
8.4666622578998005
 30
-0.0000000000000019
 11
-30.25
 21
7.5999999999999392
 31
-0.0000000000000017
210
0.0
220
1.0
230
-0.0000000000000002
  0
LINE
  5
9D2
  8
0
  6
CONTINUOUS
 62
     3
 10
30.2500000000000213
 20
7.5999999999999526
 30
-0.0000000000000017
 11
30.8499999999999801
 21
6.9999999999999591
 31
-0.0000000000000016
210
0.0
220
1.0
230
-0.0000000000000002
  0
LINE
  5
9D3
  8
0
  6
CONTINUOUS
 62
     3
 10
-30.2500000000000213
 20
7.5999999999999526
 30
-0.0000000000000017
 11
-30.8499999999999801
 21
6.9999999999999591
 31
-0.0000000000000016
210
0.0
220
1.0
230
-0.0000000000000002
  0
LINE
  5
9D4
  8
0
  6
CONTINUOUS
 62
     3
 10
30.8499999999999694
 20
6.999999999999944
 30
-0.0000000000000016
 11
30.8499999999999694
 21
5.999999999999944
 31
-0.0000000000000013
210
0.0
220
1.0
230
-0.0000000000000002
  0
LINE
  5
9D5
  8
0
  6
CONTINUOUS
 62
     3
 10
-30.8499999999999694
 20
6.999999999999944
 30
-0.0000000000000016
 11
-30.8499999999999694
 21
5.999999999999944
 31
-0.0000000000000013
210
0.0
220
1.0
230
-0.0000000000000002
  0
LINE
  5
9D6
  8
0
  6
CONTINUOUS
 62
     3
 10
-30.2500000000000213
 20
5.3999999999999346
 30
-0.0000000000000012
 11
-30.8499999999999801
 21
5.9999999999999289
 31
-0.0000000000000013
210
0.0
220
1.0
230
-0.0000000000000002
  0
LINE
  5
9D7
  8
0
  6
CONTINUOUS
 62
     3
 10
30.2500000000000213
 20
5.3999999999999346
 30
-0.0000000000000012
 11
30.8499999999999801
 21
5.9999999999999289
 31
-0.0000000000000013
210
0.0
220
1.0
230
-0.0000000000000002
  0
LINE
  5
9D8
  8
0
  6
CONTINUOUS
 62
     3
 10
30.25
 20
5.3999999999999488
 30
-0.0000000000000012
 11
30.25
 21
4.7528871108916917
 31
-0.0000000000000011
210
0.0
220
1.0
230
-0.0000000000000002
  0
LINE
  5
9D9
  8
0
  6
CONTINUOUS
 62
     3
 10
-30.25
 20
5.3999999999999488
 30
-0.0000000000000012
 11
-30.25
 21
4.7528871108916917
 31
-0.0000000000000011
210
0.0
220
1.0
230
-0.0000000000000002
  0
LINE
  5
9DA
  8
0
  6
CONTINUOUS
 62
     3
 10
30.25
 20
4.7528871108916917
 30
-0.0000000000000011
 11
32.0
 21
1.0
 31
-0.0000000000000002
210
0.0
220
1.0
230
-0.0000000000000002
  0
LINE
  5
9DB
  8
0
  6
CONTINUOUS
 62
     3
 10
-30.25
 20
4.7528871108916917
 30
-0.0000000000000011
 11
-32.0
 21
1.0
 31
-0.0000000000000002
210
0.0
220
1.0
230
-0.0000000000000002
  0
ARC
  5
9DC
  8
0
  6
CONTINUOUS
 62
     3
 10
25.5
 20
3.000000000000087
 30
0.0
 40
3.0000000000000862
210
0.0
220
-0.0000000000000002
230
-1.0
 50
270.0
 51
318.1896851042207004
  0
ARC
  5
9DD
  8
0
  6
CONTINUOUS
 62
     3
 10
-25.5
 20
3.0000000000000862
 30
0.0
 40
3.0000000000000848
210
0.0
220
-0.0000000000000002
230
-1.0
 50
221.8103148957792996
 51
270.0
  0
LINE
  5
9DE
  8
0
  6
VERDECKT
 62
     1
 10
-26.9999999999999396
 20
11.9999999999999396
 30
-0.0000000000000027
 11
27.0000000000000604
 21
11.9999999999999396
 31
-0.0000000000000027
210
0.0
220
1.0
230
-0.0000000000000002
  0
LINE
  5
9DF
  8
0
  6
VERDECKT
 62
     1
 10
-28.0557993196750317
 20
17.9877354868377495
 30
-0.000000000000004
 11
28.0557993196750317
 21
17.9877354868377495
 31
-0.000000000000004
210
0.0
220
1.0
230
-0.0000000000000002
  0
LINE
  5
9E0
  8
0
  6
VERDECKT
 62
     1
 10
-29.1742346141750808
 20
2.9999999999999001
 30
-0.0000000000000007
 11
29.1742346141750808
 21
2.9999999999999001
 31
-0.0000000000000007
210
0.0
220
1.0
230
-0.0000000000000002
  0
ARC
  5
9E1
  8
0
  6
VERDECKT
 62
     1
 10
24.0000000000000604
 20
3.9999999999999152
 30
0.0
 40
2.9999999999999432
210
0.0
220
-0.0000000000000002
230
-1.0
 50
269.99999999999892
 51
0.0000000000004949
  0
ARC
  5
9E2
  8
0
  6
VERDECKT
 62
     1
 10
-24.0000000000000604
 20
3.9999999999999138
 30
0.0
 40
2.9999999999999432
210
0.0
220
-0.0000000000000002
230
-1.0
 50
179.9999999999994031
 51
270.00000000000108
  0
LINE
  5
9E3
  8
0
  6
VERDECKT
 62
     1
 10
27.0
 20
11.9999999999999396
 30
-0.0000000000000027
 11
27.0
 21
3.999999999999944
 31
-0.0000000000000009
210
0.0
220
1.0
230
-0.0000000000000002
  0
LINE
  5
9E4
  8
0
  6
VERDECKT
 62
     1
 10
-27.0
 20
11.9999999999999396
 30
-0.0000000000000027
 11
-27.0
 21
3.999999999999944
 31
-0.0000000000000009
210
0.0
220
1.0
230
-0.0000000000000002
  0
LINE
  5
9E5
  8
0
  6
VERDECKT
 62
     1
 10
-26.9999999999999716
 20
11.9999999999999503
 30
-0.0000000000000027
 11
-28.0557993196749997
 21
17.9877354868377601
 31
-0.000000000000004
210
0.0
220
1.0
230
-0.0000000000000002
  0
LINE
  5
9E6
  8
0
  6
VERDECKT
 62
     1
 10
26.9999999999999716
 20
11.9999999999999503
 30
-0.0000000000000027
 11
28.0557993196749997
 21
17.9877354868377601
 31
-0.000000000000004
210
0.0
220
1.0
230
-0.0000000000000002
  0
LINE
  5
9E7
  8
0
  6
VERDECKT
 62
     1
 10
-28.0557993196750317
 20
17.9877354868377495
 30
-0.000000000000004
 11
-28.2472232502673783
 21
17.9999999999999396
 31
-0.000000000000004
210
0.0
220
1.0
230
-0.0000000000000002
  0
LINE
  5
9E8
  8
0
  6
VERDECKT
 62
     1
 10
28.0557993196750317
 20
17.9877354868377495
 30
-0.000000000000004
 11
28.2472232502673783
 21
17.9999999999999396
 31
-0.000000000000004
210
0.0
220
1.0
230
-0.0000000000000002
  0
LINE
  5
9E9
  8
0
  6
VERDECKT
 62
     1
 10
30.0
 20
2.249999999999972
 30
-0.0000000000000005
 11
30.0
 21
0.9999999999999433
 31
-0.0000000000000002
210
0.0
220
1.0
230
-0.0000000000000002
  0
LINE
  5
9EA
  8
0
  6
VERDECKT
 62
     1
 10
-30.0
 20
2.249999999999972
 30
-0.0000000000000005
 11
-30.0
 21
0.9999999999999433
 31
-0.0000000000000002
210
0.0
220
1.0
230
-0.0000000000000002
  0
ARC
  5
9EB
  8
0
  6
VERDECKT
 62
     1
 10
29.1742346141746793
 20
2.1704076850484029
 30
0.0
 40
0.8295923149515395
210
0.0
220
-0.0000000000000002
230
-1.0
 50
5.5055102055373499
 51
89.9999999999725162
  0
ARC
  5
9EC
  8
0
  6
VERDECKT
 62
     1
 10
-29.1742346141746793
 20
2.1704076850484029
 30
0.0
 40
0.8295923149515402
210
0.0
220
-0.0000000000000002
230
-1.0
 50
90.0000000000274838
 51
174.494489794462595
  0
ARC
  5
9ED
  8
0
  6
VERDECKT
 62
     1
 10
29.1742346141747291
 20
2.24999999999996
 30
0.0
 40
0.7499999999999419
210
0.0
220
-0.0000000000000002
230
-1.0
 50
89.9999999999736957
 51
168.4630409671813993
  0
ARC
  5
9EE
  8
0
  6
VERDECKT
 62
     1
 10
-29.1742346141747291
 20
2.2499999999999618
 30
0.0
 40
0.74999999999994
210
0.0
220
-0.0000000000000002
230
-1.0
 50
11.5369590328184994
 51
90.0000000000263469
  0
ARC
  5
9EF
  8
0
  6
VERDECKT
 62
     1
 10
25.4999999999999893
 20
3.0000000000000959
 30
0.0
 40
3.000000000000103
210
0.0
220
-0.0000000000000002
230
-1.0
 50
318.1896851042207004
 51
348.4630409671826783
  0
ARC
  5
9F0
  8
0
  6
VERDECKT
 62
     1
 10
-25.4999999999999787
 20
3.000000000000099
 30
0.0
 40
3.0000000000001141
210
0.0
220
-0.0000000000000002
230
-1.0
 50
191.5369590328172933
 51
221.8103148957791859
  0
LINE
  5
9F1
  8
0
  6
VERDECKT
 62
     1
 10
24.0
 20
0.9999999999998864
 30
-0.0000000000000002
 11
24.0
 21
0.0
 31
0.0
210
0.0
220
1.0
230
-0.0000000000000002
  0
LINE
  5
9F2
  8
0
  6
VERDECKT
 62
     1
 10
-24.0
 20
0.9999999999998864
 30
-0.0000000000000002
 11
-24.0
 21
0.0
 31
0.0
210
0.0
220
1.0
230
-0.0000000000000002
  0
ENDBLK
  5
9F4
  8
0
  0
BLOCK
  8
0
  2
*U9
 70
     1
 10
0.0
 20
0.0
 30
0.0
  3
*U9
  1

  0
CIRCLE
  5
A58
  8
DICHTUNG
 10
0.0
 20
0.0000000000000038
 30
-0.9999999999998863
 40
24.0
210
0.0
220
-0.0000000000000001
230
-1.0
  0
CIRCLE
  5
A59
  8
DICHTUNG
 10
0.0
 20
0.0000000000000038
 30
-3.9999999999999432
 40
27.0
210
0.0
220
-0.0000000000000001
230
-1.0
  0
CIRCLE
  5
A5A
  8
DICHTUNG
 10
0.0
 20
0.0000000000000038
 30
-3.9999999999999432
 40
27.0
210
0.0
220
-0.0000000000000001
230
-1.0
  0
CIRCLE
  5
A5B
  8
DICHTUNG
 10
0.0
 20
0.0000000000000038
 30
-11.9999999999999396
 40
27.0
210
0.0
220
-0.0000000000000001
230
-1.0
  0
CIRCLE
  5
A5C
  8
DICHTUNG
 10
0.0
 20
0.0000000000000038
 30
-11.9999999999999396
 40
27.0
210
0.0
220
-0.0000000000000001
230
-1.0
  0
CIRCLE
  5
A5D
  8
DICHTUNG
 10
0.0
 20
0.0000000000000038
 30
-17.9877354868377495
 40
28.0557993196750317
210
0.0
220
-0.0000000000000001
230
-1.0
  0
CIRCLE
  5
A5E
  8
DICHTUNG
 10
0.0
 20
0.0000000000000038
 30
-17.9877354868377495
 40
28.0557993196750317
210
0.0
220
-0.0000000000000001
230
-1.0
  0
CIRCLE
  5
A5F
  8
DICHTUNG
 10
0.0
 20
0.0000000000000038
 30
-17.9999999999999289
 40
28.2472232502673783
210
0.0
220
-0.0000000000000001
230
-1.0
  0
CIRCLE
  5
A60
  8
DICHTUNG
 10
0.0
 20
0.0000000000000038
 30
-17.9999999999999289
 40
28.2472232502673783
210
0.0
220
-0.0000000000000001
230
-1.0
  0
CIRCLE
  5
A61
  8
DICHTUNG
 10
0.0
 20
0.0000000000000038
 30
-17.2499999999999787
 40
29.5462613559440683
210
0.0
220
-0.0000000000000001
230
-1.0
  0
CIRCLE
  5
A62
  8
DICHTUNG
 10
0.0
 20
0.0000000000000038
 30
-17.2499999999999787
 40
29.5462613559440683
210
0.0
220
-0.0000000000000001
230
-1.0
  0
CIRCLE
  5
A63
  8
DICHTUNG
 10
0.0
 20
0.0000000000000038
 30
-12.9999999999999396
 40
32.0
210
0.0
220
-0.0000000000000001
230
-1.0
  0
CIRCLE
  5
A64
  8
DICHTUNG
 10
0.0
 20
0.0000000000000038
 30
-12.9999999999999396
 40
32.0
210
0.0
220
-0.0000000000000001
230
-1.0
  0
CIRCLE
  5
A65
  8
DICHTUNG
 10
0.0
 20
0.0000000000000038
 30
-12.9999999999999396
 40
29.3140740033710507
210
0.0
220
-0.0000000000000001
230
-1.0
  0
CIRCLE
  5
A66
  8
DICHTUNG
 10
0.0
 20
0.0000000000000038
 30
-12.9999999999999396
 40
29.3140740033710507
210
0.0
220
-0.0000000000000001
230
-1.0
  0
CIRCLE
  5
A67
  8
DICHTUNG
 10
0.0
 20
0.0000000000000038
 30
-12.3289899283371103
 40
28.8442276929780483
210
0.0
220
-0.0000000000000001
230
-1.0
  0
CIRCLE
  5
A68
  8
DICHTUNG
 10
0.0
 20
0.0000000000000038
 30
-12.3289899283371103
 40
28.8442276929780483
210
0.0
220
-0.0000000000000001
230
-1.0
  0
CIRCLE
  5
A69
  8
DICHTUNG
 10
0.0
 20
0.0000000000000038
 30
-8.4666622578997988
 40
30.25
210
0.0
220
-0.0000000000000001
230
-1.0
  0
CIRCLE
  5
A6A
  8
DICHTUNG
 10
0.0
 20
0.0000000000000038
 30
-8.4666622578997988
 40
30.25
210
0.0
220
-0.0000000000000001
230
-1.0
  0
CIRCLE
  5
A6B
  8
DICHTUNG
 10
0.0
 20
0.0000000000000038
 30
-7.5999999999999366
 40
30.25
210
0.0
220
-0.0000000000000001
230
-1.0
  0
CIRCLE
  5
A6C
  8
DICHTUNG
 10
0.0
 20
0.0000000000000038
 30
-7.5999999999999366
 40
30.25
210
0.0
220
-0.0000000000000001
230
-1.0
  0
CIRCLE
  5
A6D
  8
DICHTUNG
 10
0.0
 20
0.0000000000000038
 30
-6.9999999999999432
 40
30.8499999999999694
210
0.0
220
-0.0000000000000001
230
-1.0
  0
CIRCLE
  5
A6E
  8
DICHTUNG
 10
0.0
 20
0.0000000000000038
 30
-6.9999999999999432
 40
30.8499999999999694
210
0.0
220
-0.0000000000000001
230
-1.0
  0
CIRCLE
  5
A6F
  8
DICHTUNG
 10
0.0
 20
0.0000000000000038
 30
-5.9999999999999432
 40
30.8499999999999694
210
0.0
220
-0.0000000000000001
230
-1.0
  0
CIRCLE
  5
A70
  8
DICHTUNG
 10
0.0
 20
0.0000000000000038
 30
-5.9999999999999432
 40
30.8499999999999694
210
0.0
220
-0.0000000000000001
230
-1.0
  0
CIRCLE
  5
A71
  8
DICHTUNG
 10
0.0
 20
0.0000000000000038
 30
-5.399999999999948
 40
30.25
210
0.0
220
-0.0000000000000001
230
-1.0
  0
CIRCLE
  5
A72
  8
DICHTUNG
 10
0.0
 20
0.0000000000000038
 30
-5.399999999999948
 40
30.25
210
0.0
220
-0.0000000000000001
230
-1.0
  0
CIRCLE
  5
A73
  8
DICHTUNG
 10
0.0
 20
0.0000000000000038
 30
-4.7528871108916908
 40
30.25
210
0.0
220
-0.0000000000000001
230
-1.0
  0
CIRCLE
  5
A74
  8
DICHTUNG
 10
0.0
 20
0.0000000000000038
 30
-4.7528871108916908
 40
30.25
210
0.0
220
-0.0000000000000001
230
-1.0
  0
CIRCLE
  5
A75
  8
DICHTUNG
 10
0.0
 20
0.0000000000000038
 30
-1.0
 40
32.0
210
0.0
220
-0.0000000000000001
230
-1.0
  0
CIRCLE
  5
A76
  8
DICHTUNG
 10
0.0
 20
0.0000000000000038
 30
-1.0
 40
32.0
210
0.0
220
-0.0000000000000001
230
-1.0
  0
CIRCLE
  5
A77
  8
DICHTUNG
 10
0.0
 20
0.0000000000000038
 30
-0.999999999999943
 40
30.0
210
0.0
220
-0.0000000000000001
230
-1.0
  0
CIRCLE
  5
A78
  8
DICHTUNG
 10
0.0
 20
0.0000000000000038
 30
-0.999999999999943
 40
30.0
210
0.0
220
-0.0000000000000001
230
-1.0
  0
CIRCLE
  5
A79
  8
DICHTUNG
 10
0.0
 20
0.0000000000000038
 30
-2.2499999999999711
 40
30.0000000000000604
210
0.0
220
-0.0000000000000001
230
-1.0
  0
CIRCLE
  5
A7A
  8
DICHTUNG
 10
0.0
 20
0.0000000000000038
 30
-2.2499999999999711
 40
30.0000000000000604
210
0.0
220
-0.0000000000000001
230
-1.0
  0
CIRCLE
  5
A7B
  8
DICHTUNG
 10
0.0
 20
0.0000000000000038
 30
-2.9999999999999001
 40
29.1742346141750808
210
0.0
220
-0.0000000000000001
230
-1.0
  0
CIRCLE
  5
A7C
  8
DICHTUNG
 10
0.0
 20
0.0000000000000038
 30
-2.9999999999999001
 40
29.1742346141750808
210
0.0
220
-0.0000000000000001
230
-1.0
  0
CIRCLE
  5
A7D
  8
DICHTUNG
 10
0.0
 20
0.0000000000000038
 30
-2.3999999999999768
 40
28.4393876913398991
210
0.0
220
-0.0000000000000001
230
-1.0
  0
CIRCLE
  5
A7E
  8
DICHTUNG
 10
0.0
 20
0.0000000000000038
 30
-2.3999999999999768
 40
28.4393876913398991
210
0.0
220
-0.0000000000000001
230
-1.0
  0
CIRCLE
  5
A7F
  8
DICHTUNG
 10
0.0
 20
0.0000000000000038
 30
0.0
 40
25.5
210
0.0
220
-0.0000000000000001
230
-1.0
  0
CIRCLE
  5
A80
  8
DICHTUNG
 10
0.0
 20
0.0000000000000038
 30
0.0
 40
25.5
210
0.0
220
-0.0000000000000001
230
-1.0
  0
CIRCLE
  5
A81
  8
DICHTUNG
 10
0.0
 20
0.0000000000000038
 30
0.0
 40
24.0
210
0.0
220
-0.0000000000000001
230
-1.0
  0
CIRCLE
  5
A82
  8
DICHTUNG
 10
0.0
 20
0.0000000000000038
 30
0.0
 40
24.0
210
0.0
220
-0.0000000000000001
230
-1.0
  0
CIRCLE
  5
A83
  8
DICHTUNG
 10
0.0
 20
0.0000000000000038
 30
-0.9999999999998863
 40
24.0
210
0.0
220
-0.0000000000000001
230
-1.0
  0
ENDBLK
  5
A85
  8
0
  0
ENDSEC
  0
SECTION
  2
ENTITIES
  0
TEXT
  5
208
  8
TEXT
 10
99.8426346073358957
 20
42.0193948925661331
 30
0.0
 40
2.0
  1

 41
0.8
  7
GREEKS
 72
     1
 11
99.8426346073358957
 21
42.0193948925661331
 31
0.0
  0
INSERT
  5
7D6
  8
0
  2
*U9
 10
0.0
 20
0.0
 30
0.0
  0
INSERT
  5
9BB
  8
DEFPOINTS
  2
A$C08C5354B
 10
0.0
 20
0.0000000000000038
 30
0.0
  0
INSERT
  5
9F5
  8
DEFPOINTS
  2
A$C01717165
 10
0.0
 20
44.6452421185420931
 30
0.0
  0
VIEWPORT
  5
7E3
 67
     1
  8
0
 10
4.4286374985408319
 20
5.07952883022317
 30
0.0
 40
19.6943849711903987
 41
10.4610095238219607
 68
     1
 69
     1
1001
ACAD
1000
MVIEW
1002
{
1070
    16
1010
0.0
1020
0.0
1030
0.0
1010
0.0
1020
0.0
1030
1.0
1040
0.0
1040
10.4610095238219607
1040
4.4286374985408319
1040
5.07952883022317
1040
50.0
1040
0.0
1040
0.0
1070
     0
1070
  1500
1070
     1
1070
     1
1070
     0
1070
     0
1070
     0
1070
     0
1040
0.0
1040
0.0
1040
0.0
1040
10.0
1040
10.0
1040
10.0
1040
10.0
1070
     0
1002
{
1002
}
1002
}
  0
ENDSEC
  0
EOF
