  0
SECTION
  2
HEADER
  9
$ACADVER
  1
AC1009
  9
$INSBASE
 10
0.0
 20
0.0
 30
0.0
  9
$EXTMIN
 10
281.9036805796886256
 20
69.4870155429083525
 30
-6.5003966982481032
  9
$EXTMAX
 10
321.6687181137854168
 20
129.3528905109884874
 30
6.5003967587840696
  9
$LIMMIN
 10
0.0
 20
0.0
  9
$LIMMAX
 10
210.0
 20
297.0
  9
$ORTHOMODE
 70
     1
  9
$REGENMODE
 70
     1
  9
$FILLMODE
 70
     1
  9
$QTEXTMODE
 70
     0
  9
$MIRRTEXT
 70
     1
  9
$DRAGMODE
 70
     2
  9
$LTSCALE
 40
10.0
  9
$OSMODE
 70
  1327
  9
$ATTMODE
 70
     1
  9
$TEXTSIZE
 40
3.5
  9
$TRACEWID
 40
0.5
  9
$TEXTSTYLE
  7
STANDARD
  9
$CLAYER
  8
0
  9
$CELTYPE
  6
BYLAYER
  9
$CECOLOR
 62
   256
  9
$DIMSCALE
 40
1.0
  9
$DIMASZ
 40
3.5
  9
$DIMEXO
 40
1.0
  9
$DIMDLI
 40
7.0
  9
$DIMRND
 40
0.0
  9
$DIMDLE
 40
0.0
  9
$DIMEXE
 40
1.0
  9
$DIMTP
 40
0.6
  9
$DIMTM
 40
0.6
  9
$DIMTXT
 40
3.5
  9
$DIMCEN
 40
1.5
  9
$DIMTSZ
 40
0.0
  9
$DIMTOL
 70
     0
  9
$DIMLIM
 70
     0
  9
$DIMTIH
 70
     0
  9
$DIMTOH
 70
     0
  9
$DIMSE1
 70
     0
  9
$DIMSE2
 70
     0
  9
$DIMTAD
 70
     1
  9
$DIMZIN
 70
     8
  9
$DIMBLK
  1

  9
$DIMASO
 70
     1
  9
$DIMSHO
 70
     0
  9
$DIMPOST
  1

  9
$DIMAPOST
  1

  9
$DIMALT
 70
     0
  9
$DIMALTD
 70
     2
  9
$DIMALTF
 40
25.3999999999999986
  9
$DIMLFAC
 40
0.5
  9
$DIMTOFL
 70
     1
  9
$DIMTVP
 40
0.0
  9
$DIMTIX
 70
     0
  9
$DIMSOXD
 70
     0
  9
$DIMSAH
 70
     0
  9
$DIMBLK1
  1

  9
$DIMBLK2
  1

  9
$DIMSTYLE
  2
STANDARD
  9
$DIMCLRD
 70
     0
  9
$DIMCLRE
 70
     0
  9
$DIMCLRT
 70
     1
  9
$DIMTFAC
 40
0.5142857142857143
  9
$DIMGAP
 40
1.5
  9
$LUNITS
 70
     2
  9
$LUPREC
 70
     2
  9
$SKETCHINC
 40
1.0
  9
$FILLETRAD
 40
0.0
  9
$AUNITS
 70
     0
  9
$AUPREC
 70
     0
  9
$MENU
  1
ACAD
  9
$ELEVATION
 40
0.0
  9
$PELEVATION
 40
0.0
  9
$THICKNESS
 40
0.0
  9
$LIMCHECK
 70
     0
  9
$BLIPMODE
 70
     0
  9
$CHAMFERA
 40
0.0
  9
$CHAMFERB
 40
0.0
  9
$SKPOLY
 70
     0
  9
$TDCREATE
 40
2451729.3350462969392538
  9
$TDUPDATE
 40
2458387.5391087969765067
  9
$TDINDWG
 40
0.0527250347
  9
$TDUSRTIMER
 40
0.0527250347
  9
$USRTIMER
 70
     1
  9
$ANGBASE
 50
0.0
  9
$ANGDIR
 70
     0
  9
$PDMODE
 70
     0
  9
$PDSIZE
 40
0.0
  9
$PLINEWID
 40
0.0
  9
$COORDS
 70
     1
  9
$SPLFRAME
 70
     0
  9
$SPLINETYPE
 70
     6
  9
$SPLINESEGS
 70
     8
  9
$ATTDIA
 70
     0
  9
$ATTREQ
 70
     0
  9
$HANDLING
 70
     1
  9
$HANDSEED
  5
677
  9
$SURFTAB1
 70
     6
  9
$SURFTAB2
 70
     6
  9
$SURFTYPE
 70
     6
  9
$SURFU
 70
     6
  9
$SURFV
 70
     6
  9
$UCSNAME
  2

  9
$UCSORG
 10
0.0
 20
0.0
 30
0.0
  9
$UCSXDIR
 10
1.0
 20
0.0
 30
0.0
  9
$UCSYDIR
 10
0.0
 20
1.0
 30
0.0
  9
$PUCSNAME
  2

  9
$PUCSORG
 10
0.0
 20
0.0
 30
0.0
  9
$PUCSXDIR
 10
1.0
 20
0.0
 30
0.0
  9
$PUCSYDIR
 10
0.0
 20
1.0
 30
0.0
  9
$USERI1
 70
     0
  9
$USERI2
 70
     0
  9
$USERI3
 70
     0
  9
$USERI4
 70
     0
  9
$USERI5
 70
     0
  9
$USERR1
 40
0.0
  9
$USERR2
 40
0.0
  9
$USERR3
 40
0.0
  9
$USERR4
 40
0.0
  9
$USERR5
 40
0.0
  9
$WORLDVIEW
 70
     1
  9
$SHADEDGE
 70
     3
  9
$SHADEDIF
 70
    70
  9
$TILEMODE
 70
     1
  9
$MAXACTVP
 70
    16
  9
$PLIMCHECK
 70
     0
  9
$PEXTMIN
 10
-0.1588594694990846
 20
-0.1879092950883638
 30
-0.0000000000000058
  9
$PEXTMAX
 10
7.5092159206357501
 20
10.2370833116351196
 30
0.0000000000000104
  9
$PLIMMIN
 10
-0.2500002402958907
 20
-0.2499999962453767
  9
$PLIMMAX
 10
10.7499995194082203
 20
8.2499997634587334
  9
$UNITMODE
 70
     0
  9
$VISRETAIN
 70
     0
  9
$PLINEGEN
 70
     0
  9
$PSLTSCALE
 70
     0
  0
ENDSEC
  0
SECTION
  2
TABLES
  0
TABLE
  2
VPORT
 70
     1
  0
VPORT
  2
*ACTIVE
 70
     0
 10
0.0
 20
0.0
 11
1.0
 21
1.0
 12
-150.8963019694145942
 22
10.0501486446242403
 13
0.0
 23
0.0
 14
1.0
 24
1.0
 15
10.0
 25
10.0
 16
-0.0000000000001705
 26
0.0
 36
885.0091920000688788
 17
452.6825013161515017
 27
89.3698043823242188
 37
-0.0000000000000009
 40
60.3137493444000228
 41
1.8826466916354549
 42
50.0
 43
0.0
 44
0.0
 50
0.0
 51
0.0
 71
     0
 72
  1500
 73
     1
 74
     0
 75
     0
 76
     0
 77
     0
 78
     0
  0
ENDTAB
  0
TABLE
  2
LTYPE
 70
     3
  0
LTYPE
  2
CONTINUOUS
 70
     0
  3
Solid line
 72
    65
 73
     0
 40
0.0
  0
LTYPE
  2
VERDECKT
 70
     0
  3
Verdeckt __ __ __ __ __ __ __ __ __ __ __ __ __
 72
    65
 73
     2
 40
0.375
 49
0.25
 49
-0.125
  0
ENDTAB
  0
TABLE
  2
LAYER
 70
    10
  0
LAYER
  2
0
 70
     0
 62
     7
  6
CONTINUOUS
  0
LAYER
  2
DEFPOINTS
 70
     0
 62
     7
  6
CONTINUOUS
  0
LAYER
  2
DICHTUNG
 70
     0
 62
   250
  6
CONTINUOUS
  0
ENDTAB
  0
TABLE
  2
STYLE
 70
     4
  0
STYLE
  2
STANDARD
 70
     0
 40
0.0
 41
0.8
 50
0.0
 71
     0
 42
3.5
  3
simplex.shx
  4

  0
ENDTAB
  0
TABLE
  2
VIEW
 70
     2
  0
ENDTAB
  0
TABLE
  2
UCS
 70
     0
  0
ENDTAB
  0
TABLE
  2
APPID
 70
     8
  0
APPID
  2
ACAD
 70
     0
  0
APPID
  2
ACAECLAYERSTANDARD
 70
     0
  0
APPID
  2
ACCMTRANSPARENCY
 70
     0
  0
APPID
  2
ACAD_EXEMPT_FROM_CAD_STANDARDS
 70
     0
  0
APPID
  2
ACAD_NAV_VCDISPLAY
 70
     0
  0
APPID
  2
ACAD_PSEXT
 70
     0
  0
APPID
  2
ACAD_MLEADERVER
 70
     0
  0
APPID
  2
ACAD_OBJECT_CHANGE_GUID
 70
     0
  0
ENDTAB
  0
TABLE
  2
DIMSTYLE
 70
     2
  0
DIMSTYLE
  2
STANDARD
 70
     0
  3

  4

  5

  6

  7

 40
1.0
 41
0.18
 42
0.0625
 43
0.38
 44
0.18
 45
0.0
 46
0.0
 47
0.0
 48
0.0
140
0.18
141
0.09
142
0.0
143
25.3999999999999986
144
1.0
145
0.0
146
1.0
147
0.09
 71
     0
 72
     0
 73
     1
 74
     1
 75
     0
 76
     0
 77
     0
 78
     0
170
     0
171
     2
172
     0
173
     0
174
     0
175
     0
176
     0
177
     0
178
     0
  0
ENDTAB
  0
ENDSEC
  0
SECTION
  2
BLOCKS
  0
BLOCK
  8
0
  2
$MODEL_SPACE
 70
     0
 10
0.0
 20
0.0
 30
0.0
  3
$MODEL_SPACE
  1

  0
ENDBLK
  5
47
  8
0
  0
BLOCK
 67
     1
  8
0
  2
$PAPER_SPACE
 70
     0
 10
0.0
 20
0.0
 30
0.0
  3
$PAPER_SPACE
  1

  0
ENDBLK
  5
45
 67
     1
  8
0
  0
BLOCK
  8
0
  2
A$C78A94B39
 70
     0
 10
0.0
 20
0.0
 30
0.0
  3
A$C78A94B39
  1

  0
CIRCLE
  5
5D6
  8
0
  6
CONTINUOUS
 62
     3
 10
301.7883424760531739
 20
89.369801688825504
 30
0.0000000000001528
 40
12.5
  0
CIRCLE
  5
5D7
  8
0
  6
CONTINUOUS
 62
     3
 10
301.7883424760531739
 20
89.369801688825504
 30
0.0000000000001528
 40
16.25
  0
CIRCLE
  5
5D8
  8
0
  6
CONTINUOUS
 62
     3
 10
301.7883424760531739
 20
89.369801688825504
 30
0.0000000000001528
 40
17.0538475772933715
  0
CIRCLE
  5
5D9
  8
0
  6
CONTINUOUS
 62
     3
 10
301.7883424760531739
 20
89.369801688825504
 30
0.0000000000001528
 40
17.4999999999997087
  0
CIRCLE
  5
5DA
  8
0
  6
CONTINUOUS
 62
     3
 10
301.7883424760531739
 20
89.369801688825504
 30
0.0000000000001528
 40
19.0
  0
CIRCLE
  5
5DB
  8
0
  6
VERDECKT
 62
     1
 10
301.7883424760531739
 20
89.369801688825504
 30
0.0000000000001528
 40
18.6856656572714996
  0
CIRCLE
  5
5DC
  8
0
  6
VERDECKT
 62
     1
 10
301.7883424760531739
 20
89.369801688825504
 30
0.0000000000001528
 40
18.5
  0
CIRCLE
  5
5DD
  8
0
  6
VERDECKT
 62
     1
 10
301.7883424760531739
 20
89.369801688825504
 30
0.0000000000001528
 40
17.40192378864662
  0
CIRCLE
  5
5DE
  8
0
  6
VERDECKT
 62
     1
 10
301.7883424760531739
 20
89.369801688825504
 30
0.0000000000001528
 40
13.5
  0
CIRCLE
  5
5DF
  8
0
  6
VERDECKT
 62
     1
 10
301.7883424760531739
 20
89.369801688825504
 30
0.0000000000001528
 40
17.25
  0
ENDBLK
  5
5E1
  8
0
  0
BLOCK
  8
0
  2
A$C6F7F7897
 70
     0
 10
0.0
 20
0.0
 30
0.0
  3
A$C6F7F7897
  1

  0
LINE
  5
5E5
  8
0
  6
CONTINUOUS
 62
     3
 10
283.1026768187816742
 20
-0.0048094716167668
 30
0.0
 11
320.4740081333246735
 21
-0.0048094716167668
 31
0.0
210
0.0
220
1.0
230
-0.0000000000000002
  0
LINE
  5
5E6
  8
0
  6
CONTINUOUS
 62
     3
 10
282.7883424760531739
 20
-4.5000000000000568
 30
0.000000000000001
 11
320.7883424760531739
 21
-4.5000000000000568
 31
0.000000000000001
210
0.0
220
1.0
230
-0.0000000000000002
  0
LINE
  5
5E7
  8
0
  6
CONTINUOUS
 62
     3
 10
288.2883424760531739
 20
-6.5000000000000009
 30
0.0000000000000014
 11
315.2883424760531739
 21
-6.5000000000000009
 31
0.0000000000000014
210
0.0
220
1.0
230
-0.0000000000000002
  0
LINE
  5
5E8
  8
0
  6
CONTINUOUS
 62
     3
 10
284.2883424760535149
 20
6.4999999999999298
 30
-0.0000000000000014
 11
319.2883424760528897
 21
6.4999999999999298
 31
-0.0000000000000014
210
0.0
220
1.0
230
-0.0000000000000002
  0
LINE
  5
5E9
  8
0
  6
CONTINUOUS
 62
     3
 10
282.7883424760531739
 20
3.499999999999944
 30
-0.0000000000000008
 11
320.7883424760531739
 21
3.499999999999944
 31
-0.0000000000000008
210
0.0
220
1.0
230
-0.0000000000000002
  0
LINE
  5
5EA
  8
0
  6
CONTINUOUS
 62
     3
 10
320.4740081333246735
 20
-0.004809471616769
 30
0.0
 11
320.7883424760531739
 21
-4.5000000000000586
 31
0.000000000000001
210
0.0
220
1.0
230
-0.0000000000000002
  0
LINE
  5
5EB
  8
0
  6
CONTINUOUS
 62
     3
 10
283.1026768187816742
 20
-0.004809471616769
 30
0.0
 11
282.7883424760531739
 21
-4.5000000000000586
 31
0.000000000000001
210
0.0
220
1.0
230
-0.0000000000000002
  0
LINE
  5
5EC
  8
0
  6
CONTINUOUS
 62
     3
 10
288.2883424760531739
 20
-6.5000000000000009
 30
0.0000000000000014
 11
286.2883424760532876
 21
-4.5000000000000782
 31
0.000000000000001
210
0.0
220
1.0
230
-0.0000000000000002
  0
LINE
  5
5ED
  8
0
  6
CONTINUOUS
 62
     3
 10
315.2883424760531739
 20
-6.5000000000000009
 30
0.0000000000000014
 11
317.288342476053117
 21
-4.5000000000000782
 31
0.000000000000001
210
0.0
220
1.0
230
-0.0000000000000002
  0
ARC
  5
5EE
  8
0
  6
CONTINUOUS
 62
     3
 10
-286.7864188298354975
 20
3.3759618231085242
 30
0.0
 40
3.999999999999988
210
0.0
220
-0.0000000000000002
230
-1.0
 50
1.7770008778125319
 51
51.3531014763525775
  0
ARC
  5
5EF
  8
0
  6
CONTINUOUS
 62
     3
 10
-316.7902661222707934
 20
3.3759618231085242
 30
0.0
 40
3.9999999999999978
210
0.0
220
-0.0000000000000002
230
-1.0
 50
128.6468985236473941
 51
178.2229991221873888
  0
ARC
  5
5F0
  8
0
  6
CONTINUOUS
 62
     3
 10
-292.9067949197481084
 20
-1.9743952814569601
 30
0.0
 40
10.0000000000010694
210
0.0
220
-0.0000000000000002
230
-1.0
 50
11.3591612077495405
 51
33.1915306156352372
  0
ARC
  5
5F1
  8
0
  6
CONTINUOUS
 62
     3
 10
-310.6698900323581825
 20
-1.9743952814569581
 30
0.0
 40
10.0000000000010694
210
0.0
220
-0.0000000000000002
230
-1.0
 50
146.8084693843647983
 51
168.6408387922504915
  0
LINE
  5
5F2
  8
0
  6
VERDECKT
 62
     1
 10
284.3864186874066036
 20
-2.598076211353316
 30
0.0000000000000006
 11
319.190266264699801
 21
-2.598076211353316
 31
0.0000000000000006
210
0.0
220
1.0
230
-0.0000000000000002
  0
LINE
  5
5F3
  8
0
  6
VERDECKT
 62
     1
 10
319.190266264699801
 20
-2.598076211353316
 30
0.0000000000000006
 11
320.2883424760531739
 21
-4.5000000000000568
 31
0.000000000000001
210
0.0
220
1.0
230
-0.0000000000000002
  0
LINE
  5
5F4
  8
0
  6
VERDECKT
 62
     1
 10
284.3864186874066036
 20
-2.598076211353316
 30
0.0000000000000006
 11
283.2883424760531739
 21
-4.5000000000000568
 31
0.000000000000001
210
0.0
220
1.0
230
-0.0000000000000002
  0
LINE
  5
5F5
  8
0
  6
VERDECKT
 62
     1
 10
286.2883424760532876
 20
-4.5000000000000782
 30
0.000000000000001
 11
284.3864186874066036
 21
-2.598076211353316
 31
0.0000000000000006
210
0.0
220
1.0
230
-0.0000000000000002
  0
LINE
  5
5F6
  8
0
  6
VERDECKT
 62
     1
 10
317.288342476053117
 20
-4.5000000000000782
 30
0.000000000000001
 11
319.190266264699801
 21
-2.598076211353316
 31
0.0000000000000006
210
0.0
220
1.0
230
-0.0000000000000002
  0
LINE
  5
5F7
  8
0
  6
VERDECKT
 62
     1
 10
289.2883424760531739
 20
-6.5000000000000009
 30
0.0000000000000014
 11
285.5383424760531739
 21
-0.0048094716167384
 31
0.0
210
0.0
220
1.0
230
-0.0000000000000002
  0
LINE
  5
5F8
  8
0
  6
VERDECKT
 62
     1
 10
314.2883424760531739
 20
-6.5000000000000009
 30
0.0000000000000014
 11
318.0383424760531739
 21
-0.0048094716167384
 31
0.0
210
0.0
220
1.0
230
-0.0000000000000002
  0
LINE
  5
5F9
  8
0
  6
VERDECKT
 62
     1
 10
318.0383424760531739
 20
3.499999999999944
 30
-0.0000000000000008
 11
318.0383424760531739
 21
-0.0048094716167384
 31
0.0
210
0.0
220
1.0
230
-0.0000000000000002
  0
LINE
  5
5FA
  8
0
  6
VERDECKT
 62
     1
 10
285.5383424760531739
 20
3.499999999999944
 30
-0.0000000000000008
 11
285.5383424760531739
 21
-0.0048094716167384
 31
0.0
210
0.0
220
1.0
230
-0.0000000000000002
  0
LINE
  5
5FB
  8
0
  6
VERDECKT
 62
     1
 10
285.5383424760531739
 20
3.499999999999944
 30
-0.0000000000000008
 11
284.7344948987598059
 21
6.5000000000000009
 31
-0.0000000000000014
210
0.0
220
1.0
230
-0.0000000000000002
  0
LINE
  5
5FC
  8
0
  6
VERDECKT
 62
     1
 10
318.0383424760531739
 20
3.499999999999944
 30
-0.0000000000000008
 11
318.842190053346485
 21
6.5000000000000009
 31
-0.0000000000000014
210
0.0
220
1.0
230
-0.0000000000000002
  0
ENDBLK
  5
5FE
  8
0
  0
BLOCK
  8
0
  2
*U10
 70
     1
 10
0.0
 20
0.0
 30
0.0
  3
*U10
  1

  0
CIRCLE
  5
65C
  8
DICHTUNG
 10
-301.7883424760531739
 20
89.369801688825504
 30
0.0048094716167613
 40
18.6856656572714996
210
0.0
220
-0.0000000000000001
230
-1.0
  0
CIRCLE
  5
65D
  8
DICHTUNG
 10
-301.7883424760531739
 20
89.369801688825504
 30
4.5000000000000506
 40
19.0
210
0.0
220
-0.0000000000000001
230
-1.0
  0
CIRCLE
  5
65E
  8
DICHTUNG
 10
-301.7883424760531739
 20
89.369801688825504
 30
4.5000000000000506
 40
19.0
210
0.0
220
-0.0000000000000001
230
-1.0
  0
CIRCLE
  5
65F
  8
DICHTUNG
 10
-301.7883424760531739
 20
89.369801688825504
 30
4.5000000000000506
 40
18.5
210
0.0
220
-0.0000000000000001
230
-1.0
  0
CIRCLE
  5
660
  8
DICHTUNG
 10
-301.7883424760531739
 20
89.369801688825504
 30
4.5000000000000506
 40
18.5
210
0.0
220
-0.0000000000000001
230
-1.0
  0
CIRCLE
  5
661
  8
DICHTUNG
 10
-301.7883424760531739
 20
89.369801688825504
 30
2.5980762113533098
 40
17.40192378864662
210
0.0
220
-0.0000000000000001
230
-1.0
  0
CIRCLE
  5
662
  8
DICHTUNG
 10
-301.7883424760531739
 20
89.369801688825504
 30
2.5980762113533098
 40
17.40192378864662
210
0.0
220
-0.0000000000000001
230
-1.0
  0
CIRCLE
  5
663
  8
DICHTUNG
 10
-301.7883424760531739
 20
89.369801688825504
 30
6.4999999999999938
 40
13.5
210
0.0
220
-0.0000000000000001
230
-1.0
  0
CIRCLE
  5
664
  8
DICHTUNG
 10
-301.7883424760531739
 20
89.369801688825504
 30
6.4999999999999938
 40
13.5
210
0.0
220
-0.0000000000000001
230
-1.0
  0
CIRCLE
  5
665
  8
DICHTUNG
 10
-301.7883424760531739
 20
89.369801688825504
 30
6.4999999999999938
 40
12.5
210
0.0
220
-0.0000000000000001
230
-1.0
  0
CIRCLE
  5
666
  8
DICHTUNG
 10
-301.7883424760531739
 20
89.369801688825504
 30
6.4999999999999938
 40
12.5
210
0.0
220
-0.0000000000000001
230
-1.0
  0
CIRCLE
  5
667
  8
DICHTUNG
 10
-301.7883424760531739
 20
89.369801688825504
 30
0.0048094716167329
 40
16.25
210
0.0
220
-0.0000000000000001
230
-1.0
  0
CIRCLE
  5
668
  8
DICHTUNG
 10
-301.7883424760531739
 20
89.369801688825504
 30
0.0048094716167329
 40
16.25
210
0.0
220
-0.0000000000000001
230
-1.0
  0
CIRCLE
  5
669
  8
DICHTUNG
 10
-301.7883424760531739
 20
89.369801688825504
 30
-3.499999999999948
 40
16.25
210
0.0
220
-0.0000000000000001
230
-1.0
  0
CIRCLE
  5
66A
  8
DICHTUNG
 10
-301.7883424760531739
 20
89.369801688825504
 30
-3.499999999999948
 40
16.25
210
0.0
220
-0.0000000000000001
230
-1.0
  0
CIRCLE
  5
66B
  8
DICHTUNG
 10
-301.7883424760531739
 20
89.369801688825504
 30
-6.5000000000000053
 40
17.0538475772933715
210
0.0
220
-0.0000000000000001
230
-1.0
  0
CIRCLE
  5
66C
  8
DICHTUNG
 10
301.7883424760531739
 20
89.369801688825504
 30
6.5
 40
17.0538475772933715
  0
CIRCLE
  5
66D
  8
DICHTUNG
 10
301.7883424760531739
 20
89.369801688825504
 30
6.4999999999999281
 40
17.4999999999997087
  0
CIRCLE
  5
66E
  8
DICHTUNG
 10
-301.7883424760531739
 20
89.369801688825504
 30
-6.4999999999999343
 40
17.4999999999997087
210
0.0
220
-0.0000000000000001
230
-1.0
  0
CIRCLE
  5
66F
  8
DICHTUNG
 10
-301.7883424760531739
 20
89.369801688825504
 30
-3.499999999999948
 40
19.0
210
0.0
220
-0.0000000000000001
230
-1.0
  0
CIRCLE
  5
670
  8
DICHTUNG
 10
-301.7883424760531739
 20
89.369801688825504
 30
-3.499999999999948
 40
19.0
210
0.0
220
-0.0000000000000001
230
-1.0
  0
CIRCLE
  5
671
  8
DICHTUNG
 10
-301.7883424760531739
 20
89.369801688825504
 30
-3.499999999999948
 40
17.25
210
0.0
220
-0.0000000000000001
230
-1.0
  0
CIRCLE
  5
672
  8
DICHTUNG
 10
-301.7883424760531739
 20
89.369801688825504
 30
-3.499999999999948
 40
17.25
210
0.0
220
-0.0000000000000001
230
-1.0
  0
CIRCLE
  5
673
  8
DICHTUNG
 10
-301.7883424760531739
 20
89.369801688825504
 30
0.0048094716167613
 40
18.6856656572714996
210
0.0
220
-0.0000000000000001
230
-1.0
  0
ENDBLK
  5
675
  8
0
  0
ENDSEC
  0
SECTION
  2
ENTITIES
  0
INSERT
  5
32B
  8
0
  2
*U10
 10
0.0
 20
0.0
 30
0.0
  0
INSERT
  5
5E2
  8
0
  2
A$C78A94B39
 10
0.0
 20
0.0
 30
-6.5000000000001519
  0
INSERT
  5
5FF
  8
0
  2
A$C6F7F7897
 10
0.0
 20
122.7966295849956992
 30
-0.0048094716167402
  0
VIEWPORT
  5
418
 67
     1
  8
0
 10
4.311442601547526
 20
5.0245971895342176
 30
0.0
 40
19.7652383976867512
 41
10.4986445335192897
 68
     1
 69
     1
1001
ACAD
1000
MVIEW
1002
{
1070
    16
1010
0.0
1020
0.0
1030
0.0
1010
0.0
1020
0.0
1030
1.0
1040
0.0
1040
10.4986445335192897
1040
4.311442601547526
1040
5.0245971895342176
1040
50.0
1040
0.0
1040
0.0
1070
     0
1070
  1500
1070
     1
1070
     1
1070
     0
1070
     0
1070
     0
1070
     0
1040
0.0
1040
0.0
1040
0.0
1040
10.0
1040
10.0
1040
10.0
1040
10.0
1070
     0
1002
{
1002
}
1002
}
  0
ENDSEC
  0
EOF
