  0
SECTION
  2
HEADER
  9
$ACADVER
  1
AC1009
  9
$INSBASE
 10
0.0
 20
0.0
 30
0.0
  9
$EXTMIN
 10
-59.0000000000001208
 20
0.0
 30
-0.0000000000000705
  9
$EXTMAX
 10
58.9999999999999076
 20
310.0000000000002274
 30
0.0
  9
$LIMMIN
 10
0.0
 20
0.0
  9
$LIMMAX
 10
419.9999999999998863
 20
594.0000000000002274
  9
$ORTHOMODE
 70
     1
  9
$REGENMODE
 70
     1
  9
$FILLMODE
 70
     1
  9
$QTEXTMODE
 70
     0
  9
$MIRRTEXT
 70
     1
  9
$DRAGMODE
 70
     2
  9
$LTSCALE
 40
20.0
  9
$OSMODE
 70
  2559
  9
$ATTMODE
 70
     1
  9
$TEXTSIZE
 40
3.5
  9
$TRACEWID
 40
0.5
  9
$TEXTSTYLE
  7
STANDARD
  9
$CLAYER
  8
STEMPEL
  9
$CELTYPE
  6
BYLAYER
  9
$CECOLOR
 62
   256
  9
$DIMSCALE
 40
1.0
  9
$DIMASZ
 40
3.5
  9
$DIMEXO
 40
1.0
  9
$DIMDLI
 40
7.0
  9
$DIMRND
 40
0.0
  9
$DIMDLE
 40
0.0
  9
$DIMEXE
 40
1.0
  9
$DIMTP
 40
0.0
  9
$DIMTM
 40
0.0
  9
$DIMTXT
 40
3.5
  9
$DIMCEN
 40
1.5
  9
$DIMTSZ
 40
0.0
  9
$DIMTOL
 70
     0
  9
$DIMLIM
 70
     0
  9
$DIMTIH
 70
     0
  9
$DIMTOH
 70
     0
  9
$DIMSE1
 70
     0
  9
$DIMSE2
 70
     0
  9
$DIMTAD
 70
     1
  9
$DIMZIN
 70
     8
  9
$DIMBLK
  1

  9
$DIMASO
 70
     1
  9
$DIMSHO
 70
     0
  9
$DIMPOST
  1

  9
$DIMAPOST
  1

  9
$DIMALT
 70
     0
  9
$DIMALTD
 70
     2
  9
$DIMALTF
 40
25.3999999999999986
  9
$DIMLFAC
 40
2.0
  9
$DIMTOFL
 70
     1
  9
$DIMTVP
 40
0.0
  9
$DIMTIX
 70
     0
  9
$DIMSOXD
 70
     0
  9
$DIMSAH
 70
     0
  9
$DIMBLK1
  1

  9
$DIMBLK2
  1

  9
$DIMSTYLE
  2
STANDARD
  9
$DIMCLRD
 70
     0
  9
$DIMCLRE
 70
     0
  9
$DIMCLRT
 70
     1
  9
$DIMTFAC
 40
0.5142857142857143
  9
$DIMGAP
 40
1.5
  9
$LUNITS
 70
     2
  9
$LUPREC
 70
     2
  9
$SKETCHINC
 40
1.0
  9
$FILLETRAD
 40
154.0
  9
$AUNITS
 70
     1
  9
$AUPREC
 70
     3
  9
$MENU
  1
ACAD
  9
$ELEVATION
 40
0.0
  9
$PELEVATION
 40
0.0
  9
$THICKNESS
 40
0.0
  9
$LIMCHECK
 70
     0
  9
$BLIPMODE
 70
     0
  9
$CHAMFERA
 40
0.0
  9
$CHAMFERB
 40
0.0
  9
$SKPOLY
 70
     0
  9
$TDCREATE
 40
2452040.6370949079282582
  9
$TDUPDATE
 40
2458701.4314814819954336
  9
$TDINDWG
 40
0.2953073611
  9
$TDUSRTIMER
 40
0.2953073611
  9
$USRTIMER
 70
     1
  9
$ANGBASE
 50
0.0
  9
$ANGDIR
 70
     0
  9
$PDMODE
 70
     0
  9
$PDSIZE
 40
0.0
  9
$PLINEWID
 40
0.0
  9
$COORDS
 70
     1
  9
$SPLFRAME
 70
     0
  9
$SPLINETYPE
 70
     6
  9
$SPLINESEGS
 70
     8
  9
$ATTDIA
 70
     1
  9
$ATTREQ
 70
     1
  9
$HANDLING
 70
     1
  9
$HANDSEED
  5
1DCE
  9
$SURFTAB1
 70
     6
  9
$SURFTAB2
 70
     6
  9
$SURFTYPE
 70
     6
  9
$SURFU
 70
     6
  9
$SURFV
 70
     6
  9
$UCSNAME
  2

  9
$UCSORG
 10
0.0
 20
0.0
 30
0.0
  9
$UCSXDIR
 10
1.0
 20
0.0
 30
0.0
  9
$UCSYDIR
 10
0.0
 20
1.0
 30
0.0
  9
$PUCSNAME
  2

  9
$PUCSORG
 10
0.0
 20
0.0
 30
0.0
  9
$PUCSXDIR
 10
1.0
 20
0.0
 30
0.0
  9
$PUCSYDIR
 10
0.0
 20
1.0
 30
0.0
  9
$USERI1
 70
     0
  9
$USERI2
 70
     0
  9
$USERI3
 70
     0
  9
$USERI4
 70
     0
  9
$USERI5
 70
     0
  9
$USERR1
 40
0.0
  9
$USERR2
 40
0.0
  9
$USERR3
 40
0.0
  9
$USERR4
 40
0.0
  9
$USERR5
 40
0.0
  9
$WORLDVIEW
 70
     1
  9
$SHADEDGE
 70
     3
  9
$SHADEDIF
 70
    70
  9
$TILEMODE
 70
     1
  9
$MAXACTVP
 70
    16
  9
$PLIMCHECK
 70
     0
  9
$PEXTMIN
 10
-0.0000001925761808
 20
0.0000001907463769
 30
-411.1988790163717908
  9
$PEXTMAX
 10
198.732832097878287
 20
290.9435761907462847
 30
0.0000000000000568
  9
$PLIMMIN
 10
-5.7377405068367171
 20
-3.1785530134047848
  9
$PLIMMAX
 10
204.4705755150492053
 20
294.1221172219420055
  9
$UNITMODE
 70
     0
  9
$VISRETAIN
 70
     0
  9
$PLINEGEN
 70
     0
  9
$PSLTSCALE
 70
     0
  0
ENDSEC
  0
SECTION
  2
TABLES
  0
TABLE
  2
VPORT
 70
     1
  0
VPORT
  2
*ACTIVE
 70
     0
 10
0.0
 20
0.0
 11
1.0
 21
1.0
 12
-0.0000000000001137
 22
0.0000000000001137
 13
0.0
 23
0.0
 14
1.0
 24
1.0
 15
10.0
 25
10.0
 16
-0.0000000000001894
 26
0.0
 36
853.027251893002699
 17
0.0
 27
155.0
 37
-0.0000000000000344
 40
311.580288870008701
 41
1.868197278911564
 42
50.0
 43
0.0
 44
0.0
 50
0.0
 51
0.0
 71
     0
 72
  1500
 73
     1
 74
     0
 75
     0
 76
     0
 77
     0
 78
     0
  0
ENDTAB
  0
TABLE
  2
LTYPE
 70
     5
  0
LTYPE
  2
CONTINUOUS
 70
     0
  3
Solid line
 72
    65
 73
     0
 40
0.0
  0
LTYPE
  2
VERDECKT
 70
     0
  3
_ _ _ _ _ _ _ _ _ _ _ _ _ _ _ _ _ _ _ _ _ _ _
 72
    65
 73
     2
 40
0.375
 49
0.25
 49
-0.125
  0
ENDTAB
  0
TABLE
  2
LAYER
 70
    13
  0
LAYER
  2
0
 70
     0
 62
     7
  6
CONTINUOUS
  0
LAYER
  2
STEMPEL
 70
     0
 62
     3
  6
CONTINUOUS
  0
LAYER
  2
DEFPOINTS
 70
     0
 62
     7
  6
CONTINUOUS
  0
LAYER
  2
ADSK_ASSOC_ENTITY_BACKUPS
 70
     1
 62
    -7
  6
CONTINUOUS
  0
ENDTAB
  0
TABLE
  2
STYLE
 70
     2
  0
STYLE
  2
STANDARD
 70
     0
 40
0.0
 41
0.8
 50
0.0
 71
     0
 42
3.5
  3
simplex.shx
  4

  0
ENDTAB
  0
TABLE
  2
VIEW
 70
     1
  0
ENDTAB
  0
TABLE
  2
UCS
 70
     0
  0
ENDTAB
  0
TABLE
  2
APPID
 70
    18
  0
APPID
  2
ACAD
 70
     0
  0
APPID
  2
DCO15
 70
     0
  0
APPID
  2
ACAD_NAV_VCDISPLAY
 70
     0
  0
APPID
  2
ACAD_PSEXT
 70
     0
  0
APPID
  2
ACAD_EXEMPT_FROM_CAD_STANDARDS
 70
     0
  0
APPID
  2
ACAD_MLEADERVER
 70
     0
  0
APPID
  2
ACAECLAYERSTANDARD
 70
     0
  0
APPID
  2
ACCMTRANSPARENCY
 70
     0
  0
APPID
  2
ACDBDYNAMICBLOCKGUID
 70
     0
  0
APPID
  2
ACAD_STEPID
 70
     0
  0
APPID
  2
ACSYNERGY
 70
     0
  0
APPID
  2
SYNERGY_BODY_TBR_ID
 70
     0
  0
APPID
  2
ACAD_VIEW_EDGE_ID
 70
     0
  0
APPID
  2
ACADANNOPO
 70
     0
  0
APPID
  2
ACAD_DSTYLE_DIMJAG
 70
     0
  0
APPID
  2
ACAD_DSTYLE_DIMTALN
 70
     0
  0
APPID
  2
ACADANNOMONITORALERTICONDI
 70
     0
  0
APPID
  2
AcDbAttr
 70
     0
  0
ENDTAB
  0
TABLE
  2
DIMSTYLE
 70
     1
  0
DIMSTYLE
  2
STANDARD
 70
     0
  3

  4

  5

  6

  7

 40
1.0
 41
0.18
 42
0.0625
 43
0.38
 44
0.18
 45
0.0
 46
0.0
 47
0.0
 48
0.0
140
0.18
141
0.09
142
0.0
143
25.3999999999999986
144
1.0
145
0.0
146
1.0
147
0.09
 71
     0
 72
     0
 73
     1
 74
     1
 75
     0
 76
     0
 77
     0
 78
     0
170
     0
171
     2
172
     0
173
     0
174
     0
175
     0
176
     0
177
     0
178
     0
  0
ENDTAB
  0
ENDSEC
  0
SECTION
  2
BLOCKS
  0
BLOCK
  8
0
  2
$MODEL_SPACE
 70
     0
 10
0.0
 20
0.0
 30
0.0
  3
$MODEL_SPACE
  1

  0
ENDBLK
  5
44
  8
0
  0
BLOCK
 67
     1
  8
0
  2
$PAPER_SPACE
 70
     0
 10
0.0
 20
0.0
 30
0.0
  3
$PAPER_SPACE
  1

  0
ENDBLK
  5
42
 67
     1
  8
0
  0
BLOCK
  8
0
  2
*S3
 70
     1
 10
0.0
 20
0.0
 30
0.0
  3
*S3
  1

  0
ENDBLK
  5
13FE
  8
0
  0
BLOCK
  8
0
  2
A$C2FBB07B1
 70
     0
 10
0.0
 20
0.0
 30
0.0
  3
A$C2FBB07B1
  1

  0
LINE
  5
1D45
  8
0
  6
CONTINUOUS
 62
     3
 10
55.3126155740732202
 20
310.0000000000002274
 30
-0.0000000000000688
 11
-55.3126155740734404
 21
310.0000000000002274
 31
-0.0000000000000688
210
0.0
220
1.0
230
-0.0000000000000002
  0
LINE
  5
1D46
  8
0
  6
CONTINUOUS
 62
     3
 10
50.1251133647409617
 20
0.0
 30
0.0
 11
-50.1251133647407272
 21
0.0
 31
0.0
210
0.0
220
1.0
230
-0.0000000000000002
  0
ARC
  5
1D47
  8
0
  6
CONTINUOUS
 62
     3
 10
-66.9999999999977831
 20
265.5000000000007958
 30
0.0
 40
11.9999999999979003
210
0.0
220
-0.0000000000000002
230
-1.0
 50
359.9999999999969873
 51
26.8880476177265209
  0
ARC
  5
1D48
  8
0
  6
CONTINUOUS
 62
     3
 10
66.9999999999978968
 20
265.5000000000009095
 30
0.0
 40
11.9999999999977796
210
0.0
220
-0.0000000000000002
230
-1.0
 50
153.1119523822735005
 51
180.0000000000032117
  0
LINE
  5
1D49
  8
0
  6
CONTINUOUS
 62
     3
 10
55.3126155740732983
 20
310.0000000000002274
 30
-0.0000000000000688
 11
56.6576946759161899
 21
307.1154685574654195
 31
-0.0000000000000682
210
0.0
220
1.0
230
-0.0000000000000002
  0
LINE
  5
1D4A
  8
0
  6
CONTINUOUS
 62
     3
 10
-55.3126155740735328
 20
310.0000000000002274
 30
-0.0000000000000688
 11
-56.6576946759164102
 21
307.1154685574654195
 31
-0.0000000000000682
210
0.0
220
1.0
230
-0.0000000000000002
  0
ARC
  5
1D4B
  8
0
  6
CONTINUOUS
 62
     3
 10
-34.0000000000022311
 20
296.5500120139482192
 30
0.0
 40
24.9999999999976801
210
0.0
220
-0.0000000000000002
230
-1.0
 50
154.9999999999984936
 51
180.0000000000011084
  0
ARC
  5
1D4C
  8
0
  6
CONTINUOUS
 62
     3
 10
34.0000000000027782
 20
296.550012013948276
 30
0.0
 40
24.9999999999973497
210
0.0
220
-0.0000000000000002
230
-1.0
 50
0.0
 51
25.0000000000032614
  0
LINE
  5
1D4D
  8
0
  6
CONTINUOUS
 62
     3
 10
-59.0000000000001066
 20
282.2332005306816995
 30
-0.0000000000000627
 11
-59.0000000000001066
 21
296.5500120139477076
 31
-0.0000000000000658
210
0.0
220
1.0
230
-0.0000000000000002
  0
LINE
  5
1D4E
  8
0
  6
CONTINUOUS
 62
     3
 10
58.9999999999998792
 20
282.2332005306816995
 30
-0.0000000000000627
 11
58.9999999999998792
 21
296.5500120139477076
 31
-0.0000000000000658
210
0.0
220
1.0
230
-0.0000000000000002
  0
ARC
  5
1D4F
  8
0
  6
CONTINUOUS
 62
     3
 10
-33.9999999999978328
 20
282.2332005306823817
 30
0.0
 40
25.0000000000020606
210
0.0
220
-0.0000000000000002
230
-1.0
 50
180.0000000000013074
 51
206.8880476177230889
  0
ARC
  5
1D50
  8
0
  6
CONTINUOUS
 62
     3
 10
33.9999999999979394
 20
282.2332005306823817
 30
0.0
 40
25.0000000000021814
210
0.0
220
-0.0000000000000002
230
-1.0
 50
333.1119523822769111
 51
359.9999999999982947
  0
ARC
  5
1D51
  8
0
  6
CONTINUOUS
 62
     3
 10
-40.0000000000008029
 20
96.9274888769473648
 30
0.0
 40
14.9999999999990692
210
0.0
220
-0.0000000000000002
230
-1.0
 50
179.9999999999988916
 51
214.3011527567931864
  0
ARC
  5
1D52
  8
0
  6
CONTINUOUS
 62
     3
 10
40.0000000000011795
 20
96.9274888769473364
 30
0.0
 40
14.9999999999989306
210
0.0
220
-0.0000000000000002
230
-1.0
 50
325.6988472432065009
 51
0.0000000000012531
  0
ARC
  5
1D53
  8
0
  6
CONTINUOUS
 62
     3
 10
-59.0000000000020108
 20
83.9660074801312248
 30
0.0
 40
8.0000000000021387
210
0.0
220
-0.0000000000000002
230
-1.0
 50
0.0000000000053942
 51
34.3011527567859318
  0
ARC
  5
1D54
  8
0
  6
CONTINUOUS
 62
     3
 10
59.0000000000022382
 20
83.9660074801312248
 30
0.0
 40
8.0000000000021299
210
0.0
220
-0.0000000000000002
230
-1.0
 50
145.6988472432140043
 51
179.9999999999944862
  0
LINE
  5
1D55
  8
0
  6
CONTINUOUS
 62
     3
 10
54.9999999999998934
 20
265.5000000000002274
 30
-0.000000000000059
 11
54.9999999999998934
 21
96.927488876947649
 31
-0.0000000000000215
210
0.0
220
1.0
230
-0.0000000000000002
  0
LINE
  5
1D56
  8
0
  6
CONTINUOUS
 62
     3
 10
-55.0000000000001066
 20
265.5000000000002274
 30
-0.000000000000059
 11
-55.0000000000001066
 21
96.927488876947649
 31
-0.0000000000000215
210
0.0
220
1.0
230
-0.0000000000000002
  0
LINE
  5
1D57
  8
0
  6
CONTINUOUS
 62
     3
 10
-50.1251133647407414
 20
0.0
 30
0.0
 11
-50.9999999999998792
 21
10.0000000000014797
 31
-0.0000000000000022
210
0.0
220
1.0
230
-0.0000000000000002
  0
LINE
  5
1D58
  8
0
  6
CONTINUOUS
 62
     3
 10
50.1251133647409688
 20
0.0
 30
0.0
 11
51.0000000000001208
 21
10.0000000000014797
 31
-0.0000000000000022
210
0.0
220
1.0
230
-0.0000000000000002
  0
LINE
  5
1D59
  8
0
  6
CONTINUOUS
 62
     3
 10
-50.9999999999998792
 20
10.0000000000014797
 30
-0.0000000000000022
 11
-50.9999999999998792
 21
83.9660074801319638
 31
-0.0000000000000186
210
0.0
220
1.0
230
-0.0000000000000002
  0
LINE
  5
1D5A
  8
0
  6
CONTINUOUS
 62
     3
 10
51.0000000000001208
 20
10.0000000000014797
 30
-0.0000000000000022
 11
51.0000000000001208
 21
83.9660074801319638
 31
-0.0000000000000186
210
0.0
220
1.0
230
-0.0000000000000002
  0
LINE
  5
1D5B
  8
0
  6
VERDECKT
 62
     1
 10
53.4999999999998792
 20
309.1547634765187809
 30
-0.0000000000000686
 11
-53.5000000000001066
 21
309.1547634765187809
 31
-0.0000000000000686
210
0.0
220
1.0
230
-0.0000000000000002
  0
LINE
  5
1D5C
  8
0
  6
VERDECKT
 62
     1
 10
48.1327239685573431
 20
0.1743114854953092
 30
0.0
 11
-48.1327239685571229
 21
0.1743114854953092
 31
0.0
210
0.0
220
1.0
230
-0.0000000000000002
  0
ARC
  5
1D5D
  8
0
  6
VERDECKT
 62
     1
 10
-66.9999999999991047
 20
265.499799469318873
 30
0.0
 40
13.9999999999992095
210
0.0
220
-0.0000000000000002
230
-1.0
 50
0.0008206829789266
 51
26.8880476177247516
  0
ARC
  5
1D5E
  8
0
  6
VERDECKT
 62
     1
 10
66.9999999999992184
 20
265.4997994693189867
 30
0.0
 40
13.9999999999990905
210
0.0
220
-0.0000000000000002
230
-1.0
 50
153.1119523822752058
 51
179.9991793170212873
  0
ARC
  5
1D5F
  8
0
  6
VERDECKT
 62
     1
 10
-33.9999999999997513
 20
282.2330000000001746
 30
0.0
 40
23.0000000000001386
210
0.0
220
-0.0000000000000002
230
-1.0
 50
180.0000000000003979
 51
206.8880476177237995
  0
ARC
  5
1D60
  8
0
  6
VERDECKT
 62
     1
 10
34.0000000000000711
 20
282.2330000000001746
 30
0.0
 40
23.0000000000000391
210
0.0
220
-0.0000000000000002
230
-1.0
 50
333.1119523822760016
 51
359.9999999999993747
  0
LINE
  5
1D61
  8
0
  6
VERDECKT
 62
     1
 10
-57.0000000000001066
 20
282.2330000000001178
 30
-0.0000000000000627
 11
-57.0000000000001066
 21
296.5500120139477076
 31
-0.0000000000000658
210
0.0
220
1.0
230
-0.0000000000000002
  0
LINE
  5
1D62
  8
0
  6
VERDECKT
 62
     1
 10
56.9999999999998792
 20
282.2330000000000041
 30
-0.0000000000000627
 11
56.9999999999998792
 21
296.5500120139477076
 31
-0.0000000000000658
210
0.0
220
1.0
230
-0.0000000000000002
  0
ARC
  5
1D63
  8
0
  6
VERDECKT
 62
     1
 10
-34.0000000000017906
 20
296.550012013948276
 30
0.0
 40
22.9999999999980993
210
0.0
220
-0.0000000000000002
230
-1.0
 50
155.0
 51
180.0000000000013074
  0
ARC
  5
1D64
  8
0
  6
VERDECKT
 62
     1
 10
34.0000000000019966
 20
296.550012013948276
 30
0.0
 40
22.9999999999981206
210
0.0
220
-0.0000000000000002
230
-1.0
 50
359.9999999999988063
 51
25.0000000000001812
  0
LINE
  5
1D65
  8
0
  6
VERDECKT
 62
     1
 10
53.4999999999999005
 20
309.1547634765187809
 30
-0.0000000000000686
 11
54.8450791018430124
 21
306.2702320339835751
 31
-0.000000000000068
210
0.0
220
1.0
230
-0.0000000000000002
  0
LINE
  5
1D66
  8
0
  6
VERDECKT
 62
     1
 10
-53.5000000000001208
 20
309.1547634765187809
 30
-0.0000000000000686
 11
-54.8450791018432398
 21
306.2702320339835751
 31
-0.000000000000068
210
0.0
220
1.0
230
-0.0000000000000002
  0
LINE
  5
1D67
  8
0
  6
VERDECKT
 62
     1
 10
-53.5000000000001208
 20
309.1547634765187809
 30
-0.0000000000000686
 11
-55.3126155740734404
 21
310.0000000000002274
 31
-0.0000000000000688
210
0.0
220
1.0
230
-0.0000000000000002
  0
LINE
  5
1D68
  8
0
  6
VERDECKT
 62
     1
 10
53.4999999999998792
 20
309.1547634765187809
 30
-0.0000000000000686
 11
55.3126155740732202
 21
310.0000000000002274
 31
-0.0000000000000688
210
0.0
220
1.0
230
-0.0000000000000002
  0
ARC
  5
1D69
  8
0
  6
VERDECKT
 62
     1
 10
-59.0000000000008527
 20
83.9660074801318501
 30
0.0
 40
10.0000000000009592
210
0.0
220
-0.0000000000000002
230
-1.0
 50
0.0000000000007379
 51
34.3011527567911685
  0
ARC
  5
1D6A
  8
0
  6
VERDECKT
 62
     1
 10
59.00000000000108
 20
83.9660074801318501
 30
0.0
 40
10.0000000000009592
210
0.0
220
-0.0000000000000002
230
-1.0
 50
145.6988472432088031
 51
179.9999999999992895
  0
ARC
  5
1D6B
  8
0
  6
VERDECKT
 62
     1
 10
-39.9999999999999218
 20
96.9274888769478764
 30
0.0
 40
12.9999999999999698
210
0.0
220
-0.0000000000000002
230
-1.0
 50
180.0000000000007105
 51
214.3011527567906001
  0
ARC
  5
1D6C
  8
0
  6
VERDECKT
 62
     1
 10
40.0
 20
96.927488876947919
 30
0.0
 40
13.0000000000001101
210
0.0
220
-0.0000000000000002
230
-1.0
 50
325.6988472432096273
 51
359.9999999999989768
  0
LINE
  5
1D6D
  8
0
  6
VERDECKT
 62
     1
 10
53.0000000014360424
 20
265.5000000000002842
 30
-0.000000000000059
 11
53.0000000014360424
 21
96.9274888769477059
 31
-0.0000000000000215
210
0.0
220
1.0
230
-0.0000000000000002
  0
LINE
  5
1D6E
  8
0
  6
VERDECKT
 62
     1
 10
-53.0000000014362769
 20
265.5000000000002842
 30
-0.000000000000059
 11
-53.0000000014362769
 21
96.9274888769477059
 31
-0.0000000000000215
210
0.0
220
1.0
230
-0.0000000000000002
  0
LINE
  5
1D6F
  8
0
  6
VERDECKT
 62
     1
 10
-48.9999999999998792
 20
10.0873218858157507
 30
-0.0000000000000022
 11
-48.9999999999998792
 21
83.9660074801319638
 31
-0.0000000000000186
210
0.0
220
1.0
230
-0.0000000000000002
  0
LINE
  5
1D70
  8
0
  6
VERDECKT
 62
     1
 10
49.0000000000001066
 20
10.0873218858157507
 30
-0.0000000000000022
 11
49.0000000000001066
 21
83.9660074801319638
 31
-0.0000000000000186
210
0.0
220
1.0
230
-0.0000000000000002
  0
LINE
  5
1D71
  8
0
  6
VERDECKT
 62
     1
 10
-48.1327239685571229
 20
0.1743114854953092
 30
0.0
 11
-48.9999999999998792
 21
10.0873218858157507
 31
-0.0000000000000022
210
0.0
220
1.0
230
-0.0000000000000002
  0
LINE
  5
1D72
  8
0
  6
VERDECKT
 62
     1
 10
48.1327239685573431
 20
0.1743114854953092
 30
0.0
 11
49.0000000000001066
 21
10.0873218858157507
 31
-0.0000000000000022
210
0.0
220
1.0
230
-0.0000000000000002
  0
LINE
  5
1D73
  8
0
  6
VERDECKT
 62
     1
 10
48.1327239685573431
 20
0.1743114854953092
 30
0.0
 11
50.1251133647409688
 21
0.0
 31
0.0
210
0.0
220
1.0
230
-0.0000000000000002
  0
LINE
  5
1D74
  8
0
  6
VERDECKT
 62
     1
 10
-48.1327239685571229
 20
0.1743114854953092
 30
0.0
 11
-50.1251133647407414
 21
0.0
 31
0.0
210
0.0
220
1.0
230
-0.0000000000000002
  0
ENDBLK
  5
1D76
  8
0
  0
ENDSEC
  0
SECTION
  2
ENTITIES
  0
INSERT
  5
1400
  8
ADSK_ASSOC_ENTITY_BACKUPS
  2
*S3
 10
0.0
 20
0.0
 30
0.0
  0
INSERT
  5
1D77
  8
STEMPEL
  2
A$C2FBB07B1
 10
0.0
 20
0.0
 30
0.0
  0
VIEWPORT
  5
E80
 67
     1
  8
0
 10
106.1384267639331966
 20
120.8961758214962003
 30
0.0
 40
853.1382788656278535
 41
456.6639125835130812
 68
     1
 69
     1
1001
ACAD
1000
MVIEW
1002
{
1070
    16
1010
0.0
1020
0.0
1030
0.0
1010
0.0
1020
0.0
1030
1.0
1040
0.0
1040
456.6639125835130812
1040
106.1384267639331966
1040
120.8961758214962003
1040
50.0
1040
0.0
1040
0.0
1070
     0
1070
  1500
1070
     1
1070
     1
1070
     0
1070
     0
1070
     0
1070
     0
1040
0.0
1040
0.0
1040
0.0
1040
10.0
1040
10.0
1040
10.0
1040
10.0
1070
     0
1002
{
1002
}
1002
}
  0
ENDSEC
  0
EOF
