  0
SECTION
  2
HEADER
  9
$ACADVER
  1
AC1009
  9
$INSBASE
 10
0.0
 20
0.0
 30
0.0
  9
$EXTMIN
 10
-42.1000932431257198
 20
-0.0000000000000667
 30
-0.0000000000000566
  9
$EXTMAX
 10
42.1000932431257411
 20
245.0000000000001137
 30
0.0
  9
$LIMMIN
 10
0.0
 20
0.0
  9
$LIMMAX
 10
419.9999999999998863
 20
594.0000000000002274
  9
$ORTHOMODE
 70
     1
  9
$REGENMODE
 70
     1
  9
$FILLMODE
 70
     1
  9
$QTEXTMODE
 70
     0
  9
$MIRRTEXT
 70
     1
  9
$DRAGMODE
 70
     2
  9
$LTSCALE
 40
20.0
  9
$OSMODE
 70
  2559
  9
$ATTMODE
 70
     1
  9
$TEXTSIZE
 40
3.5
  9
$TRACEWID
 40
0.5
  9
$TEXTSTYLE
  7
STANDARD
  9
$CLAYER
  8
STEMPEL
  9
$CELTYPE
  6
BYLAYER
  9
$CECOLOR
 62
   256
  9
$DIMSCALE
 40
1.0
  9
$DIMASZ
 40
3.5
  9
$DIMEXO
 40
1.0
  9
$DIMDLI
 40
7.0
  9
$DIMRND
 40
0.0
  9
$DIMDLE
 40
0.0
  9
$DIMEXE
 40
1.0
  9
$DIMTP
 40
0.0
  9
$DIMTM
 40
0.0
  9
$DIMTXT
 40
3.5
  9
$DIMCEN
 40
1.5
  9
$DIMTSZ
 40
0.0
  9
$DIMTOL
 70
     0
  9
$DIMLIM
 70
     0
  9
$DIMTIH
 70
     0
  9
$DIMTOH
 70
     0
  9
$DIMSE1
 70
     0
  9
$DIMSE2
 70
     0
  9
$DIMTAD
 70
     1
  9
$DIMZIN
 70
     8
  9
$DIMBLK
  1

  9
$DIMASO
 70
     1
  9
$DIMSHO
 70
     0
  9
$DIMPOST
  1

  9
$DIMAPOST
  1

  9
$DIMALT
 70
     0
  9
$DIMALTD
 70
     2
  9
$DIMALTF
 40
25.3999999999999986
  9
$DIMLFAC
 40
2.0
  9
$DIMTOFL
 70
     1
  9
$DIMTVP
 40
0.0
  9
$DIMTIX
 70
     0
  9
$DIMSOXD
 70
     0
  9
$DIMSAH
 70
     0
  9
$DIMBLK1
  1

  9
$DIMBLK2
  1

  9
$DIMSTYLE
  2
STANDARD
  9
$DIMCLRD
 70
     0
  9
$DIMCLRE
 70
     0
  9
$DIMCLRT
 70
     1
  9
$DIMTFAC
 40
0.5142857142857143
  9
$DIMGAP
 40
1.5
  9
$LUNITS
 70
     2
  9
$LUPREC
 70
     2
  9
$SKETCHINC
 40
1.0
  9
$FILLETRAD
 40
154.0
  9
$AUNITS
 70
     1
  9
$AUPREC
 70
     3
  9
$MENU
  1
ACAD
  9
$ELEVATION
 40
0.0
  9
$PELEVATION
 40
0.0
  9
$THICKNESS
 40
0.0
  9
$LIMCHECK
 70
     0
  9
$BLIPMODE
 70
     0
  9
$CHAMFERA
 40
0.0
  9
$CHAMFERB
 40
0.0
  9
$SKPOLY
 70
     0
  9
$TDCREATE
 40
2452040.6370949079282582
  9
$TDUPDATE
 40
2458701.4305787039920688
  9
$TDINDWG
 40
0.3005041204
  9
$TDUSRTIMER
 40
0.3005041204
  9
$USRTIMER
 70
     1
  9
$ANGBASE
 50
0.0
  9
$ANGDIR
 70
     0
  9
$PDMODE
 70
     0
  9
$PDSIZE
 40
0.0
  9
$PLINEWID
 40
0.0
  9
$COORDS
 70
     1
  9
$SPLFRAME
 70
     0
  9
$SPLINETYPE
 70
     6
  9
$SPLINESEGS
 70
     8
  9
$ATTDIA
 70
     1
  9
$ATTREQ
 70
     1
  9
$HANDLING
 70
     1
  9
$HANDSEED
  5
1D99
  9
$SURFTAB1
 70
     6
  9
$SURFTAB2
 70
     6
  9
$SURFTYPE
 70
     6
  9
$SURFU
 70
     6
  9
$SURFV
 70
     6
  9
$UCSNAME
  2

  9
$UCSORG
 10
0.0
 20
0.0
 30
0.0
  9
$UCSXDIR
 10
1.0
 20
0.0
 30
0.0
  9
$UCSYDIR
 10
0.0
 20
1.0
 30
0.0
  9
$PUCSNAME
  2

  9
$PUCSORG
 10
0.0
 20
0.0
 30
0.0
  9
$PUCSXDIR
 10
1.0
 20
0.0
 30
0.0
  9
$PUCSYDIR
 10
0.0
 20
1.0
 30
0.0
  9
$USERI1
 70
     0
  9
$USERI2
 70
     0
  9
$USERI3
 70
     0
  9
$USERI4
 70
     0
  9
$USERI5
 70
     0
  9
$USERR1
 40
0.0
  9
$USERR2
 40
0.0
  9
$USERR3
 40
0.0
  9
$USERR4
 40
0.0
  9
$USERR5
 40
0.0
  9
$WORLDVIEW
 70
     1
  9
$SHADEDGE
 70
     3
  9
$SHADEDIF
 70
    70
  9
$TILEMODE
 70
     1
  9
$MAXACTVP
 70
    16
  9
$PLIMCHECK
 70
     0
  9
$PEXTMIN
 10
1.0000000000000000E+20
 20
1.0000000000000000E+20
 30
1.0000000000000000E+20
  9
$PEXTMAX
 10
-1.0000000000000000E+20
 20
-1.0000000000000000E+20
 30
-1.0000000000000000E+20
  9
$PLIMMIN
 10
-5.7377405068367171
 20
-3.1785530134047848
  9
$PLIMMAX
 10
204.4705755150492053
 20
294.1221172219420055
  9
$UNITMODE
 70
     0
  9
$VISRETAIN
 70
     0
  9
$PLINEGEN
 70
     0
  9
$PSLTSCALE
 70
     0
  0
ENDSEC
  0
SECTION
  2
TABLES
  0
TABLE
  2
VPORT
 70
     1
  0
VPORT
  2
*ACTIVE
 70
     0
 10
0.0
 20
0.0
 11
1.0
 21
1.0
 12
0.0
 22
0.0000000000000426
 13
0.0
 23
0.0
 14
1.0
 24
1.0
 15
10.0
 25
10.0
 16
0.0000000000001479
 26
0.0
 36
666.2355792129086467
 17
0.0
 27
122.4999999999999005
 37
-0.0000000000000272
 40
246.2489379779100886
 41
1.868197278911564
 42
50.0
 43
0.0
 44
0.0
 50
0.0
 51
0.0
 71
     0
 72
  1500
 73
     1
 74
     0
 75
     0
 76
     0
 77
     0
 78
     0
  0
ENDTAB
  0
TABLE
  2
LTYPE
 70
     5
  0
LTYPE
  2
CONTINUOUS
 70
     0
  3
Solid line
 72
    65
 73
     0
 40
0.0
  0
LTYPE
  2
VERDECKT
 70
     0
  3
_ _ _ _ _ _ _ _ _ _ _ _ _ _ _ _ _ _ _ _ _ _ _
 72
    65
 73
     2
 40
0.375
 49
0.25
 49
-0.125
  0
ENDTAB
  0
TABLE
  2
LAYER
 70
    13
  0
LAYER
  2
0
 70
     0
 62
     7
  6
CONTINUOUS
  0
LAYER
  2
STEMPEL
 70
     0
 62
     3
  6
CONTINUOUS
  0
LAYER
  2
DEFPOINTS
 70
     0
 62
     7
  6
CONTINUOUS
  0
LAYER
  2
ADSK_ASSOC_ENTITY_BACKUPS
 70
     1
 62
    -7
  6
CONTINUOUS
  0
ENDTAB
  0
TABLE
  2
STYLE
 70
     2
  0
STYLE
  2
STANDARD
 70
     0
 40
0.0
 41
0.8
 50
0.0
 71
     0
 42
3.5
  3
simplex.shx
  4

  0
ENDTAB
  0
TABLE
  2
VIEW
 70
     1
  0
ENDTAB
  0
TABLE
  2
UCS
 70
     0
  0
ENDTAB
  0
TABLE
  2
APPID
 70
    18
  0
APPID
  2
ACAD
 70
     0
  0
APPID
  2
DCO15
 70
     0
  0
APPID
  2
ACAD_NAV_VCDISPLAY
 70
     0
  0
APPID
  2
ACAD_PSEXT
 70
     0
  0
APPID
  2
ACAD_EXEMPT_FROM_CAD_STANDARDS
 70
     0
  0
APPID
  2
ACAD_MLEADERVER
 70
     0
  0
APPID
  2
ACAECLAYERSTANDARD
 70
     0
  0
APPID
  2
ACCMTRANSPARENCY
 70
     0
  0
APPID
  2
ACDBDYNAMICBLOCKGUID
 70
     0
  0
APPID
  2
ACAD_STEPID
 70
     0
  0
APPID
  2
ACSYNERGY
 70
     0
  0
APPID
  2
SYNERGY_BODY_TBR_ID
 70
     0
  0
APPID
  2
ACAD_VIEW_EDGE_ID
 70
     0
  0
APPID
  2
ACADANNOPO
 70
     0
  0
APPID
  2
ACAD_DSTYLE_DIMJAG
 70
     0
  0
APPID
  2
ACAD_DSTYLE_DIMTALN
 70
     0
  0
APPID
  2
ACADANNOMONITORALERTICONDI
 70
     0
  0
APPID
  2
AcDbAttr
 70
     0
  0
ENDTAB
  0
TABLE
  2
DIMSTYLE
 70
     1
  0
DIMSTYLE
  2
STANDARD
 70
     0
  3

  4

  5

  6

  7

 40
1.0
 41
0.18
 42
0.0625
 43
0.38
 44
0.18
 45
0.0
 46
0.0
 47
0.0
 48
0.0
140
0.18
141
0.09
142
0.0
143
25.3999999999999986
144
1.0
145
0.0
146
1.0
147
0.09
 71
     0
 72
     0
 73
     1
 74
     1
 75
     0
 76
     0
 77
     0
 78
     0
170
     0
171
     2
172
     0
173
     0
174
     0
175
     0
176
     0
177
     0
178
     0
  0
ENDTAB
  0
ENDSEC
  0
SECTION
  2
BLOCKS
  0
BLOCK
  8
0
  2
$MODEL_SPACE
 70
     0
 10
0.0
 20
0.0
 30
0.0
  3
$MODEL_SPACE
  1

  0
ENDBLK
  5
44
  8
0
  0
BLOCK
 67
     1
  8
0
  2
$PAPER_SPACE
 70
     0
 10
0.0
 20
0.0
 30
0.0
  3
$PAPER_SPACE
  1

  0
ENDBLK
  5
42
 67
     1
  8
0
  0
BLOCK
  8
0
  2
*S3
 70
     1
 10
0.0
 20
0.0
 30
0.0
  3
*S3
  1

  0
ENDBLK
  5
13FE
  8
0
  0
BLOCK
  8
0
  2
A$C2EAD693B
 70
     0
 10
0.0
 20
0.0
 30
0.0
  3
A$C2EAD693B
  1

  0
LINE
  5
1CFC
  8
0
  6
CONTINUOUS
 62
     3
 10
39.4500924592585989
 20
245.0000000000001137
 30
-0.0000000000000544
 11
-39.4500924592585989
 21
245.0000000000001137
 31
-0.0000000000000544
210
0.0
220
1.0
230
-0.0000000000000002
  0
LINE
  5
1CFD
  8
0
  6
CONTINUOUS
 62
     3
 10
35.8875793553187279
 20
-0.0000000000000568
 30
0.0
 11
-35.8875793553182802
 21
-0.0000000000000568
 31
0.0
210
0.0
220
1.0
230
-0.0000000000000002
  0
ARC
  5
1CFE
  8
0
  6
CONTINUOUS
 62
     3
 10
-51.6000000000018275
 20
216.3300000000008083
 30
0.0
 40
12.0000000000017994
210
0.0
220
-0.0000000000000002
230
-1.0
 50
0.0000000000015012
 51
21.1831543930283495
  0
ARC
  5
1CFF
  8
0
  6
CONTINUOUS
 62
     3
 10
51.6000000000018275
 20
216.3300000000008083
 30
0.0
 40
12.0000000000017994
210
0.0
220
-0.0000000000000002
230
-1.0
 50
158.8168456069716115
 51
179.9999999999984936
  0
ARC
  5
1D00
  8
0
  6
CONTINUOUS
 62
     3
 10
-17.0999999999881815
 20
229.7000000000032003
 30
0.0
 40
25.0000932431375489
210
0.0
220
-0.0000000000000002
230
-1.0
 50
179.8435140456656995
 51
201.1831543930327939
  0
ARC
  5
1D01
  8
0
  6
CONTINUOUS
 62
     3
 10
17.0999999999881709
 20
229.7000000000032003
 30
0.0
 40
25.0000932431375489
210
0.0
220
-0.0000000000000002
230
-1.0
 50
338.8168456069672061
 51
0.1564859543342713
  0
LINE
  5
1D02
  8
0
  6
CONTINUOUS
 62
     3
 10
-42.1000000000000227
 20
229.7682800481865115
 30
-0.000000000000051
 11
-42.1000000000000227
 21
233.7748883740962924
 31
-0.0000000000000519
210
0.0
220
1.0
230
-0.0000000000000002
  0
LINE
  5
1D03
  8
0
  6
CONTINUOUS
 62
     3
 10
42.1000000000000227
 20
229.7682800481865115
 30
-0.000000000000051
 11
42.1000000000000227
 21
233.7748883740962924
 31
-0.0000000000000519
210
0.0
220
1.0
230
-0.0000000000000002
  0
ARC
  5
1D04
  8
0
  6
CONTINUOUS
 62
     3
 10
-17.1000000000008612
 20
233.7748883740964914
 30
0.0
 40
24.9999999999991616
210
0.0
220
-0.0000000000000002
230
-1.0
 50
154.9999999999957936
 51
180.0000000000003979
  0
ARC
  5
1D05
  8
0
  6
CONTINUOUS
 62
     3
 10
17.1000000000011383
 20
233.774888374096605
 30
0.0
 40
24.9999999999988702
210
0.0
220
-0.0000000000000002
230
-1.0
 50
359.9999999999993179
 51
25.0000000000043805
  0
LINE
  5
1D06
  8
0
  6
CONTINUOUS
 62
     3
 10
39.4500924592586273
 20
245.0
 30
-0.0000000000000544
 11
39.7576946759155874
 21
244.3403449176153117
 31
-0.0000000000000543
210
0.0
220
1.0
230
-0.0000000000000002
  0
LINE
  5
1D07
  8
0
  6
CONTINUOUS
 62
     3
 10
-39.4500924592586202
 20
245.0000000000001137
 30
-0.0000000000000544
 11
-39.7576946759155803
 21
244.3403449176153117
 31
-0.0000000000000543
210
0.0
220
1.0
230
-0.0000000000000002
  0
LINE
  5
1D08
  8
0
  6
CONTINUOUS
 62
     3
 10
-35.8875793553182518
 20
-0.0000000000000537
 30
0.0
 11
-36.4999999999999076
 21
7.0000000000030163
 31
-0.0000000000000016
210
0.0
220
1.0
230
-0.0000000000000002
  0
LINE
  5
1D09
  8
0
  6
CONTINUOUS
 62
     3
 10
35.8875793553187066
 20
-0.000000000000044
 30
0.0
 11
36.5000000000003695
 21
7.0000000000030207
 31
-0.0000000000000016
210
0.0
220
1.0
230
-0.0000000000000002
  0
LINE
  5
1D0A
  8
0
  6
CONTINUOUS
 62
     3
 10
-36.4999999999998934
 20
7.0000000000030136
 30
-0.0000000000000016
 11
-36.4999999999998934
 21
64.6934003354314342
 31
-0.0000000000000144
210
0.0
220
1.0
230
-0.0000000000000002
  0
LINE
  5
1D0B
  8
0
  6
CONTINUOUS
 62
     3
 10
36.5000000000003411
 20
7.0000000000030136
 30
-0.0000000000000016
 11
36.5000000000003411
 21
64.6934003354314342
 31
-0.0000000000000144
210
0.0
220
1.0
230
-0.0000000000000002
  0
ARC
  5
1D0C
  8
0
  6
CONTINUOUS
 62
     3
 10
-44.4999999964897484
 20
64.6934003354293736
 30
0.0
 40
8.0000000000006324
210
0.0
220
-0.0000000000000002
230
-1.0
 50
0.0000000000147578
 51
32.3280641221692875
  0
ARC
  5
1D0D
  8
0
  6
CONTINUOUS
 62
     3
 10
44.5000000035113601
 20
64.6934003354294163
 30
0.0
 40
8.0000000000004903
210
0.0
220
-0.0000000000000002
230
-1.0
 50
147.6719358778308901
 51
179.9999999999855049
  0
ARC
  5
1D0E
  8
0
  6
CONTINUOUS
 62
     3
 10
-27.5999999964878988
 20
75.3887264174155263
 30
0.0
 40
12.0000000000012506
210
0.0
220
-0.0000000000000002
230
-1.0
 50
180.0000000000017906
 51
212.3280641221554106
  0
ARC
  5
1D0F
  8
0
  6
CONTINUOUS
 62
     3
 10
27.6000000035095887
 20
75.3887264174155405
 30
0.0
 40
12.0000000000013003
210
0.0
220
-0.0000000000000002
230
-1.0
 50
327.6719358778444189
 51
359.9999999999980105
  0
LINE
  5
1D10
  8
0
  6
CONTINUOUS
 62
     3
 10
-39.6000000035108997
 20
75.3887264174151142
 30
-0.0000000000000167
 11
-39.6000000035108997
 21
216.3300000000010925
 31
-0.000000000000048
210
0.0
220
1.0
230
-0.0000000000000002
  0
LINE
  5
1D11
  8
0
  6
CONTINUOUS
 62
     3
 10
39.5999999964891387
 20
75.3887264174151142
 30
-0.0000000000000167
 11
39.5999999964891387
 21
216.3300000000010925
 31
-0.000000000000048
210
0.0
220
1.0
230
-0.0000000000000002
  0
LINE
  5
1D12
  8
0
  6
VERDECKT
 62
     1
 10
38.0
 20
244.3238107812148883
 30
-0.0000000000000543
 11
-38.0
 21
244.3238107812148883
 31
-0.0000000000000543
210
0.0
220
1.0
230
-0.0000000000000002
  0
LINE
  5
1D13
  8
0
  6
VERDECKT
 62
     1
 10
34.2936678383719027
 20
0.1394491883962132
 30
0.0
 11
-34.2936678383714408
 21
0.1394491883962132
 31
0.0
210
0.0
220
1.0
230
-0.0000000000000002
  0
LINE
  5
1D14
  8
0
  6
VERDECKT
 62
     1
 10
-38.0000000000000071
 20
244.323810781214803
 30
-0.0000000000000543
 11
-39.4500924592586131
 21
245.0
 31
-0.0000000000000544
210
0.0
220
1.0
230
-0.0000000000000002
  0
LINE
  5
1D15
  8
0
  6
VERDECKT
 62
     1
 10
38.0000000000000071
 20
244.323810781214803
 30
-0.0000000000000543
 11
39.4500924592586983
 21
245.0000000000001137
 31
-0.0000000000000544
210
0.0
220
1.0
230
-0.0000000000000002
  0
LINE
  5
1D16
  8
0
  6
VERDECKT
 62
     1
 10
38.0
 20
244.3238107812148883
 30
-0.0000000000000543
 11
38.3076022166569601
 21
243.664155698830001
 31
-0.0000000000000541
210
0.0
220
1.0
230
-0.0000000000000002
  0
LINE
  5
1D17
  8
0
  6
VERDECKT
 62
     1
 10
-38.0
 20
244.3238107812148883
 30
-0.0000000000000543
 11
-38.3076022166569601
 21
243.664155698830001
 31
-0.0000000000000541
210
0.0
220
1.0
230
-0.0000000000000002
  0
ARC
  5
1D18
  8
0
  6
VERDECKT
 62
     1
 10
-17.0999999999992198
 20
233.7748883740960935
 30
0.0
 40
23.4000000000007802
210
0.0
220
-0.0000000000000002
230
-1.0
 50
154.9999999999965894
 51
179.9999999999996021
  0
ARC
  5
1D19
  8
0
  6
VERDECKT
 62
     1
 10
17.0999999999992198
 20
233.7748883740960935
 30
0.0
 40
23.4000000000007802
210
0.0
220
-0.0000000000000002
230
-1.0
 50
0.0000000000003562
 51
25.0000000000033609
  0
LINE
  5
1D1A
  8
0
  6
VERDECKT
 62
     1
 10
-40.4999999999999929
 20
229.7660589659253958
 30
-0.000000000000051
 11
-40.4999999999999929
 21
233.7748883740962924
 31
-0.0000000000000519
210
0.0
220
1.0
230
-0.0000000000000002
  0
LINE
  5
1D1B
  8
0
  6
VERDECKT
 62
     1
 10
40.4999999999999929
 20
229.7660589659253958
 30
-0.000000000000051
 11
40.4999999999999929
 21
233.7748883740962924
 31
-0.0000000000000519
210
0.0
220
1.0
230
-0.0000000000000002
  0
ARC
  5
1D1C
  8
0
  6
VERDECKT
 62
     1
 10
-17.0999999999914287
 20
229.7000000000030013
 30
0.0
 40
23.4000932431343003
210
0.0
220
-0.0000000000000002
230
-1.0
 50
179.8382525687268014
 51
201.1831543930335897
  0
ARC
  5
1D1D
  8
0
  6
VERDECKT
 62
     1
 10
17.0999999999910592
 20
229.7000000000030866
 30
0.0
 40
23.4000932431346698
210
0.0
220
-0.0000000000000002
230
-1.0
 50
338.8168456069664103
 51
0.1617474312730253
  0
ARC
  5
1D1E
  8
0
  6
VERDECKT
 62
     1
 10
-51.6000000000001791
 20
216.3300000000016894
 30
0.0
 40
13.6000000000000707
210
0.0
220
-0.0000000000000002
230
-1.0
 50
359.9999999999976126
 51
21.1831543930306196
  0
ARC
  5
1D1F
  8
0
  6
VERDECKT
 62
     1
 10
51.5999999999996106
 20
216.3300000000018031
 30
0.0
 40
13.5999999999994898
210
0.0
220
-0.0000000000000002
230
-1.0
 50
158.8168456069689114
 51
180.0000000000027001
  0
LINE
  5
1D20
  8
0
  6
VERDECKT
 62
     1
 10
-34.8999999999998565
 20
7.069857508654481
 30
-0.0000000000000016
 11
-34.8999999999998565
 21
64.6934003354314342
 31
-0.0000000000000144
210
0.0
220
1.0
230
-0.0000000000000002
  0
LINE
  5
1D21
  8
0
  6
VERDECKT
 62
     1
 10
34.9000000000003183
 20
7.069857508654481
 30
-0.0000000000000016
 11
34.9000000000003183
 21
64.6934003354314342
 31
-0.0000000000000144
210
0.0
220
1.0
230
-0.0000000000000002
  0
LINE
  5
1D22
  8
0
  6
VERDECKT
 62
     1
 10
-34.2936678383714835
 20
0.1394491883962101
 30
0.0
 11
-34.8999999999998423
 21
7.0698575086544793
 31
-0.0000000000000016
210
0.0
220
1.0
230
-0.0000000000000002
  0
LINE
  5
1D23
  8
0
  6
VERDECKT
 62
     1
 10
34.2936678383719311
 20
0.1394491883962101
 30
0.0
 11
34.9000000000002899
 21
7.0698575086544837
 31
-0.0000000000000016
210
0.0
220
1.0
230
-0.0000000000000002
  0
LINE
  5
1D24
  8
0
  6
VERDECKT
 62
     1
 10
34.2936678383719098
 20
0.1394491883962132
 30
0.0
 11
35.8875793553188487
 21
-0.0000000000000667
 31
0.0
210
0.0
220
1.0
230
-0.0000000000000002
  0
LINE
  5
1D25
  8
0
  6
VERDECKT
 62
     1
 10
-34.2936678383714479
 20
0.1394491883962132
 30
0.0
 11
-35.8875793553182802
 21
-0.0000000000000568
 31
0.0
210
0.0
220
1.0
230
-0.0000000000000002
  0
LINE
  5
1D26
  8
0
  6
VERDECKT
 62
     1
 10
-38.0000000035109906
 20
75.3887264174172316
 30
-0.0000000000000167
 11
-38.0000000035109906
 21
216.3300000000010925
 31
-0.000000000000048
210
0.0
220
1.0
230
-0.0000000000000002
  0
LINE
  5
1D27
  8
0
  6
VERDECKT
 62
     1
 10
37.9999999964892368
 20
75.3887264174172316
 30
-0.0000000000000167
 11
37.9999999964892368
 21
216.3300000000010925
 31
-0.000000000000048
210
0.0
220
1.0
230
-0.0000000000000002
  0
ARC
  5
1D28
  8
0
  6
VERDECKT
 62
     1
 10
-27.5999999964892986
 20
75.3887264174169331
 30
0.0
 40
10.3999999999998103
210
0.0
220
-0.0000000000000002
230
-1.0
 50
179.9999999999984084
 51
212.3280641221616918
  0
ARC
  5
1D29
  8
0
  6
VERDECKT
 62
     1
 10
27.6000000035109991
 20
75.3887264174169331
 30
0.0
 40
10.3999999999998707
210
0.0
220
-0.0000000000000002
230
-1.0
 50
327.6719358778378819
 51
0.0000000000015126
  0
ARC
  5
1D2A
  8
0
  6
VERDECKT
 62
     1
 10
-44.4999999964898123
 20
64.6934003354312352
 30
0.0
 40
9.6000000000007102
210
0.0
220
-0.0000000000000002
230
-1.0
 50
0.0000000000011959
 51
32.3280641221620115
  0
ARC
  5
1D2B
  8
0
  6
VERDECKT
 62
     1
 10
44.5000000035115235
 20
64.6934003354312495
 30
0.0
 40
9.6000000000006551
210
0.0
220
-0.0000000000000002
230
-1.0
 50
147.6719358778383082
 51
179.9999999999988916
  0
ENDBLK
  5
1D2D
  8
0
  0
ENDSEC
  0
SECTION
  2
ENTITIES
  0
INSERT
  5
1400
  8
ADSK_ASSOC_ENTITY_BACKUPS
  2
*S3
 10
0.0
 20
0.0
 30
0.0
  0
INSERT
  5
1D2E
  8
STEMPEL
  2
A$C2EAD693B
 10
0.0
 20
0.0
 30
0.0
  0
VIEWPORT
  5
E80
 67
     1
  8
0
 10
99.3664175041062947
 20
145.4717821042686126
 30
0.0
 40
558.2476521912682301
 41
298.8162216554080146
 68
     1
 69
     1
1001
ACAD
1000
MVIEW
1002
{
1070
    16
1010
0.0
1020
0.0
1030
0.0
1010
0.0
1020
0.0
1030
1.0
1040
0.0
1040
298.8162216554080146
1040
99.3664175041062947
1040
145.4717821042686126
1040
50.0
1040
0.0
1040
0.0
1070
     0
1070
  1500
1070
     1
1070
     1
1070
     0
1070
     0
1070
     0
1070
     0
1040
0.0
1040
0.0
1040
0.0
1040
10.0
1040
10.0
1040
10.0
1040
10.0
1070
     0
1002
{
1002
}
1002
}
  0
ENDSEC
  0
EOF
