  0
SECTION
  2
HEADER
  9
$ACADVER
  1
AC1009
  9
$INSBASE
 10
0.0
 20
0.0
 30
0.0
  9
$EXTMIN
 10
338.6869487324070747
 20
118.0551977311756957
 30
-15.8439177928030492
  9
$EXTMAX
 10
405.1869487324070747
 20
311.2412087517528221
 30
-15.8439177928030297
  9
$LIMMIN
 10
0.0
 20
0.0
  9
$LIMMAX
 10
210.0
 20
297.0
  9
$ORTHOMODE
 70
     1
  9
$REGENMODE
 70
     1
  9
$FILLMODE
 70
     1
  9
$QTEXTMODE
 70
     0
  9
$MIRRTEXT
 70
     1
  9
$DRAGMODE
 70
     2
  9
$LTSCALE
 40
10.0
  9
$OSMODE
 70
  2495
  9
$ATTMODE
 70
     1
  9
$TEXTSIZE
 40
3.5
  9
$TRACEWID
 40
0.5
  9
$TEXTSTYLE
  7
STANDARD
  9
$CLAYER
  8
STEMPEL
  9
$CELTYPE
  6
BYLAYER
  9
$CECOLOR
 62
   256
  9
$DIMSCALE
 40
1.0
  9
$DIMASZ
 40
3.5
  9
$DIMEXO
 40
1.0
  9
$DIMDLI
 40
7.0
  9
$DIMRND
 40
0.0
  9
$DIMDLE
 40
0.0
  9
$DIMEXE
 40
1.0
  9
$DIMTP
 40
0.0
  9
$DIMTM
 40
0.0
  9
$DIMTXT
 40
3.5
  9
$DIMCEN
 40
1.5
  9
$DIMTSZ
 40
0.0
  9
$DIMTOL
 70
     0
  9
$DIMLIM
 70
     0
  9
$DIMTIH
 70
     0
  9
$DIMTOH
 70
     0
  9
$DIMSE1
 70
     0
  9
$DIMSE2
 70
     0
  9
$DIMTAD
 70
     1
  9
$DIMZIN
 70
     8
  9
$DIMBLK
  1

  9
$DIMASO
 70
     1
  9
$DIMSHO
 70
     0
  9
$DIMPOST
  1

  9
$DIMAPOST
  1

  9
$DIMALT
 70
     0
  9
$DIMALTD
 70
     2
  9
$DIMALTF
 40
25.3999999999999986
  9
$DIMLFAC
 40
1.0
  9
$DIMTOFL
 70
     1
  9
$DIMTVP
 40
0.0
  9
$DIMTIX
 70
     0
  9
$DIMSOXD
 70
     0
  9
$DIMSAH
 70
     0
  9
$DIMBLK1
  1

  9
$DIMBLK2
  1

  9
$DIMSTYLE
  2
STANDARD
  9
$DIMCLRD
 70
     0
  9
$DIMCLRE
 70
     0
  9
$DIMCLRT
 70
     1
  9
$DIMTFAC
 40
0.5
  9
$DIMGAP
 40
1.5
  9
$LUNITS
 70
     2
  9
$LUPREC
 70
     2
  9
$SKETCHINC
 40
1.0
  9
$FILLETRAD
 40
9.5
  9
$AUNITS
 70
     0
  9
$AUPREC
 70
     0
  9
$MENU
  1
ACAD
  9
$ELEVATION
 40
0.0
  9
$PELEVATION
 40
0.0
  9
$THICKNESS
 40
0.0
  9
$LIMCHECK
 70
     0
  9
$BLIPMODE
 70
     0
  9
$CHAMFERA
 40
0.0
  9
$CHAMFERB
 40
0.0
  9
$SKPOLY
 70
     0
  9
$TDCREATE
 40
2455397.8646990740671754
  9
$TDUPDATE
 40
2459220.4520486108958721
  9
$TDINDWG
 40
0.0854207407
  9
$TDUSRTIMER
 40
0.0854207407
  9
$USRTIMER
 70
     1
  9
$ANGBASE
 50
0.0
  9
$ANGDIR
 70
     0
  9
$PDMODE
 70
     0
  9
$PDSIZE
 40
0.0
  9
$PLINEWID
 40
0.0
  9
$COORDS
 70
     1
  9
$SPLFRAME
 70
     0
  9
$SPLINETYPE
 70
     6
  9
$SPLINESEGS
 70
     8
  9
$ATTDIA
 70
     1
  9
$ATTREQ
 70
     1
  9
$HANDLING
 70
     1
  9
$HANDSEED
  5
12F3
  9
$SURFTAB1
 70
     6
  9
$SURFTAB2
 70
     6
  9
$SURFTYPE
 70
     6
  9
$SURFU
 70
     6
  9
$SURFV
 70
     6
  9
$UCSNAME
  2

  9
$UCSORG
 10
0.0
 20
0.0
 30
0.0
  9
$UCSXDIR
 10
1.0
 20
0.0
 30
0.0
  9
$UCSYDIR
 10
0.0
 20
1.0
 30
0.0
  9
$PUCSNAME
  2

  9
$PUCSORG
 10
0.0
 20
0.0
 30
0.0
  9
$PUCSXDIR
 10
1.0
 20
0.0
 30
0.0
  9
$PUCSYDIR
 10
0.0
 20
1.0
 30
0.0
  9
$USERI1
 70
     0
  9
$USERI2
 70
     0
  9
$USERI3
 70
     0
  9
$USERI4
 70
     0
  9
$USERI5
 70
     0
  9
$USERR1
 40
0.0
  9
$USERR2
 40
0.0
  9
$USERR3
 40
0.0
  9
$USERR4
 40
0.0
  9
$USERR5
 40
0.0
  9
$WORLDVIEW
 70
     1
  9
$SHADEDGE
 70
     3
  9
$SHADEDIF
 70
    70
  9
$TILEMODE
 70
     1
  9
$MAXACTVP
 70
    16
  9
$PLIMCHECK
 70
     0
  9
$PEXTMIN
 10
1.0000000000000000E+20
 20
1.0000000000000000E+20
 30
1.0000000000000000E+20
  9
$PEXTMAX
 10
-1.0000000000000000E+20
 20
-1.0000000000000000E+20
 30
-1.0000000000000000E+20
  9
$PLIMMIN
 10
23.586845423393239
 20
-0.1588607914324633
  9
$PLIMMAX
 10
233.5868454233932141
 20
296.8411392085674834
  9
$UNITMODE
 70
     0
  9
$VISRETAIN
 70
     0
  9
$PLINEGEN
 70
     0
  9
$PSLTSCALE
 70
     0
  0
ENDSEC
  0
SECTION
  2
TABLES
  0
TABLE
  2
VPORT
 70
     1
  0
VPORT
  2
*ACTIVE
 70
     0
 10
0.0
 20
0.0
 11
1.0
 21
1.0
 12
-0.3555286699994724
 22
-84.156503868098838
 13
0.0
 23
0.0
 14
1.0
 24
1.0
 15
10.0
 25
10.0
 16
-0.0000000000001137
 26
0.0
 36
468.1275535005553934
 17
372.2924774024065755
 27
298.8047071095630827
 37
-7.9219588964015069
 40
194.567555795456002
 41
1.7852028639618129
 42
50.0
 43
0.0
 44
0.0
 50
0.0
 51
0.0
 71
     0
 72
  1500
 73
     1
 74
     0
 75
     0
 76
     0
 77
     0
 78
     0
  0
ENDTAB
  0
TABLE
  2
LTYPE
 70
     6
  0
LTYPE
  2
CONTINUOUS
 70
     0
  3
Solid line
 72
    65
 73
     0
 40
0.0
  0
LTYPE
  2
PHANTOM2
 70
     0
  3
Phantom (.5x) ___ _ _ ___ _ _ ___ _ _ ___ _ _
 72
    65
 73
     6
 40
1.25
 49
0.625
 49
-0.125
 49
0.125
 49
-0.125
 49
0.125
 49
-0.125
  0
LTYPE
  2
VERDECKT
 70
     0
  3
Verdeckt __ __ __ __ __ __ __ __ __ __ __ __ __
 72
    65
 73
     2
 40
0.375
 49
0.25
 49
-0.125
  0
ENDTAB
  0
TABLE
  2
LAYER
 70
    14
  0
LAYER
  2
0
 70
     0
 62
     7
  6
CONTINUOUS
  0
LAYER
  2
VOLL
 70
     0
 62
     1
  6
CONTINUOUS
  0
LAYER
  2
STEMPEL
 70
     0
 62
     3
  6
CONTINUOUS
  0
LAYER
  2
DEFPOINTS
 70
     0
 62
     7
  6
CONTINUOUS
  0
LAYER
  2
ADSK_ASSOC_ENTITY_BACKUPS
 70
     1
 62
    -7
  6
CONTINUOUS
  0
ENDTAB
  0
TABLE
  2
STYLE
 70
     5
  0
STYLE
  2
STANDARD
 70
     0
 40
0.0
 41
0.8
 50
0.0
 71
     0
 42
3.5
  3
simplex.shx
  4

  0
STYLE
  2
GREEKS
 70
     0
 40
0.0
 41
0.8
 50
0.0
 71
     0
 42
2.5
  3
SIMPLEX.shx
  4

  0
ENDTAB
  0
TABLE
  2
VIEW
 70
     1
  0
ENDTAB
  0
TABLE
  2
UCS
 70
     0
  0
ENDTAB
  0
TABLE
  2
APPID
 70
    16
  0
APPID
  2
ACAD
 70
     0
  0
APPID
  2
ACAD_NAV_VCDISPLAY
 70
     0
  0
APPID
  2
ACAD_MLEADERVER
 70
     0
  0
APPID
  2
ACAD_EXEMPT_FROM_CAD_STANDARDS
 70
     0
  0
APPID
  2
ACAD_PSEXT
 70
     0
  0
APPID
  2
ACAECLAYERSTANDARD
 70
     0
  0
APPID
  2
ACAUTHENVIRON
 70
     0
  0
APPID
  2
ACCMTRANSPARENCY
 70
     0
  0
APPID
  2
ACSYNERGY
 70
     0
  0
APPID
  2
SYNERGY_BODY_TBR_ID
 70
     0
  0
APPID
  2
ACAD_VIEW_EDGE_ID
 70
     0
  0
APPID
  2
ACSYNERGYSKETCH
 70
     0
  0
APPID
  2
ACAD_MODELDOC_XFORM
 70
     0
  0
APPID
  2
ACADANNOTATIVE
 70
     0
  0
APPID
  2
ACADANNOMONITORALERTICONDI
 70
     0
  0
APPID
  2
AcDbAttr
 70
     0
  0
ENDTAB
  0
TABLE
  2
DIMSTYLE
 70
     3
  0
DIMSTYLE
  2
STANDARD
 70
     0
  3

  4

  5

  6

  7

 40
1.0
 41
0.18
 42
0.0625
 43
0.38
 44
0.18
 45
0.0
 46
0.0
 47
0.0
 48
0.0
140
0.18
141
0.09
142
0.0
143
25.3999999999999986
144
1.0
145
0.0
146
1.0
147
0.09
 71
     0
 72
     0
 73
     1
 74
     1
 75
     0
 76
     0
 77
     0
 78
     0
170
     0
171
     2
172
     0
173
     0
174
     0
175
     0
176
     0
177
     0
178
     0
  0
ENDTAB
  0
ENDSEC
  0
SECTION
  2
BLOCKS
  0
BLOCK
  8
0
  2
$MODEL_SPACE
 70
     0
 10
0.0
 20
0.0
 30
0.0
  3
$MODEL_SPACE
  1

  0
ENDBLK
  5
36
  8
0
  0
BLOCK
 67
     1
  8
0
  2
$PAPER_SPACE
 70
     0
 10
0.0
 20
0.0
 30
0.0
  3
$PAPER_SPACE
  1

  0
ENDBLK
  5
34
 67
     1
  8
0
  0
BLOCK
  8
0
  2
*S4
 70
     1
 10
0.0
 20
0.0
 30
0.0
  3
*S4
  1

  0
ENDBLK
  5
AE7
  8
0
  0
BLOCK
  8
0
  2
A$CE495B734
 70
     0
 10
0.0
 20
0.0
 30
0.0
  3
A$CE495B734
  1

  0
CIRCLE
  5
120A
  8
0
 10
139.7543161534844103
 20
169.3642065332045945
 30
0.0000000000000355
 40
24.1476030003188491
  0
CIRCLE
  5
120B
  8
0
 10
139.7543161534844103
 20
169.3642065332045945
 30
0.0000000000000355
 40
25.5000000000000213
  0
CIRCLE
  5
120C
  8
0
 10
139.7543161534844103
 20
169.3642065332045945
 30
0.0000000000000338
 40
31.1024170314379909
  0
CIRCLE
  5
120D
  8
0
 10
139.7543161534844103
 20
169.3642065332045945
 30
0.0000000000000338
 40
19.5000000000000711
  0
CIRCLE
  5
120E
  8
0
 10
139.7543161534844103
 20
169.3642065332045945
 30
0.0000000000000355
 40
22.5
  0
CIRCLE
  5
120F
  8
0
 10
139.7543161534844103
 20
169.3642065332045945
 30
0.0000000000000355
 40
22.7705481821080511
  0
CIRCLE
  5
1210
  8
0
 10
139.7543161534844103
 20
169.3642065332045945
 30
0.0000000000000338
 40
33.2500000000000497
  0
CIRCLE
  5
1211
  8
0
  6
VERDECKT
 62
     1
 10
139.7543161534844103
 20
169.3642065332045945
 30
0.0000000000000338
 40
21.0000000000000213
  0
CIRCLE
  5
1212
  8
0
  6
VERDECKT
 62
     1
 10
139.7543161534844103
 20
169.3642065332045945
 30
0.0000000000000338
 40
29.7880931684230106
  0
CIRCLE
  5
1213
  8
0
  6
VERDECKT
 62
     1
 10
139.7543161534844103
 20
169.3642065332045945
 30
0.0000000000000355
 40
24.0000000069681008
  0
CIRCLE
  5
1214
  8
0
  6
VERDECKT
 62
     1
 10
139.7543161534844103
 20
169.3642065332045945
 30
0.0000000000000338
 40
28.8000000000002316
  0
CIRCLE
  5
1215
  8
0
  6
VERDECKT
 62
     1
 10
139.7543161534844103
 20
169.3642065332045945
 30
0.0000000000000355
 40
29.8000000000000398
  0
CIRCLE
  5
1216
  8
0
  6
VERDECKT
 62
     1
 10
139.7543161534844103
 20
169.3642065332045945
 30
0.0000000000000338
 40
28.3000000000000398
  0
ENDBLK
  5
1218
  8
0
  0
BLOCK
  8
0
  2
A$C7C79EF38
 70
     0
 10
0.0
 20
0.0
 30
0.0
  3
A$C7C79EF38
  1

  0
LINE
  5
121C
  8
0
 10
115.6067131531656003
 20
49.9999999999997797
 30
-0.0000000000000111
 11
163.9019191538033056
 21
49.9999999999997797
 31
-0.0000000000000111
210
0.0
220
1.0
230
-0.0000000000000002
  0
LINE
  5
121D
  8
0
 10
108.6518991220464017
 20
-14.2771218753415194
 30
0.0000000000000032
 11
170.8567331849224047
 21
-14.2771218753415194
 31
0.0000000000000032
210
0.0
220
1.0
230
-0.0000000000000002
  0
ARC
  5
121E
  8
0
 10
-130.7543161534842966
 20
43.4578196795918572
 30
0.0
 40
16.4999999999999112
210
0.0
220
-0.0000000000000002
230
-1.0
 50
359.9999999999998863
 51
23.3592945446399902
  0
ARC
  5
121F
  8
0
 10
-148.7543161534850071
 20
43.4578196795919567
 30
0.0
 40
16.4999999999994884
210
0.0
220
-0.0000000000000002
230
-1.0
 50
156.6407054553598073
 51
180.0000000000003979
  0
LINE
  5
1220
  8
0
 10
165.2543161534844103
 20
43.4578196795918075
 30
-0.0000000000000096
 11
165.2543161534844103
 21
38.3670000000003384
 31
-0.0000000000000085
210
0.0
220
1.0
230
-0.0000000000000002
  0
LINE
  5
1221
  8
0
 10
114.2543161534843961
 20
43.4578196795918217
 30
-0.0000000000000096
 11
114.2543161534843961
 21
38.3670000000003526
 31
-0.0000000000000085
210
0.0
220
1.0
230
-0.0000000000000002
  0
ARC
  5
1222
  8
0
 10
-134.2572653957921887
 20
38.3679693176390373
 30
0.0
 40
20.0029492657936991
210
0.0
220
-0.0000000000000002
230
-1.0
 50
341.806029401615092
 51
359.9972235189426897
  0
ARC
  5
1223
  8
0
 10
-145.251366911175694
 20
38.3679693176392078
 30
0.0
 40
20.002949265794669
210
0.0
220
-0.0000000000000002
230
-1.0
 50
180.0027764810577082
 51
198.1939705983843965
  0
ARC
  5
1224
  8
0
 10
-105.7543161534843961
 20
29.0000000000004086
 30
0.0
 40
10.0
210
0.0
220
-0.0000000000000002
230
-1.0
 50
161.8060294016152909
 51
180.0000000000001137
  0
ARC
  5
1225
  8
0
 10
-173.7543161534833871
 20
29.0000000000004796
 30
0.0
 40
9.9999999999990035
210
0.0
220
-0.0000000000000002
230
-1.0
 50
359.9999999999993747
 51
18.1939705983861586
  0
LINE
  5
1226
  8
0
 10
163.7543161534844955
 20
29.0000000000003801
 30
-0.0000000000000064
 11
163.7543161534844955
 21
24.8218253804967404
 31
-0.0000000000000055
210
0.0
220
1.0
230
-0.0000000000000002
  0
LINE
  5
1227
  8
0
 10
115.7543161534843961
 20
29.0000000000003908
 30
-0.0000000000000064
 11
115.7543161534843961
 21
24.821825380496751
 31
-0.0000000000000055
210
0.0
220
1.0
230
-0.0000000000000002
  0
ARC
  5
1228
  8
0
 10
-125.7543161534834013
 20
24.8218253804964384
 30
0.0
 40
9.9999999999989466
210
0.0
220
-0.0000000000000002
230
-1.0
 50
324.3409123038599091
 51
0.0000000000017747
  0
ARC
  5
1229
  8
0
 10
-153.7543161534854903
 20
24.821825380496481
 30
0.0
 40
9.9999999999990035
210
0.0
220
-0.0000000000000002
230
-1.0
 50
179.9999999999984084
 51
215.6590876961402046
  0
ARC
  5
122A
  8
0
 10
-112.754316153484595
 20
15.4944463274080402
 30
0.0
 40
5.9999999999998161
210
0.0
220
-0.0000000000000002
230
-1.0
 50
144.3409123038599091
 51
179.9999999999996021
  0
ARC
  5
122B
  8
0
 10
-166.7543161534838987
 20
15.4944463274081894
 30
0.0
 40
5.9999999999994031
210
0.0
220
-0.0000000000000002
230
-1.0
 50
359.9999999999988063
 51
35.659087696141043
  0
LINE
  5
122C
  8
0
 10
160.7543161534844103
 20
15.4944463274080704
 30
-0.0000000000000034
 11
160.7543161534844103
 21
11.2982212813473701
 31
-0.0000000000000025
210
0.0
220
1.0
230
-0.0000000000000002
  0
LINE
  5
122D
  8
0
 10
118.7543161534843961
 20
15.4944463274080793
 30
-0.0000000000000034
 11
118.7543161534843961
 21
11.2982212813473701
 31
-0.0000000000000025
210
0.0
220
1.0
230
-0.0000000000000002
  0
ARC
  5
122E
  8
0
 10
-110.754316153484794
 20
11.2982212813472902
 30
0.0
 40
7.9999999999996296
210
0.0
220
-0.0000000000000002
230
-1.0
 50
179.9999999999992895
 51
198.4349488229219105
  0
ARC
  5
122F
  8
0
 10
-168.754316153485604
 20
11.2982212813474892
 30
0.0
 40
8.0000000000011902
210
0.0
220
-0.0000000000000002
230
-1.0
 50
341.5650511770801927
 51
359.9999999999990905
  0
LINE
  5
1230
  8
0
 10
161.1648497690802913
 20
8.768399153212707
 30
-0.0000000000000019
 11
165.5246219788191127
 21
-4.310917476003759
 31
0.000000000000001
210
0.0
220
1.0
230
-0.0000000000000002
  0
LINE
  5
1231
  8
0
 10
118.3437825378886004
 20
8.768399153212707
 30
-0.0000000000000019
 11
113.9840103281497932
 21
-4.3109174760037563
 31
0.000000000000001
210
0.0
220
1.0
230
-0.0000000000000002
  0
ARC
  5
1232
  8
0
 10
-106.3945439437472942
 20
-1.7810953478697451
 30
0.0
 40
7.9999999999982636
210
0.0
220
-0.0000000000000002
230
-1.0
 50
198.4349488229208873
 51
208.8107937429747096
  0
ARC
  5
1233
  8
0
 10
-173.1140883632232033
 20
-1.7810953478689939
 30
0.0
 40
8.0000000000000284
210
0.0
220
-0.0000000000000002
230
-1.0
 50
331.1892062570258872
 51
341.5650511770775779
  0
LINE
  5
1234
  8
0
 10
166.1043610938100983
 20
-5.6364453460463784
 30
0.0000000000000013
 11
170.8567331849224047
 21
-14.2771218753415301
 31
0.0000000000000032
210
0.0
220
1.0
230
-0.0000000000000002
  0
LINE
  5
1235
  8
0
 10
113.404271213158907
 20
-5.6364453460463677
 30
0.0000000000000013
 11
108.6518991220465011
 21
-14.2771218753415194
 31
0.0000000000000032
210
0.0
220
1.0
230
-0.0000000000000002
  0
LINE
  5
1236
  8
0
 10
109.9662229850614068
 20
-14.9999999999997708
 30
0.0000000000000033
 11
108.6518991220464017
 21
-14.2771218753415194
 31
0.0000000000000032
210
0.0
220
1.0
230
-0.0000000000000002
  0
LINE
  5
1237
  8
0
 10
169.5424093219075132
 20
-14.9999999999997904
 30
0.0000000000000033
 11
170.8567331849224047
 21
-14.2771218753415408
 31
0.0000000000000032
210
0.0
220
1.0
230
-0.0000000000000002
  0
LINE
  5
1238
  8
0
 10
106.5043161534843961
 20
-14.9999999999997495
 30
0.0000000000000033
 11
173.0043161534844103
 21
-14.9999999999997495
 31
0.0000000000000033
210
0.0
220
1.0
230
-0.0000000000000002
  0
LINE
  5
1239
  8
0
 10
106.5043161534843961
 20
-49.9999999999997584
 30
0.0000000000000111
 11
173.0043161534844103
 21
-49.9999999999997584
 31
0.0000000000000111
210
0.0
220
1.0
230
-0.0000000000000002
  0
LINE
  5
123A
  8
0
 10
173.0043161534844103
 20
-14.9999999999997495
 30
0.0000000000000033
 11
173.0043161534844103
 21
-49.9999999999997584
 31
0.0000000000000111
210
0.0
220
1.0
230
-0.0000000000000002
  0
LINE
  5
123B
  8
0
 10
106.5043161534843961
 20
-14.9999999999997495
 30
0.0000000000000033
 11
106.5043161534843961
 21
-49.9999999999997584
 31
0.0000000000000111
210
0.0
220
1.0
230
-0.0000000000000002
  0
LINE
  5
123C
  8
0
  6
VERDECKT
 62
     1
 10
116.9837679713763947
 20
49.4052563345081666
 30
-0.000000000000011
 11
162.5248643355924969
 21
49.4052563345081666
 31
-0.000000000000011
210
0.0
220
1.0
230
-0.0000000000000002
  0
LINE
  5
123D
  8
0
  6
VERDECKT
 62
     1
 10
164.8232802498253022
 20
-6.4197653234868088
 30
0.0000000000000014
 11
169.5424093219075132
 21
-14.9999999999997797
 31
0.0000000000000033
210
0.0
220
1.0
230
-0.0000000000000002
  0
LINE
  5
123E
  8
0
  6
VERDECKT
 62
     1
 10
114.6853520571436036
 20
-6.4197653234868062
 30
0.0000000000000014
 11
109.9662229850614068
 21
-14.9999999999997602
 31
0.0000000000000033
210
0.0
220
1.0
230
-0.0000000000000002
  0
ARC
  5
123F
  8
0
  6
VERDECKT
 62
     1
 10
-106.3613009247169998
 20
-1.841537200651874
 30
0.0
 40
9.4999999999983569
210
0.0
220
-0.0000000000000002
230
-1.0
 50
198.6124786461599001
 51
208.8107937429747096
  0
ARC
  5
1240
  8
0
  6
VERDECKT
 62
     1
 10
-173.1473313822561977
 20
-1.841537200650021
 30
0.0
 40
9.5000000000030589
210
0.0
220
-0.0000000000000002
230
-1.0
 50
331.1892062570281041
 51
341.3875213538378262
  0
LINE
  5
1241
  8
0
  6
VERDECKT
 62
     1
 10
159.7511764108263037
 20
8.1705706390715171
 30
-0.0000000000000018
 11
164.1441916395953058
 21
-4.8736115358497827
 31
0.0000000000000011
210
0.0
220
1.0
230
-0.0000000000000002
  0
LINE
  5
1242
  8
0
  6
VERDECKT
 62
     1
 10
119.7574558961426021
 20
8.170570639071526
 30
-0.0000000000000018
 11
115.3644406673736
 21
-4.8736115358497782
 31
0.0000000000000011
210
0.0
220
1.0
230
-0.0000000000000002
  0
ARC
  5
1243
  8
0
  6
VERDECKT
 62
     1
 10
-110.7543161534848934
 20
11.2026449742698997
 30
0.0
 40
9.4999999999995453
210
0.0
220
-0.0000000000000002
230
-1.0
 50
179.9999999999982094
 51
198.612478646160497
  0
ARC
  5
1244
  8
0
  6
VERDECKT
 62
     1
 10
-168.7543161534860872
 20
11.2026449742702408
 30
0.0
 40
9.5000000000016485
210
0.0
220
-0.0000000000000002
230
-1.0
 50
341.387521353841521
 51
359.9999999999996021
  0
LINE
  5
1245
  8
0
  6
VERDECKT
 62
     1
 10
159.2543161534844955
 20
15.4944463274080402
 30
-0.0000000000000034
 11
159.2543161534844955
 21
11.2026449742701892
 31
-0.0000000000000025
210
0.0
220
1.0
230
-0.0000000000000002
  0
LINE
  5
1246
  8
0
  6
VERDECKT
 62
     1
 10
120.2543161534843961
 20
15.4944463274080508
 30
-0.0000000000000034
 11
120.2543161534843961
 21
11.2026449742701892
 31
-0.0000000000000025
210
0.0
220
1.0
230
-0.0000000000000002
  0
ARC
  5
1247
  8
0
  6
VERDECKT
 62
     1
 10
-112.7543161534836997
 20
15.4944463274078803
 30
0.0
 40
7.5000000000007114
210
0.0
220
-0.0000000000000002
230
-1.0
 50
144.3409123038638882
 51
179.9999999999986073
  0
ARC
  5
1248
  8
0
  6
VERDECKT
 62
     1
 10
-166.7543161534850924
 20
15.4944463274078892
 30
0.0
 40
7.500000000000596
210
0.0
220
-0.0000000000000002
230
-1.0
 50
0.0000000000011323
 51
35.6590876961365524
  0
ARC
  5
1249
  8
0
  6
VERDECKT
 62
     1
 10
-125.7543161534855045
 20
24.8218253804972093
 30
0.0
 40
8.5000000000010658
210
0.0
220
-0.0000000000000002
230
-1.0
 50
324.340912303863206
 51
359.9999999999974989
  0
ARC
  5
124A
  8
0
  6
VERDECKT
 62
     1
 10
-153.7543161534833871
 20
24.8218253804971489
 30
0.0
 40
8.5000000000010232
210
0.0
220
-0.0000000000000002
230
-1.0
 50
180.0000000000021032
 51
215.6590876961365097
  0
LINE
  5
124B
  8
0
  6
VERDECKT
 62
     1
 10
162.2543161534844103
 20
29.0000000000003801
 30
-0.0000000000000064
 11
162.2543161534844103
 21
24.8218253804968292
 31
-0.0000000000000055
210
0.0
220
1.0
230
-0.0000000000000002
  0
LINE
  5
124C
  8
0
  6
VERDECKT
 62
     1
 10
117.2543161534843961
 20
29.0000000000003908
 30
-0.0000000000000064
 11
117.2543161534843961
 21
24.8218253804968292
 31
-0.0000000000000055
210
0.0
220
1.0
230
-0.0000000000000002
  0
ARC
  5
124D
  8
0
  6
VERDECKT
 62
     1
 10
-105.754316153484595
 20
29.0000000000006111
 30
0.0
 40
11.4999999999997993
210
0.0
220
-0.0000000000000002
230
-1.0
 50
161.8060294016163994
 51
180.0000000000011084
  0
ARC
  5
124E
  8
0
  6
VERDECKT
 62
     1
 10
-173.7543161534848082
 20
29.000000000000469
 30
0.0
 40
11.5000000000003109
210
0.0
220
-0.0000000000000002
230
-1.0
 50
359.9999999999996021
 51
18.1939705983834088
  0
ARC
  5
124F
  8
0
  6
VERDECKT
 62
     1
 10
-134.2543161534881051
 20
38.3670000000010987
 30
0.0
 40
18.4998448162689186
210
0.0
220
-0.0000000000000002
230
-1.0
 50
341.8060294016167973
 51
359.9999999999976126
  0
ARC
  5
1250
  8
0
  6
VERDECKT
 62
     1
 10
-145.2543161534829892
 20
38.3670000000007434
 30
0.0
 40
18.4998448162667088
210
0.0
220
-0.0000000000000002
230
-1.0
 50
180.0000000000011084
 51
198.1939705983841975
  0
LINE
  5
1251
  8
0
  6
VERDECKT
 62
     1
 10
115.7544713372191012
 20
38.3670000000003526
 30
-0.0000000000000085
 11
115.7543161534843961
 21
43.4578196795919567
 31
-0.0000000000000096
210
0.0
220
1.0
230
-0.0000000000000002
  0
LINE
  5
1252
  8
0
  6
VERDECKT
 62
     1
 10
163.7541609697497051
 20
38.3670000000003384
 30
-0.0000000000000085
 11
163.7543161534844955
 21
43.4578196795919567
 31
-0.0000000000000096
210
0.0
220
1.0
230
-0.0000000000000002
  0
ARC
  5
1253
  8
0
  6
VERDECKT
 62
     1
 10
-130.7521045665309032
 20
43.4582768579964025
 30
0.0
 40
14.9977884200145599
210
0.0
220
-0.0000000000000002
230
-1.0
 50
359.9982534496199946
 51
23.3610410950194414
  0
ARC
  5
1254
  8
0
  6
VERDECKT
 62
     1
 10
-148.7565277404382016
 20
43.4582768579964807
 30
0.0
 40
14.9977884200143006
210
0.0
220
-0.0000000000000002
230
-1.0
 50
156.6389589049805124
 51
180.0017465503802043
  0
LINE
  5
1255
  8
0
  6
VERDECKT
 62
     1
 10
116.9837679713763947
 20
49.4052563345081808
 30
-0.000000000000011
 11
115.6067131531656003
 21
49.999999999999801
 31
-0.0000000000000111
210
0.0
220
1.0
230
-0.0000000000000002
  0
LINE
  5
1256
  8
0
  6
VERDECKT
 62
     1
 10
162.5248643355924969
 20
49.4052563345081808
 30
-0.000000000000011
 11
163.9019191538033056
 21
49.999999999999801
 31
-0.0000000000000111
210
0.0
220
1.0
230
-0.0000000000000002
  0
LINE
  5
1257
  8
0
  6
VERDECKT
 62
     1
 10
111.4543161534843989
 20
-48.4999999999997868
 30
0.0000000000000108
 11
168.0543161534843932
 21
-48.4999999999997868
 31
0.0000000000000108
210
0.0
220
1.0
230
-0.0000000000000002
  0
LINE
  5
1258
  8
0
  6
VERDECKT
 62
     1
 10
109.9543161534843989
 20
-46.9999999999997726
 30
0.0000000000000104
 11
169.5543161534843932
 21
-46.9999999999997726
 31
0.0000000000000104
210
0.0
220
1.0
230
-0.0000000000000002
  0
LINE
  5
1259
  8
0
  6
VERDECKT
 62
     1
 10
111.4543161534843989
 20
-45.4999999999997868
 30
0.0000000000000101
 11
168.0543161534843932
 21
-45.4999999999997868
 31
0.0000000000000101
210
0.0
220
1.0
230
-0.0000000000000002
  0
LINE
  5
125A
  8
0
  6
VERDECKT
 62
     1
 10
109.9543161534843989
 20
-43.9999999999997584
 30
0.0000000000000098
 11
169.5543161534843932
 21
-43.9999999999997584
 31
0.0000000000000098
210
0.0
220
1.0
230
-0.0000000000000002
  0
LINE
  5
125B
  8
0
  6
VERDECKT
 62
     1
 10
111.4543161534843989
 20
-42.4999999999997868
 30
0.0000000000000094
 11
168.0543161534843932
 21
-42.4999999999997868
 31
0.0000000000000094
210
0.0
220
1.0
230
-0.0000000000000002
  0
LINE
  5
125C
  8
0
  6
VERDECKT
 62
     1
 10
109.9543161534843989
 20
-40.9999999999997584
 30
0.0000000000000091
 11
169.5543161534845069
 21
-40.9999999999997584
 31
0.0000000000000091
210
0.0
220
1.0
230
-0.0000000000000002
  0
LINE
  5
125D
  8
0
  6
VERDECKT
 62
     1
 10
111.4543161534843989
 20
-39.499999999999801
 30
0.0000000000000088
 11
168.0543161534843932
 21
-39.499999999999801
 31
0.0000000000000088
210
0.0
220
1.0
230
-0.0000000000000002
  0
LINE
  5
125E
  8
0
  6
VERDECKT
 62
     1
 10
109.9543161534843989
 20
-37.9999999999997797
 30
0.0000000000000084
 11
169.5543161534845069
 21
-37.9999999999997797
 31
0.0000000000000084
210
0.0
220
1.0
230
-0.0000000000000002
  0
LINE
  5
125F
  8
0
  6
VERDECKT
 62
     1
 10
111.4543161534843989
 20
-36.4999999999998082
 30
0.0000000000000081
 11
168.0543161534843932
 21
-36.4999999999998082
 31
0.0000000000000081
210
0.0
220
1.0
230
-0.0000000000000002
  0
LINE
  5
1260
  8
0
  6
VERDECKT
 62
     1
 10
109.9543161534843989
 20
-34.9999999999997797
 30
0.0000000000000078
 11
169.5543161534845069
 21
-34.9999999999997797
 31
0.0000000000000078
210
0.0
220
1.0
230
-0.0000000000000002
  0
LINE
  5
1261
  8
0
  6
VERDECKT
 62
     1
 10
111.4543161534843989
 20
-33.4999999999998082
 30
0.0000000000000074
 11
168.0543161534843932
 21
-33.4999999999998082
 31
0.0000000000000074
210
0.0
220
1.0
230
-0.0000000000000002
  0
LINE
  5
1262
  8
0
  6
VERDECKT
 62
     1
 10
109.9543161534842994
 20
-31.9999999999997513
 30
0.0000000000000071
 11
169.5543161534845069
 21
-31.9999999999997513
 31
0.0000000000000071
210
0.0
220
1.0
230
-0.0000000000000002
  0
LINE
  5
1263
  8
0
  6
VERDECKT
 62
     1
 10
111.4543161534842994
 20
-30.4999999999997797
 30
0.0000000000000068
 11
168.0543161534845922
 21
-30.4999999999997797
 31
0.0000000000000068
210
0.0
220
1.0
230
-0.0000000000000002
  0
LINE
  5
1264
  8
0
  6
VERDECKT
 62
     1
 10
109.9543161534842994
 20
-28.9999999999997797
 30
0.0000000000000064
 11
169.5543161534845069
 21
-28.9999999999997797
 31
0.0000000000000064
210
0.0
220
1.0
230
-0.0000000000000002
  0
LINE
  5
1265
  8
0
  6
VERDECKT
 62
     1
 10
111.4543161534842994
 20
-27.4999999999997797
 30
0.0000000000000061
 11
168.0543161534845922
 21
-27.4999999999997797
 31
0.0000000000000061
210
0.0
220
1.0
230
-0.0000000000000002
  0
LINE
  5
1266
  8
0
  6
VERDECKT
 62
     1
 10
109.9543161534842994
 20
-25.9999999999997797
 30
0.0000000000000058
 11
169.5543161534845069
 21
-25.9999999999997797
 31
0.0000000000000058
210
0.0
220
1.0
230
-0.0000000000000002
  0
LINE
  5
1267
  8
0
  6
VERDECKT
 62
     1
 10
111.4543161534842994
 20
-24.4999999999997797
 30
0.0000000000000054
 11
168.0543161534845922
 21
-24.4999999999997797
 31
0.0000000000000054
210
0.0
220
1.0
230
-0.0000000000000002
  0
LINE
  5
1268
  8
0
  6
VERDECKT
 62
     1
 10
109.9543161534843989
 20
-22.9999999999999183
 30
0.0000000000000051
 11
169.5543161534845069
 21
-22.9999999999999183
 31
0.0000000000000051
210
0.0
220
1.0
230
-0.0000000000000002
  0
LINE
  5
1269
  8
0
  6
VERDECKT
 62
     1
 10
111.4543161534843989
 20
-21.4999999999999503
 30
0.0000000000000048
 11
168.0543161534843932
 21
-21.4999999999999503
 31
0.0000000000000048
210
0.0
220
1.0
230
-0.0000000000000002
  0
LINE
  5
126A
  8
0
  6
VERDECKT
 62
     1
 10
109.9543161534843989
 20
-19.9999999999999396
 30
0.0000000000000044
 11
169.5543161534845069
 21
-19.9999999999999396
 31
0.0000000000000044
210
0.0
220
1.0
230
-0.0000000000000002
  0
LINE
  5
126B
  8
0
  6
VERDECKT
 62
     1
 10
111.4543161534843989
 20
-18.4999999999999503
 30
0.0000000000000041
 11
168.0543161534843932
 21
-18.4999999999999503
 31
0.0000000000000041
210
0.0
220
1.0
230
-0.0000000000000002
  0
LINE
  5
126C
  8
0
  6
VERDECKT
 62
     1
 10
109.9543161534843989
 20
-16.9999999999999503
 30
0.0000000000000038
 11
169.5543161534845069
 21
-16.9999999999999503
 31
0.0000000000000038
210
0.0
220
1.0
230
-0.0000000000000002
  0
LINE
  5
126D
  8
0
  6
VERDECKT
 62
     1
 10
111.4543161534843989
 20
-15.4999999999999396
 30
0.0000000000000034
 11
168.0543161534843932
 21
-15.4999999999999396
 31
0.0000000000000034
210
0.0
220
1.0
230
-0.0000000000000002
  0
LINE
  5
126E
  8
0
  6
VERDECKT
 62
     1
 10
168.0543161534843932
 20
-48.4999999999997868
 30
0.0000000000000108
 11
169.5543161534843932
 21
-49.9999999999997584
 31
0.0000000000000111
210
0.0
220
1.0
230
-0.0000000000000002
  0
LINE
  5
126F
  8
0
  6
VERDECKT
 62
     1
 10
111.4543161534843989
 20
-48.4999999999997868
 30
0.0000000000000108
 11
109.9543161534843989
 21
-49.9999999999997584
 31
0.0000000000000111
210
0.0
220
1.0
230
-0.0000000000000002
  0
LINE
  5
1270
  8
0
  6
VERDECKT
 62
     1
 10
111.4543161534843989
 20
-48.4999999999997868
 30
0.0000000000000108
 11
109.9543161534843989
 21
-46.9999999999997726
 31
0.0000000000000104
210
0.0
220
1.0
230
-0.0000000000000002
  0
LINE
  5
1271
  8
0
  6
VERDECKT
 62
     1
 10
168.0543161534843932
 20
-48.4999999999997868
 30
0.0000000000000108
 11
169.5543161534843932
 21
-46.9999999999997726
 31
0.0000000000000104
210
0.0
220
1.0
230
-0.0000000000000002
  0
LINE
  5
1272
  8
0
  6
VERDECKT
 62
     1
 10
168.0543161534843932
 20
-45.4999999999997868
 30
0.0000000000000101
 11
169.5543161534843932
 21
-46.9999999999997726
 31
0.0000000000000104
210
0.0
220
1.0
230
-0.0000000000000002
  0
LINE
  5
1273
  8
0
  6
VERDECKT
 62
     1
 10
111.4543161534843989
 20
-45.4999999999997868
 30
0.0000000000000101
 11
109.9543161534843989
 21
-46.9999999999997726
 31
0.0000000000000104
210
0.0
220
1.0
230
-0.0000000000000002
  0
LINE
  5
1274
  8
0
  6
VERDECKT
 62
     1
 10
111.4543161534843989
 20
-45.4999999999997868
 30
0.0000000000000101
 11
109.9543161534843989
 21
-43.9999999999997584
 31
0.0000000000000098
210
0.0
220
1.0
230
-0.0000000000000002
  0
LINE
  5
1275
  8
0
  6
VERDECKT
 62
     1
 10
168.0543161534843932
 20
-45.4999999999997868
 30
0.0000000000000101
 11
169.5543161534843932
 21
-43.9999999999997584
 31
0.0000000000000098
210
0.0
220
1.0
230
-0.0000000000000002
  0
LINE
  5
1276
  8
0
  6
VERDECKT
 62
     1
 10
168.0543161534843932
 20
-42.4999999999997868
 30
0.0000000000000094
 11
169.5543161534843932
 21
-43.9999999999997584
 31
0.0000000000000098
210
0.0
220
1.0
230
-0.0000000000000002
  0
LINE
  5
1277
  8
0
  6
VERDECKT
 62
     1
 10
111.4543161534843989
 20
-42.4999999999997868
 30
0.0000000000000094
 11
109.9543161534843989
 21
-43.9999999999997584
 31
0.0000000000000098
210
0.0
220
1.0
230
-0.0000000000000002
  0
LINE
  5
1278
  8
0
  6
VERDECKT
 62
     1
 10
111.4543161534843989
 20
-42.4999999999997868
 30
0.0000000000000094
 11
109.9543161534843989
 21
-40.9999999999997584
 31
0.0000000000000091
210
0.0
220
1.0
230
-0.0000000000000002
  0
LINE
  5
1279
  8
0
  6
VERDECKT
 62
     1
 10
168.0543161534843932
 20
-42.4999999999998082
 30
0.0000000000000094
 11
169.5543161534845069
 21
-40.9999999999997797
 31
0.0000000000000091
210
0.0
220
1.0
230
-0.0000000000000002
  0
LINE
  5
127A
  8
0
  6
VERDECKT
 62
     1
 10
168.0543161534843932
 20
-39.499999999999801
 30
0.0000000000000088
 11
169.5543161534845069
 21
-40.9999999999997584
 31
0.0000000000000091
210
0.0
220
1.0
230
-0.0000000000000002
  0
LINE
  5
127B
  8
0
  6
VERDECKT
 62
     1
 10
111.4543161534843989
 20
-39.499999999999801
 30
0.0000000000000088
 11
109.9543161534843989
 21
-40.9999999999997584
 31
0.0000000000000091
210
0.0
220
1.0
230
-0.0000000000000002
  0
LINE
  5
127C
  8
0
  6
VERDECKT
 62
     1
 10
111.4543161534843989
 20
-39.4999999999997868
 30
0.0000000000000088
 11
109.9543161534843989
 21
-37.9999999999997797
 31
0.0000000000000084
210
0.0
220
1.0
230
-0.0000000000000002
  0
LINE
  5
127D
  8
0
  6
VERDECKT
 62
     1
 10
168.0543161534843932
 20
-39.4999999999997868
 30
0.0000000000000088
 11
169.5543161534845069
 21
-37.9999999999997797
 31
0.0000000000000084
210
0.0
220
1.0
230
-0.0000000000000002
  0
LINE
  5
127E
  8
0
  6
VERDECKT
 62
     1
 10
168.0543161534843932
 20
-36.4999999999998082
 30
0.0000000000000081
 11
169.5543161534845069
 21
-37.9999999999997797
 31
0.0000000000000084
210
0.0
220
1.0
230
-0.0000000000000002
  0
LINE
  5
127F
  8
0
  6
VERDECKT
 62
     1
 10
111.4543161534843989
 20
-36.4999999999998082
 30
0.0000000000000081
 11
109.9543161534843989
 21
-37.9999999999997797
 31
0.0000000000000084
210
0.0
220
1.0
230
-0.0000000000000002
  0
LINE
  5
1280
  8
0
  6
VERDECKT
 62
     1
 10
111.4543161534843989
 20
-36.4999999999998082
 30
0.0000000000000081
 11
109.9543161534843989
 21
-34.9999999999997797
 31
0.0000000000000078
210
0.0
220
1.0
230
-0.0000000000000002
  0
LINE
  5
1281
  8
0
  6
VERDECKT
 62
     1
 10
168.0543161534843932
 20
-36.4999999999998082
 30
0.0000000000000081
 11
169.5543161534845069
 21
-34.9999999999997797
 31
0.0000000000000078
210
0.0
220
1.0
230
-0.0000000000000002
  0
LINE
  5
1282
  8
0
  6
VERDECKT
 62
     1
 10
168.0543161534843932
 20
-33.4999999999998082
 30
0.0000000000000074
 11
169.5543161534845069
 21
-34.9999999999997797
 31
0.0000000000000078
210
0.0
220
1.0
230
-0.0000000000000002
  0
LINE
  5
1283
  8
0
  6
VERDECKT
 62
     1
 10
111.4543161534843989
 20
-33.4999999999998082
 30
0.0000000000000074
 11
109.9543161534843989
 21
-34.9999999999997797
 31
0.0000000000000078
210
0.0
220
1.0
230
-0.0000000000000002
  0
LINE
  5
1284
  8
0
  6
VERDECKT
 62
     1
 10
111.4543161534843989
 20
-33.4999999999998082
 30
0.0000000000000074
 11
109.9543161534842994
 21
-31.9999999999997513
 31
0.0000000000000071
210
0.0
220
1.0
230
-0.0000000000000002
  0
LINE
  5
1285
  8
0
  6
VERDECKT
 62
     1
 10
168.0543161534843932
 20
-33.4999999999998224
 30
0.0000000000000074
 11
169.5543161534845922
 21
-31.9999999999997407
 31
0.0000000000000071
210
0.0
220
1.0
230
-0.0000000000000002
  0
LINE
  5
1286
  8
0
  6
VERDECKT
 62
     1
 10
168.0543161534845922
 20
-30.4999999999997797
 30
0.0000000000000068
 11
169.5543161534845922
 21
-31.9999999999997513
 31
0.0000000000000071
210
0.0
220
1.0
230
-0.0000000000000002
  0
LINE
  5
1287
  8
0
  6
VERDECKT
 62
     1
 10
111.4543161534842994
 20
-30.4999999999997797
 30
0.0000000000000068
 11
109.9543161534842994
 21
-31.9999999999997513
 31
0.0000000000000071
210
0.0
220
1.0
230
-0.0000000000000002
  0
LINE
  5
1288
  8
0
  6
VERDECKT
 62
     1
 10
111.4543161534842994
 20
-30.4999999999997797
 30
0.0000000000000068
 11
109.9543161534842994
 21
-28.9999999999997797
 31
0.0000000000000064
210
0.0
220
1.0
230
-0.0000000000000002
  0
LINE
  5
1289
  8
0
  6
VERDECKT
 62
     1
 10
168.0543161534845922
 20
-30.4999999999997797
 30
0.0000000000000068
 11
169.5543161534845922
 21
-28.9999999999997797
 31
0.0000000000000064
210
0.0
220
1.0
230
-0.0000000000000002
  0
LINE
  5
128A
  8
0
  6
VERDECKT
 62
     1
 10
168.0543161534845922
 20
-27.4999999999997797
 30
0.0000000000000061
 11
169.5543161534845922
 21
-28.9999999999997797
 31
0.0000000000000064
210
0.0
220
1.0
230
-0.0000000000000002
  0
LINE
  5
128B
  8
0
  6
VERDECKT
 62
     1
 10
111.4543161534842994
 20
-27.4999999999997797
 30
0.0000000000000061
 11
109.9543161534842994
 21
-28.9999999999997797
 31
0.0000000000000064
210
0.0
220
1.0
230
-0.0000000000000002
  0
LINE
  5
128C
  8
0
  6
VERDECKT
 62
     1
 10
111.4543161534842994
 20
-27.4999999999997797
 30
0.0000000000000061
 11
109.9543161534842994
 21
-25.9999999999997797
 31
0.0000000000000058
210
0.0
220
1.0
230
-0.0000000000000002
  0
LINE
  5
128D
  8
0
  6
VERDECKT
 62
     1
 10
168.0543161534845922
 20
-27.4999999999997797
 30
0.0000000000000061
 11
169.5543161534845922
 21
-25.9999999999997797
 31
0.0000000000000058
210
0.0
220
1.0
230
-0.0000000000000002
  0
LINE
  5
128E
  8
0
  6
VERDECKT
 62
     1
 10
168.0543161534845922
 20
-24.4999999999997797
 30
0.0000000000000054
 11
169.5543161534845922
 21
-25.9999999999997797
 31
0.0000000000000058
210
0.0
220
1.0
230
-0.0000000000000002
  0
LINE
  5
128F
  8
0
  6
VERDECKT
 62
     1
 10
111.4543161534842994
 20
-24.4999999999997797
 30
0.0000000000000054
 11
109.9543161534842994
 21
-25.9999999999997797
 31
0.0000000000000058
210
0.0
220
1.0
230
-0.0000000000000002
  0
LINE
  5
1290
  8
0
  6
VERDECKT
 62
     1
 10
111.4543161534842994
 20
-24.4999999999997797
 30
0.0000000000000054
 11
109.9543161534843989
 21
-22.9999999999999112
 31
0.0000000000000051
210
0.0
220
1.0
230
-0.0000000000000002
  0
LINE
  5
1291
  8
0
  6
VERDECKT
 62
     1
 10
168.0543161534845922
 20
-24.4999999999997691
 30
0.0000000000000054
 11
169.5543161534845069
 21
-22.9999999999999112
 31
0.0000000000000051
210
0.0
220
1.0
230
-0.0000000000000002
  0
LINE
  5
1292
  8
0
  6
VERDECKT
 62
     1
 10
168.0543161534843932
 20
-21.4999999999999503
 30
0.0000000000000048
 11
169.5543161534845069
 21
-22.9999999999999289
 31
0.0000000000000051
210
0.0
220
1.0
230
-0.0000000000000002
  0
LINE
  5
1293
  8
0
  6
VERDECKT
 62
     1
 10
111.4543161534843989
 20
-21.4999999999999503
 30
0.0000000000000048
 11
109.9543161534843989
 21
-22.9999999999999289
 31
0.0000000000000051
210
0.0
220
1.0
230
-0.0000000000000002
  0
LINE
  5
1294
  8
0
  6
VERDECKT
 62
     1
 10
111.4543161534843989
 20
-21.4999999999999503
 30
0.0000000000000048
 11
109.9543161534843989
 21
-19.9999999999999396
 31
0.0000000000000044
210
0.0
220
1.0
230
-0.0000000000000002
  0
LINE
  5
1295
  8
0
  6
VERDECKT
 62
     1
 10
168.0543161534843932
 20
-21.4999999999999503
 30
0.0000000000000048
 11
169.5543161534845069
 21
-19.9999999999999396
 31
0.0000000000000044
210
0.0
220
1.0
230
-0.0000000000000002
  0
LINE
  5
1296
  8
0
  6
VERDECKT
 62
     1
 10
168.0543161534843932
 20
-18.4999999999999503
 30
0.0000000000000041
 11
169.5543161534845069
 21
-19.9999999999999396
 31
0.0000000000000044
210
0.0
220
1.0
230
-0.0000000000000002
  0
LINE
  5
1297
  8
0
  6
VERDECKT
 62
     1
 10
111.4543161534843989
 20
-18.4999999999999503
 30
0.0000000000000041
 11
109.9543161534843989
 21
-19.9999999999999396
 31
0.0000000000000044
210
0.0
220
1.0
230
-0.0000000000000002
  0
LINE
  5
1298
  8
0
  6
VERDECKT
 62
     1
 10
111.4543161534843989
 20
-18.4999999999999503
 30
0.0000000000000041
 11
109.9543161534843989
 21
-16.9999999999999503
 31
0.0000000000000038
210
0.0
220
1.0
230
-0.0000000000000002
  0
LINE
  5
1299
  8
0
  6
VERDECKT
 62
     1
 10
168.0543161534843932
 20
-18.4999999999999503
 30
0.0000000000000041
 11
169.5543161534845069
 21
-16.9999999999999503
 31
0.0000000000000038
210
0.0
220
1.0
230
-0.0000000000000002
  0
LINE
  5
129A
  8
0
  6
VERDECKT
 62
     1
 10
168.0543161534843932
 20
-15.4999999999999396
 30
0.0000000000000034
 11
169.5543161534845069
 21
-16.9999999999999503
 31
0.0000000000000038
210
0.0
220
1.0
230
-0.0000000000000002
  0
LINE
  5
129B
  8
0
  6
VERDECKT
 62
     1
 10
111.4543161534843989
 20
-15.4999999999999396
 30
0.0000000000000034
 11
109.9543161534843989
 21
-16.9999999999999503
 31
0.0000000000000038
210
0.0
220
1.0
230
-0.0000000000000002
  0
LINE
  5
129C
  8
0
  6
VERDECKT
 62
     1
 10
111.4543161534843989
 20
-15.4999999999999503
 30
0.0000000000000034
 11
110.9543161534842
 21
-14.9999999999997708
 31
0.0000000000000033
210
0.0
220
1.0
230
-0.0000000000000002
  0
LINE
  5
129D
  8
0
  6
VERDECKT
 62
     1
 10
168.0543161534843932
 20
-15.4999999999999503
 30
0.0000000000000034
 11
168.5543161534847059
 21
-14.9999999999997797
 31
0.0000000000000033
210
0.0
220
1.0
230
-0.0000000000000002
  0
ENDBLK
  5
129F
  8
0
  0
ENDSEC
  0
SECTION
  2
ENTITIES
  0
TEXT
  5
8F
  8
VOLL
 10
78.076754716981128
 20
31.025947764705851
 30
0.0
 40
1.8
  1

  7
GREEKS
  0
INSERT
  5
AE9
  8
ADSK_ASSOC_ENTITY_BACKUPS
  2
*S4
 10
0.0
 20
0.0
 30
0.0
  0
INSERT
  5
1219
  8
STEMPEL
  2
A$CE495B734
 10
232.1826325789226928
 20
-18.05900880202881
 30
-15.8439177928030599
  0
INSERT
  5
12A0
  8
STEMPEL
  2
A$C7C79EF38
 10
232.1826325789226928
 20
261.2412087517529926
 30
-15.8439177928030404
  0
VIEWPORT
  5
935
 67
     1
  8
0
 10
128.5868454233932141
 20
148.3411392085675118
 30
0.0
 40
533.9969448798290159
 41
299.1239570917758783
 68
     1
 69
     1
1001
ACAD
1000
MVIEW
1002
{
1070
    16
1010
0.0
1020
0.0
1030
0.0
1010
0.0
1020
0.0
1030
1.0
1040
0.0
1040
299.1239570917758783
1040
128.5868454233932141
1040
148.3411392085675118
1040
50.0
1040
0.0
1040
0.0
1070
     0
1070
  1500
1070
     1
1070
     1
1070
     0
1070
     0
1070
     0
1070
     0
1040
0.0
1040
0.0
1040
0.0
1040
10.0
1040
10.0
1040
10.0
1040
10.0
1070
     0
1002
{
1002
}
1002
}
  0
ENDSEC
  0
EOF
