  0
SECTION
  2
HEADER
  9
$ACADVER
  1
AC1009
  9
$INSBASE
 10
0.0
 20
0.0
 30
0.0
  9
$EXTMIN
 10
208.9118967706995136
 20
40.5068091933558208
 30
-12.4713376616652791
  9
$EXTMAX
 10
271.9118967706993999
 20
216.6413216777519892
 30
-12.4713376616652596
  9
$LIMMIN
 10
0.0
 20
0.0
  9
$LIMMAX
 10
210.0
 20
297.0
  9
$ORTHOMODE
 70
     1
  9
$REGENMODE
 70
     1
  9
$FILLMODE
 70
     1
  9
$QTEXTMODE
 70
     0
  9
$MIRRTEXT
 70
     1
  9
$DRAGMODE
 70
     2
  9
$LTSCALE
 40
10.0
  9
$OSMODE
 70
  2495
  9
$ATTMODE
 70
     1
  9
$TEXTSIZE
 40
3.5
  9
$TRACEWID
 40
0.5
  9
$TEXTSTYLE
  7
STANDARD
  9
$CLAYER
  8
STEMPEL
  9
$CELTYPE
  6
BYLAYER
  9
$CECOLOR
 62
   256
  9
$DIMSCALE
 40
1.0
  9
$DIMASZ
 40
3.5
  9
$DIMEXO
 40
1.0
  9
$DIMDLI
 40
7.0
  9
$DIMRND
 40
0.0
  9
$DIMDLE
 40
0.0
  9
$DIMEXE
 40
1.0
  9
$DIMTP
 40
0.0
  9
$DIMTM
 40
0.0
  9
$DIMTXT
 40
3.5
  9
$DIMCEN
 40
1.5
  9
$DIMTSZ
 40
0.0
  9
$DIMTOL
 70
     0
  9
$DIMLIM
 70
     0
  9
$DIMTIH
 70
     0
  9
$DIMTOH
 70
     0
  9
$DIMSE1
 70
     0
  9
$DIMSE2
 70
     0
  9
$DIMTAD
 70
     1
  9
$DIMZIN
 70
     8
  9
$DIMBLK
  1

  9
$DIMASO
 70
     1
  9
$DIMSHO
 70
     0
  9
$DIMPOST
  1

  9
$DIMAPOST
  1

  9
$DIMALT
 70
     0
  9
$DIMALTD
 70
     2
  9
$DIMALTF
 40
25.3999999999999986
  9
$DIMLFAC
 40
1.0
  9
$DIMTOFL
 70
     1
  9
$DIMTVP
 40
0.0
  9
$DIMTIX
 70
     0
  9
$DIMSOXD
 70
     0
  9
$DIMSAH
 70
     0
  9
$DIMBLK1
  1

  9
$DIMBLK2
  1

  9
$DIMSTYLE
  2
STANDARD
  9
$DIMCLRD
 70
     0
  9
$DIMCLRE
 70
     0
  9
$DIMCLRT
 70
     1
  9
$DIMTFAC
 40
0.5
  9
$DIMGAP
 40
1.5
  9
$LUNITS
 70
     2
  9
$LUPREC
 70
     2
  9
$SKETCHINC
 40
1.0
  9
$FILLETRAD
 40
0.0
  9
$AUNITS
 70
     0
  9
$AUPREC
 70
     0
  9
$MENU
  1
ACAD
  9
$ELEVATION
 40
0.0
  9
$PELEVATION
 40
0.0
  9
$THICKNESS
 40
0.0
  9
$LIMCHECK
 70
     0
  9
$BLIPMODE
 70
     0
  9
$CHAMFERA
 40
0.0
  9
$CHAMFERB
 40
0.0
  9
$SKPOLY
 70
     0
  9
$TDCREATE
 40
2455397.8646990740671754
  9
$TDUPDATE
 40
2459220.4476620368659496
  9
$TDINDWG
 40
0.1783721296
  9
$TDUSRTIMER
 40
0.1783721296
  9
$USRTIMER
 70
     1
  9
$ANGBASE
 50
0.0
  9
$ANGDIR
 70
     0
  9
$PDMODE
 70
     0
  9
$PDSIZE
 40
0.0
  9
$PLINEWID
 40
0.0
  9
$COORDS
 70
     1
  9
$SPLFRAME
 70
     0
  9
$SPLINETYPE
 70
     6
  9
$SPLINESEGS
 70
     8
  9
$ATTDIA
 70
     1
  9
$ATTREQ
 70
     1
  9
$HANDLING
 70
     1
  9
$HANDSEED
  5
18BB
  9
$SURFTAB1
 70
     6
  9
$SURFTAB2
 70
     6
  9
$SURFTYPE
 70
     6
  9
$SURFU
 70
     6
  9
$SURFV
 70
     6
  9
$UCSNAME
  2

  9
$UCSORG
 10
0.0
 20
0.0
 30
0.0
  9
$UCSXDIR
 10
1.0
 20
0.0
 30
0.0
  9
$UCSYDIR
 10
0.0
 20
1.0
 30
0.0
  9
$PUCSNAME
  2

  9
$PUCSORG
 10
0.0
 20
0.0
 30
0.0
  9
$PUCSXDIR
 10
1.0
 20
0.0
 30
0.0
  9
$PUCSYDIR
 10
0.0
 20
1.0
 30
0.0
  9
$USERI1
 70
     0
  9
$USERI2
 70
     0
  9
$USERI3
 70
     0
  9
$USERI4
 70
     0
  9
$USERI5
 70
     0
  9
$USERR1
 40
0.0
  9
$USERR2
 40
0.0
  9
$USERR3
 40
0.0
  9
$USERR4
 40
0.0
  9
$USERR5
 40
0.0
  9
$WORLDVIEW
 70
     1
  9
$SHADEDGE
 70
     3
  9
$SHADEDIF
 70
    70
  9
$TILEMODE
 70
     1
  9
$MAXACTVP
 70
    16
  9
$PLIMCHECK
 70
     0
  9
$PEXTMIN
 10
1.0000000000000000E+20
 20
1.0000000000000000E+20
 30
1.0000000000000000E+20
  9
$PEXTMAX
 10
-1.0000000000000000E+20
 20
-1.0000000000000000E+20
 30
-1.0000000000000000E+20
  9
$PLIMMIN
 10
0.0594212950829771
 20
1.671810792839018
  9
$PLIMMAX
 10
210.0594212950830126
 20
298.6718107928389827
  9
$UNITMODE
 70
     0
  9
$VISRETAIN
 70
     0
  9
$PLINEGEN
 70
     0
  9
$PSLTSCALE
 70
     0
  0
ENDSEC
  0
SECTION
  2
TABLES
  0
TABLE
  2
VPORT
 70
     1
  0
VPORT
  2
*ACTIVE
 70
     0
 10
0.0
 20
0.0
 11
1.0
 21
1.0
 12
0.4034243225494408
 22
-42.0648297543492902
 13
0.0
 23
0.0
 14
1.0
 24
1.0
 15
10.0
 25
10.0
 16
-0.0000000000000568
 26
0.0
 36
280.1504500374063014
 17
240.0084724481500018
 27
170.6388951899031952
 37
-6.23566883083262
 40
177.3941156726039878
 41
1.7852028639618129
 42
50.0
 43
0.0
 44
0.0
 50
0.0
 51
0.0
 71
     0
 72
  1500
 73
     1
 74
     0
 75
     0
 76
     0
 77
     0
 78
     0
  0
ENDTAB
  0
TABLE
  2
LTYPE
 70
     6
  0
LTYPE
  2
CONTINUOUS
 70
     0
  3
Solid line
 72
    65
 73
     0
 40
0.0
  0
LTYPE
  2
PHANTOM2
 70
     0
  3
Phantom (.5x) ___ _ _ ___ _ _ ___ _ _ ___ _ _
 72
    65
 73
     6
 40
1.25
 49
0.625
 49
-0.125
 49
0.125
 49
-0.125
 49
0.125
 49
-0.125
  0
LTYPE
  2
VERDECKT
 70
     0
  3
Verdeckt __ __ __ __ __ __ __ __ __ __ __ __ __
 72
    65
 73
     2
 40
0.375
 49
0.25
 49
-0.125
  0
ENDTAB
  0
TABLE
  2
LAYER
 70
    14
  0
LAYER
  2
0
 70
     0
 62
     7
  6
CONTINUOUS
  0
LAYER
  2
VOLL
 70
     0
 62
     1
  6
CONTINUOUS
  0
LAYER
  2
STEMPEL
 70
     0
 62
     3
  6
CONTINUOUS
  0
LAYER
  2
DEFPOINTS
 70
     0
 62
     7
  6
CONTINUOUS
  0
LAYER
  2
ADSK_ASSOC_ENTITY_BACKUPS
 70
     1
 62
    -7
  6
CONTINUOUS
  0
ENDTAB
  0
TABLE
  2
STYLE
 70
     4
  0
STYLE
  2
STANDARD
 70
     0
 40
0.0
 41
0.8
 50
0.0
 71
     0
 42
3.5
  3
simplex.shx
  4

  0
STYLE
  2
GREEKS
 70
     0
 40
0.0
 41
0.8
 50
0.0
 71
     0
 42
2.5
  3
SIMPLEX.shx
  4

  0
ENDTAB
  0
TABLE
  2
VIEW
 70
     1
  0
ENDTAB
  0
TABLE
  2
UCS
 70
     0
  0
ENDTAB
  0
TABLE
  2
APPID
 70
    17
  0
APPID
  2
ACAD
 70
     0
  0
APPID
  2
ACAD_NAV_VCDISPLAY
 70
     0
  0
APPID
  2
ACAD_MLEADERVER
 70
     0
  0
APPID
  2
ACAD_EXEMPT_FROM_CAD_STANDARDS
 70
     0
  0
APPID
  2
ACAD_PSEXT
 70
     0
  0
APPID
  2
ACAECLAYERSTANDARD
 70
     0
  0
APPID
  2
ACAUTHENVIRON
 70
     0
  0
APPID
  2
ACCMTRANSPARENCY
 70
     0
  0
APPID
  2
ACSYNERGY
 70
     0
  0
APPID
  2
SYNERGY_BODY_TBR_ID
 70
     0
  0
APPID
  2
ACAD_VIEW_EDGE_ID
 70
     0
  0
APPID
  2
ACSYNERGYSKETCH
 70
     0
  0
APPID
  2
ACAD_MODELDOC_XFORM
 70
     0
  0
APPID
  2
ACAD_STEPID
 70
     0
  0
APPID
  2
ACADANNOMONITORALERTICONDI
 70
     0
  0
APPID
  2
ACADANNOTATIVE
 70
     0
  0
APPID
  2
AcDbAttr
 70
     0
  0
ENDTAB
  0
TABLE
  2
DIMSTYLE
 70
     2
  0
DIMSTYLE
  2
STANDARD
 70
     0
  3

  4

  5

  6

  7

 40
1.0
 41
0.18
 42
0.0625
 43
0.38
 44
0.18
 45
0.0
 46
0.0
 47
0.0
 48
0.0
140
0.18
141
0.09
142
0.0
143
25.3999999999999986
144
1.0
145
0.0
146
1.0
147
0.09
 71
     0
 72
     0
 73
     1
 74
     1
 75
     0
 76
     0
 77
     0
 78
     0
170
     0
171
     2
172
     0
173
     0
174
     0
175
     0
176
     0
177
     0
178
     0
  0
ENDTAB
  0
ENDSEC
  0
SECTION
  2
BLOCKS
  0
BLOCK
  8
0
  2
$MODEL_SPACE
 70
     0
 10
0.0
 20
0.0
 30
0.0
  3
$MODEL_SPACE
  1

  0
ENDBLK
  5
36
  8
0
  0
BLOCK
 67
     1
  8
0
  2
$PAPER_SPACE
 70
     0
 10
0.0
 20
0.0
 30
0.0
  3
$PAPER_SPACE
  1

  0
ENDBLK
  5
34
 67
     1
  8
0
  0
BLOCK
  8
0
  2
*S4
 70
     1
 10
0.0
 20
0.0
 30
0.0
  3
*S4
  1

  0
ENDBLK
  5
C64
  8
0
  0
BLOCK
  8
0
  2
A$CCDCB807C
 70
     0
 10
0.0
 20
0.0
 30
0.0
  3
A$CCDCB807C
  1

  0
CIRCLE
  5
17E6
  8
0
 10
160.8809767400802002
 20
170.488622919298308
 30
0.0000000000000426
 40
28.2520182922507388
  0
CIRCLE
  5
17E7
  8
0
 10
160.8809767400802002
 20
170.488622919298308
 30
0.0000000000000426
 40
28.0000000000000213
  0
CIRCLE
  5
17E8
  8
0
 10
160.8809767400803139
 20
170.488622919298308
 30
0.0000000000000422
 40
24.9999999999997016
  0
CIRCLE
  5
17E9
  8
0
 10
160.8809767400802002
 20
170.488622919298308
 30
0.0000000000000426
 40
31.4999999999999503
  0
CIRCLE
  5
17EA
  8
0
 10
160.8809767400802002
 20
170.488622919298308
 30
0.0000000000000426
 40
29.6063531499383998
  0
CIRCLE
  5
17EB
  8
0
 10
160.8809767400803139
 20
170.488622919298308
 30
0.0000000000000426
 40
22.4000000000001513
  0
CIRCLE
  5
17EC
  8
0
 10
160.8809767400803139
 20
170.488622919298308
 30
0.0000000000000426
 40
22.8999999999989292
  0
CIRCLE
  5
17ED
  8
0
  6
VERDECKT
 62
     1
 10
160.8809767400802002
 20
170.488622919298308
 30
0.0000000000000426
 40
29.9999999999998899
  0
CIRCLE
  5
17EE
  8
0
  6
VERDECKT
 62
     1
 10
160.8809767400803139
 20
170.488622919298308
 30
0.0000000000000422
 40
26.4999999999999289
  0
CIRCLE
  5
17EF
  8
0
  6
VERDECKT
 62
     1
 10
160.8809767400802002
 20
170.488622919298308
 30
0.0000000000000426
 40
29.4999999999999716
  0
CIRCLE
  5
17F0
  8
0
  6
VERDECKT
 62
     1
 10
160.8809767400803139
 20
170.488622919298308
 30
0.0000000000000426
 40
23.9000000000001798
  0
CIRCLE
  5
17F1
  8
0
  6
VERDECKT
 62
     1
 10
160.8809767400803139
 20
170.488622919298308
 30
0.0000000000000426
 40
27.25
  0
ENDBLK
  5
17F3
  8
0
  0
BLOCK
  8
0
  2
A$CB482B5F6
 70
     0
 10
0.0
 20
0.0
 30
0.0
  3
A$CB482B5F6
  1

  0
LINE
  5
17F7
  8
0
 10
190.4873298900186001
 20
46.0024264878487372
 30
-0.0000000000000102
 11
131.2746235901418004
 21
46.0024264878487372
 31
-0.0000000000000102
210
0.0
220
1.0
230
-0.0000000000000002
  0
LINE
  5
17F8
  8
0
 10
134.3809767400803139
 20
-11.0024264878488207
 30
0.0000000000000024
 11
134.3809767400803139
 21
2.8750996481954592
 31
-0.0000000000000006
210
0.0
220
1.0
230
-0.0000000000000002
  0
LINE
  5
17F9
  8
0
 10
187.3809767400803139
 20
-11.0024264878487692
 30
0.0000000000000024
 11
187.3809767400803139
 21
2.8750996481955138
 31
-0.0000000000000006
210
0.0
220
1.0
230
-0.0000000000000002
  0
ARC
  5
17FA
  8
0
 10
-195.3809767400794044
 20
2.8750996481955591
 30
0.0
 40
7.999999999999118
210
0.0
220
-0.0000000000000002
230
-1.0
 50
359.9999999999997158
 51
31.788330617055589
  0
ARC
  5
17FB
  8
0
 10
-126.3809767400814934
 20
2.8750996481955542
 30
0.0
 40
7.9999999999988471
210
0.0
220
-0.0000000000000002
230
-1.0
 50
148.2116693829435121
 51
180.0000000000005969
  0
ARC
  5
17FC
  8
0
 10
-178.3809767400844919
 20
13.4107534010468399
 30
0.0
 40
11.9999999999957598
210
0.0
220
-0.0000000000000002
230
-1.0
 50
179.9999999999951967
 51
211.788330617055891
  0
ARC
  5
17FD
  8
0
 10
-143.3809767400759938
 20
13.4107534010467901
 30
0.0
 40
11.9999999999957101
210
0.0
220
-0.0000000000000002
230
-1.0
 50
328.2116693829440237
 51
0.0000000000046677
  0
LINE
  5
17FE
  8
0
 10
131.3809767400802002
 20
13.4107534010477707
 30
-0.000000000000003
 11
131.3809767400802002
 21
24.5024264878521905
 31
-0.0000000000000054
210
0.0
220
1.0
230
-0.0000000000000002
  0
LINE
  5
17FF
  8
0
 10
190.3809767400802002
 20
13.4107534010478293
 30
-0.000000000000003
 11
190.3809767400802002
 21
24.5024264878522402
 31
-0.0000000000000054
210
0.0
220
1.0
230
-0.0000000000000002
  0
ARC
  5
1800
  8
0
 10
-200.3809767400815929
 20
24.5024264878522295
 30
0.0
 40
10.0000000000013092
210
0.0
220
-0.0000000000000002
230
-1.0
 50
0.0000000000000382
 51
19.4630994446869892
  0
ARC
  5
1801
  8
0
 10
-121.3809767400790065
 20
24.5024264878521798
 30
0.0
 40
10.0000000000012204
210
0.0
220
-0.0000000000000002
230
-1.0
 50
160.5369005553129114
 51
180.0
  0
ARC
  5
1802
  8
0
 10
-167.3809767400788076
 20
36.1644264878527082
 30
0.0
 40
25.0000320571295696
210
0.0
220
-0.0000000000000002
230
-1.0
 50
180.0917549917874112
 51
199.463099444688396
  0
ARC
  5
1803
  8
0
 10
-154.3809767400817066
 20
36.1644264878526513
 30
0.0
 40
25.0000320571295909
210
0.0
220
-0.0000000000000002
230
-1.0
 50
340.5369005553114903
 51
359.9082450082124751
  0
LINE
  5
1804
  8
0
 10
129.3809767400803139
 20
36.124390785832091
 30
-0.000000000000008
 11
129.3809767400803139
 21
37.6199251451919423
 31
-0.0000000000000084
210
0.0
220
1.0
230
-0.0000000000000002
  0
LINE
  5
1805
  8
0
 10
192.3809767400802002
 20
36.1243907858321407
 30
-0.000000000000008
 11
192.3809767400802002
 21
37.619925145191992
 31
-0.0000000000000084
210
0.0
220
1.0
230
-0.0000000000000002
  0
ARC
  5
1806
  8
0
 10
-172.880976740086993
 20
37.6199251451934416
 30
0.0
 40
19.4999999999930083
210
0.0
220
-0.0000000000000002
230
-1.0
 50
154.5405714311885959
 51
180.0000000000042064
  0
ARC
  5
1807
  8
0
 10
-148.8809767400730095
 20
37.6199251451935694
 30
0.0
 40
19.4999999999924398
210
0.0
220
-0.0000000000000002
230
-1.0
 50
359.9999999999952252
 51
25.4594285688115392
  0
LINE
  5
1808
  8
0
 10
133.6309767400803139
 20
-46.0024264878486235
 30
0.0000000000000102
 11
188.1309767400803139
 21
-46.0024264878486235
 31
0.0000000000000102
210
0.0
220
1.0
230
-0.0000000000000002
  0
LINE
  5
1809
  8
0
 10
133.6309767400803139
 20
-11.0024264878487905
 30
0.0000000000000024
 11
188.1309767400803139
 21
-11.0024264878487905
 31
0.0000000000000024
210
0.0
220
1.0
230
-0.0000000000000002
  0
LINE
  5
180A
  8
0
 10
188.1309767400803139
 20
-11.0024264878487905
 30
0.0000000000000024
 11
188.1309767400803139
 21
-46.0024264878486235
 31
0.0000000000000102
210
0.0
220
1.0
230
-0.0000000000000002
  0
LINE
  5
180B
  8
0
 10
133.6309767400803139
 20
-11.0024264878487905
 30
0.0000000000000024
 11
133.6309767400803139
 21
-46.0024264878486235
 31
0.0000000000000102
210
0.0
220
1.0
230
-0.0000000000000002
  0
LINE
  5
180C
  8
0
  6
VERDECKT
 62
     1
 10
189.1329950323309959
 20
45.3576186922598481
 30
-0.0000000000000101
 11
132.6289584478294898
 21
45.3576186922597984
 31
-0.0000000000000101
210
0.0
220
1.0
230
-0.0000000000000002
  0
ARC
  5
180D
  8
0
  6
VERDECKT
 62
     1
 10
-172.8809767400809108
 20
37.6199251451923615
 30
0.0
 40
17.999999999999261
210
0.0
220
-0.0000000000000002
230
-1.0
 50
154.5405714311932002
 51
180.000000000002899
  0
ARC
  5
180E
  8
0
  6
VERDECKT
 62
     1
 10
-148.8809767400796034
 20
37.6199251451923189
 30
0.0
 40
17.999999999999261
210
0.0
220
-0.0000000000000002
230
-1.0
 50
359.9999999999968736
 51
25.4594285688067217
  0
LINE
  5
180F
  8
0
  6
VERDECKT
 62
     1
 10
130.8809767400803139
 20
36.1256104337798121
 30
-0.000000000000008
 11
130.8809767400803139
 21
37.6199251451913668
 31
-0.0000000000000084
210
0.0
220
1.0
230
-0.0000000000000002
  0
LINE
  5
1810
  8
0
  6
VERDECKT
 62
     1
 10
190.8809767400800865
 20
36.1256104337798618
 30
-0.000000000000008
 11
190.8809767400800865
 21
37.6199251451914307
 31
-0.0000000000000084
210
0.0
220
1.0
230
-0.0000000000000002
  0
ARC
  5
1811
  8
0
  6
VERDECKT
 62
     1
 10
-167.3809767400879878
 20
36.1644264878494468
 30
0.0
 40
23.5000320571199097
210
0.0
220
-0.0000000000000002
230
-1.0
 50
180.0946380448079935
 51
199.4630994446885097
  0
ARC
  5
1812
  8
0
  6
VERDECKT
 62
     1
 10
-154.3809767400713895
 20
36.1644264878492905
 30
0.0
 40
23.5000320571188617
210
0.0
220
-0.0000000000000002
230
-1.0
 50
340.5369005553108082
 51
359.9053619551921201
  0
ARC
  5
1813
  8
0
  6
VERDECKT
 62
     1
 10
-200.380976740081195
 20
24.5024264878521407
 30
0.0
 40
11.5000000000008793
210
0.0
220
-0.0000000000000002
230
-1.0
 50
359.9999999999994884
 51
19.4630994446882006
  0
ARC
  5
1814
  8
0
  6
VERDECKT
 62
     1
 10
-121.3809767400793049
 20
24.5024264878520803
 30
0.0
 40
11.5000000000008598
210
0.0
220
-0.0000000000000002
230
-1.0
 50
160.5369005553118029
 51
180.0000000000003979
  0
LINE
  5
1815
  8
0
  6
VERDECKT
 62
     1
 10
132.8809767400802002
 20
13.4107534010480602
 30
-0.000000000000003
 11
132.8809767400802002
 21
24.5024264878519915
 31
-0.0000000000000054
210
0.0
220
1.0
230
-0.0000000000000002
  0
LINE
  5
1816
  8
0
  6
VERDECKT
 62
     1
 10
188.8809767400802002
 20
13.41075340104811
 30
-0.000000000000003
 11
188.8809767400802002
 21
24.5024264878520412
 31
-0.0000000000000054
210
0.0
220
1.0
230
-0.0000000000000002
  0
ARC
  5
1817
  8
0
  6
VERDECKT
 62
     1
 10
-178.3809767400744022
 20
13.4107534010498508
 30
0.0
 40
10.5000000000058193
210
0.0
220
-0.0000000000000002
230
-1.0
 50
180.0000000000094076
 51
211.7883306170427034
  0
ARC
  5
1818
  8
0
  6
VERDECKT
 62
     1
 10
-143.3809767400861119
 20
13.4107534010497904
 30
0.0
 40
10.5000000000057696
210
0.0
220
-0.0000000000000002
230
-1.0
 50
328.2116693829572114
 51
359.9999999999905071
  0
ARC
  5
1819
  8
0
  6
VERDECKT
 62
     1
 10
-195.3809767400869077
 20
2.8750996481931019
 30
0.0
 40
9.5000000000069065
210
0.0
220
-0.0000000000000002
230
-1.0
 50
359.9999999999988063
 51
31.7883306170421918
  0
ARC
  5
181A
  8
0
  6
VERDECKT
 62
     1
 10
-126.3809767400740043
 20
2.8750996481931081
 30
0.0
 40
9.5000000000066223
210
0.0
220
-0.0000000000000002
230
-1.0
 50
148.2116693829570124
 51
180.0000000000015064
  0
LINE
  5
181B
  8
0
  6
VERDECKT
 62
     1
 10
135.8809767400803992
 20
-11.0024264878488207
 30
0.0000000000000024
 11
135.8809767400803992
 21
2.8750996481928439
 31
-0.0000000000000006
210
0.0
220
1.0
230
-0.0000000000000002
  0
LINE
  5
181C
  8
0
  6
VERDECKT
 62
     1
 10
185.8809767400802002
 20
-11.0024264878487692
 30
0.0000000000000024
 11
185.8809767400802002
 21
2.8750996481928972
 31
-0.0000000000000006
210
0.0
220
1.0
230
-0.0000000000000002
  0
LINE
  5
181D
  8
0
  6
VERDECKT
 62
     1
 10
132.6289584478294898
 20
45.3576186922597984
 30
-0.0000000000000101
 11
131.2746235901418004
 21
46.0024264878487372
 31
-0.0000000000000102
210
0.0
220
1.0
230
-0.0000000000000002
  0
LINE
  5
181E
  8
0
  6
VERDECKT
 62
     1
 10
189.1329950323309959
 20
45.3576186922598481
 30
-0.0000000000000101
 11
190.4873298900186001
 21
46.0024264878488012
 31
-0.0000000000000102
210
0.0
220
1.0
230
-0.0000000000000002
  0
LINE
  5
181F
  8
0
  6
VERDECKT
 62
     1
 10
138.4809767400803082
 20
-44.5024264878486306
 30
0.0000000000000099
 11
183.2809767400802912
 21
-44.5024264878486306
 31
0.0000000000000099
210
0.0
220
1.0
230
-0.0000000000000002
  0
LINE
  5
1820
  8
0
  6
VERDECKT
 62
     1
 10
136.9809767400803082
 20
-43.0024264878486306
 30
0.0000000000000095
 11
184.7809767400802912
 21
-43.0024264878486306
 31
0.0000000000000095
210
0.0
220
1.0
230
-0.0000000000000002
  0
LINE
  5
1821
  8
0
  6
VERDECKT
 62
     1
 10
138.4809767400803082
 20
-41.502426487848453
 30
0.0000000000000092
 11
183.2809767400802912
 21
-41.502426487848453
 31
0.0000000000000092
210
0.0
220
1.0
230
-0.0000000000000002
  0
LINE
  5
1822
  8
0
  6
VERDECKT
 62
     1
 10
136.9809767400801945
 20
-40.0024264878484388
 30
0.0000000000000089
 11
184.7809767400802912
 21
-40.0024264878484388
 31
0.0000000000000089
210
0.0
220
1.0
230
-0.0000000000000002
  0
LINE
  5
1823
  8
0
  6
VERDECKT
 62
     1
 10
138.4809767400803082
 20
-38.5024264878482825
 30
0.0000000000000085
 11
183.2809767400802912
 21
-38.5024264878482825
 31
0.0000000000000085
210
0.0
220
1.0
230
-0.0000000000000002
  0
LINE
  5
1824
  8
0
  6
VERDECKT
 62
     1
 10
136.9809767400803082
 20
-37.002426487848453
 30
0.0000000000000082
 11
184.7809767400802912
 21
-37.002426487848453
 31
0.0000000000000082
210
0.0
220
1.0
230
-0.0000000000000002
  0
LINE
  5
1825
  8
0
  6
VERDECKT
 62
     1
 10
138.4809767400803082
 20
-35.5024264878482683
 30
0.0000000000000079
 11
183.2809767400802912
 21
-35.5024264878482683
 31
0.0000000000000079
210
0.0
220
1.0
230
-0.0000000000000002
  0
LINE
  5
1826
  8
0
  6
VERDECKT
 62
     1
 10
136.9809767400803082
 20
-34.0024264878482825
 30
0.0000000000000076
 11
184.7809767400802912
 21
-34.0024264878482825
 31
0.0000000000000076
210
0.0
220
1.0
230
-0.0000000000000002
  0
LINE
  5
1827
  8
0
  6
VERDECKT
 62
     1
 10
138.4809767400803082
 20
-32.5024264878480906
 30
0.0000000000000072
 11
183.2809767400802912
 21
-32.5024264878480906
 31
0.0000000000000072
210
0.0
220
1.0
230
-0.0000000000000002
  0
LINE
  5
1828
  8
0
  6
VERDECKT
 62
     1
 10
136.9809767400803082
 20
-31.0024264878482612
 30
0.0000000000000069
 11
184.7809767400802912
 21
-31.0024264878482612
 31
0.0000000000000069
210
0.0
220
1.0
230
-0.0000000000000002
  0
LINE
  5
1829
  8
0
  6
VERDECKT
 62
     1
 10
138.4809767400803082
 20
-29.5024264878480906
 30
0.0000000000000066
 11
183.2809767400802912
 21
-29.5024264878480906
 31
0.0000000000000066
210
0.0
220
1.0
230
-0.0000000000000002
  0
LINE
  5
182A
  8
0
  6
VERDECKT
 62
     1
 10
136.9809767400801093
 20
-28.0024264878482612
 30
0.0000000000000062
 11
184.7809767400804901
 21
-28.0024264878482612
 31
0.0000000000000062
210
0.0
220
1.0
230
-0.0000000000000002
  0
LINE
  5
182B
  8
0
  6
VERDECKT
 62
     1
 10
138.4809767400801093
 20
-26.5024264878480906
 30
0.0000000000000059
 11
183.2809767400804049
 21
-26.5024264878480906
 31
0.0000000000000059
210
0.0
220
1.0
230
-0.0000000000000002
  0
LINE
  5
182C
  8
0
  6
VERDECKT
 62
     1
 10
136.9809767400801093
 20
-25.0024264878480906
 30
0.0000000000000056
 11
184.7809767400804901
 21
-25.0024264878480906
 31
0.0000000000000056
210
0.0
220
1.0
230
-0.0000000000000002
  0
LINE
  5
182D
  8
0
  6
VERDECKT
 62
     1
 10
138.4809767400801093
 20
-23.5024264878479201
 30
0.0000000000000052
 11
183.2809767400804049
 21
-23.5024264878479201
 31
0.0000000000000052
210
0.0
220
1.0
230
-0.0000000000000002
  0
LINE
  5
182E
  8
0
  6
VERDECKT
 62
     1
 10
136.9809767400801093
 20
-22.0024264878479201
 30
0.0000000000000049
 11
184.7809767400804901
 21
-22.0024264878479201
 31
0.0000000000000049
210
0.0
220
1.0
230
-0.0000000000000002
  0
LINE
  5
182F
  8
0
  6
VERDECKT
 62
     1
 10
138.4809767400801093
 20
-20.5024264878477496
 30
0.0000000000000046
 11
183.2809767400804901
 21
-20.5024264878477496
 31
0.0000000000000046
210
0.0
220
1.0
230
-0.0000000000000002
  0
LINE
  5
1830
  8
0
  6
VERDECKT
 62
     1
 10
136.9809767400801093
 20
-19.0024264878479094
 30
0.0000000000000042
 11
184.7809767400804901
 21
-19.0024264878479094
 31
0.0000000000000042
210
0.0
220
1.0
230
-0.0000000000000002
  0
LINE
  5
1831
  8
0
  6
VERDECKT
 62
     1
 10
138.4809767400801093
 20
-17.5024264878477389
 30
0.0000000000000039
 11
183.2809767400804049
 21
-17.5024264878477389
 31
0.0000000000000039
210
0.0
220
1.0
230
-0.0000000000000002
  0
LINE
  5
1832
  8
0
  6
VERDECKT
 62
     1
 10
136.9809767400801093
 20
-16.0024264878477389
 30
0.0000000000000036
 11
184.7809767400804901
 21
-16.0024264878477389
 31
0.0000000000000036
210
0.0
220
1.0
230
-0.0000000000000002
  0
LINE
  5
1833
  8
0
  6
VERDECKT
 62
     1
 10
138.4809767400801093
 20
-14.5024264878475506
 30
0.0000000000000032
 11
183.2809767400804049
 21
-14.5024264878475506
 31
0.0000000000000032
210
0.0
220
1.0
230
-0.0000000000000002
  0
LINE
  5
1834
  8
0
  6
VERDECKT
 62
     1
 10
136.9809767400801093
 20
-13.0024264878477194
 30
0.0000000000000029
 11
184.7809767400804901
 21
-13.0024264878477194
 31
0.0000000000000029
210
0.0
220
1.0
230
-0.0000000000000002
  0
LINE
  5
1835
  8
0
  6
VERDECKT
 62
     1
 10
138.4809767400801093
 20
-11.50242648784754
 30
0.0000000000000026
 11
183.2809767400804049
 21
-11.50242648784754
 31
0.0000000000000026
210
0.0
220
1.0
230
-0.0000000000000002
  0
LINE
  5
1836
  8
0
  6
VERDECKT
 62
     1
 10
183.2809767400802912
 20
-44.5024264878486377
 30
0.0000000000000099
 11
184.7809767400802912
 21
-46.0024264878488012
 31
0.0000000000000102
210
0.0
220
1.0
230
-0.0000000000000002
  0
LINE
  5
1837
  8
0
  6
VERDECKT
 62
     1
 10
138.4809767400803082
 20
-44.5024264878486377
 30
0.0000000000000099
 11
136.9809767400803082
 21
-46.0024264878488012
 31
0.0000000000000102
210
0.0
220
1.0
230
-0.0000000000000002
  0
LINE
  5
1838
  8
0
  6
VERDECKT
 62
     1
 10
138.4809767400803082
 20
-44.5024264878486235
 30
0.0000000000000099
 11
136.9809767400803082
 21
-43.0024264878486235
 31
0.0000000000000095
210
0.0
220
1.0
230
-0.0000000000000002
  0
LINE
  5
1839
  8
0
  6
VERDECKT
 62
     1
 10
183.2809767400802912
 20
-44.5024264878486235
 30
0.0000000000000099
 11
184.7809767400802912
 21
-43.0024264878486235
 31
0.0000000000000095
210
0.0
220
1.0
230
-0.0000000000000002
  0
LINE
  5
183A
  8
0
  6
VERDECKT
 62
     1
 10
183.2809767400802912
 20
-41.5024264878484601
 30
0.0000000000000092
 11
184.7809767400802912
 21
-43.0024264878486306
 31
0.0000000000000095
210
0.0
220
1.0
230
-0.0000000000000002
  0
LINE
  5
183B
  8
0
  6
VERDECKT
 62
     1
 10
138.4809767400803082
 20
-41.5024264878484601
 30
0.0000000000000092
 11
136.9809767400803082
 21
-43.0024264878486306
 31
0.0000000000000095
210
0.0
220
1.0
230
-0.0000000000000002
  0
LINE
  5
183C
  8
0
  6
VERDECKT
 62
     1
 10
138.4809767400803082
 20
-41.502426487848453
 30
0.0000000000000092
 11
136.9809767400801945
 21
-40.002426487848453
 31
0.0000000000000089
210
0.0
220
1.0
230
-0.0000000000000002
  0
LINE
  5
183D
  8
0
  6
VERDECKT
 62
     1
 10
183.2809767400802912
 20
-41.502426487848453
 30
0.0000000000000092
 11
184.7809767400802912
 21
-40.002426487848453
 31
0.0000000000000089
210
0.0
220
1.0
230
-0.0000000000000002
  0
LINE
  5
183E
  8
0
  6
VERDECKT
 62
     1
 10
183.2809767400802912
 20
-38.5024264878482683
 30
0.0000000000000085
 11
184.7809767400802912
 21
-40.0024264878484317
 31
0.0000000000000089
210
0.0
220
1.0
230
-0.0000000000000002
  0
LINE
  5
183F
  8
0
  6
VERDECKT
 62
     1
 10
138.4809767400803082
 20
-38.5024264878482683
 30
0.0000000000000085
 11
136.9809767400801945
 21
-40.0024264878484317
 31
0.0000000000000089
210
0.0
220
1.0
230
-0.0000000000000002
  0
LINE
  5
1840
  8
0
  6
VERDECKT
 62
     1
 10
138.4809767400803082
 20
-38.5024264878482825
 30
0.0000000000000085
 11
136.9809767400803082
 21
-37.002426487848453
 31
0.0000000000000082
210
0.0
220
1.0
230
-0.0000000000000002
  0
LINE
  5
1841
  8
0
  6
VERDECKT
 62
     1
 10
183.2809767400802912
 20
-38.5024264878482825
 30
0.0000000000000085
 11
184.7809767400802912
 21
-37.002426487848453
 31
0.0000000000000082
210
0.0
220
1.0
230
-0.0000000000000002
  0
LINE
  5
1842
  8
0
  6
VERDECKT
 62
     1
 10
183.2809767400802912
 20
-35.5024264878482825
 30
0.0000000000000079
 11
184.7809767400802912
 21
-37.0024264878484601
 31
0.0000000000000082
210
0.0
220
1.0
230
-0.0000000000000002
  0
LINE
  5
1843
  8
0
  6
VERDECKT
 62
     1
 10
138.4809767400803082
 20
-35.5024264878482825
 30
0.0000000000000079
 11
136.9809767400803082
 21
-37.0024264878484601
 31
0.0000000000000082
210
0.0
220
1.0
230
-0.0000000000000002
  0
LINE
  5
1844
  8
0
  6
VERDECKT
 62
     1
 10
138.4809767400803082
 20
-35.5024264878482683
 30
0.0000000000000079
 11
136.9809767400803082
 21
-34.0024264878482683
 31
0.0000000000000076
210
0.0
220
1.0
230
-0.0000000000000002
  0
LINE
  5
1845
  8
0
  6
VERDECKT
 62
     1
 10
183.2809767400802912
 20
-35.5024264878482683
 30
0.0000000000000079
 11
184.7809767400802912
 21
-34.0024264878482683
 31
0.0000000000000076
210
0.0
220
1.0
230
-0.0000000000000002
  0
LINE
  5
1846
  8
0
  6
VERDECKT
 62
     1
 10
183.2809767400802912
 20
-32.5024264878480906
 30
0.0000000000000072
 11
184.7809767400802912
 21
-34.0024264878482825
 31
0.0000000000000076
210
0.0
220
1.0
230
-0.0000000000000002
  0
LINE
  5
1847
  8
0
  6
VERDECKT
 62
     1
 10
138.4809767400803082
 20
-32.5024264878480906
 30
0.0000000000000072
 11
136.9809767400803082
 21
-34.0024264878482825
 31
0.0000000000000076
210
0.0
220
1.0
230
-0.0000000000000002
  0
LINE
  5
1848
  8
0
  6
VERDECKT
 62
     1
 10
138.4809767400803082
 20
-32.5024264878480906
 30
0.0000000000000072
 11
136.9809767400803082
 21
-31.0024264878482612
 31
0.0000000000000069
210
0.0
220
1.0
230
-0.0000000000000002
  0
LINE
  5
1849
  8
0
  6
VERDECKT
 62
     1
 10
183.2809767400802912
 20
-32.5024264878480906
 30
0.0000000000000072
 11
184.7809767400802912
 21
-31.0024264878482612
 31
0.0000000000000069
210
0.0
220
1.0
230
-0.0000000000000002
  0
LINE
  5
184A
  8
0
  6
VERDECKT
 62
     1
 10
183.2809767400802912
 20
-29.5024264878481013
 30
0.0000000000000066
 11
184.7809767400802912
 21
-31.0024264878482683
 31
0.0000000000000069
210
0.0
220
1.0
230
-0.0000000000000002
  0
LINE
  5
184B
  8
0
  6
VERDECKT
 62
     1
 10
138.4809767400803082
 20
-29.5024264878481013
 30
0.0000000000000066
 11
136.9809767400803082
 21
-31.0024264878482683
 31
0.0000000000000069
210
0.0
220
1.0
230
-0.0000000000000002
  0
LINE
  5
184C
  8
0
  6
VERDECKT
 62
     1
 10
138.4809767400803082
 20
-29.5024264878481013
 30
0.0000000000000066
 11
136.9809767400801093
 21
-28.0024264878482683
 31
0.0000000000000062
210
0.0
220
1.0
230
-0.0000000000000002
  0
LINE
  5
184D
  8
0
  6
VERDECKT
 62
     1
 10
183.2809767400802912
 20
-29.5024264878481013
 30
0.0000000000000066
 11
184.7809767400804901
 21
-28.0024264878482683
 31
0.0000000000000062
210
0.0
220
1.0
230
-0.0000000000000002
  0
LINE
  5
184E
  8
0
  6
VERDECKT
 62
     1
 10
183.2809767400804049
 20
-26.5024264878481013
 30
0.0000000000000059
 11
184.7809767400804901
 21
-28.0024264878482683
 31
0.0000000000000062
210
0.0
220
1.0
230
-0.0000000000000002
  0
LINE
  5
184F
  8
0
  6
VERDECKT
 62
     1
 10
138.4809767400801093
 20
-26.5024264878481013
 30
0.0000000000000059
 11
136.9809767400801093
 21
-28.0024264878482683
 31
0.0000000000000062
210
0.0
220
1.0
230
-0.0000000000000002
  0
LINE
  5
1850
  8
0
  6
VERDECKT
 62
     1
 10
138.4809767400801093
 20
-26.50242648784808
 30
0.0000000000000059
 11
136.9809767400801093
 21
-25.0024264878480906
 31
0.0000000000000056
210
0.0
220
1.0
230
-0.0000000000000002
  0
LINE
  5
1851
  8
0
  6
VERDECKT
 62
     1
 10
183.2809767400804049
 20
-26.50242648784808
 30
0.0000000000000059
 11
184.7809767400804901
 21
-25.0024264878480906
 31
0.0000000000000056
210
0.0
220
1.0
230
-0.0000000000000002
  0
LINE
  5
1852
  8
0
  6
VERDECKT
 62
     1
 10
183.2809767400804049
 20
-23.5024264878479201
 30
0.0000000000000052
 11
184.7809767400804901
 21
-25.0024264878481013
 31
0.0000000000000056
210
0.0
220
1.0
230
-0.0000000000000002
  0
LINE
  5
1853
  8
0
  6
VERDECKT
 62
     1
 10
138.4809767400801093
 20
-23.5024264878479201
 30
0.0000000000000052
 11
136.9809767400801093
 21
-25.0024264878481013
 31
0.0000000000000056
210
0.0
220
1.0
230
-0.0000000000000002
  0
LINE
  5
1854
  8
0
  6
VERDECKT
 62
     1
 10
138.4809767400801093
 20
-23.5024264878479201
 30
0.0000000000000052
 11
136.9809767400801093
 21
-22.0024264878479201
 31
0.0000000000000049
210
0.0
220
1.0
230
-0.0000000000000002
  0
LINE
  5
1855
  8
0
  6
VERDECKT
 62
     1
 10
183.2809767400804049
 20
-23.5024264878479201
 30
0.0000000000000052
 11
184.7809767400804901
 21
-22.0024264878479201
 31
0.0000000000000049
210
0.0
220
1.0
230
-0.0000000000000002
  0
LINE
  5
1856
  8
0
  6
VERDECKT
 62
     1
 10
183.2809767400804901
 20
-20.5024264878477389
 30
0.0000000000000046
 11
184.7809767400804901
 21
-22.0024264878479094
 31
0.0000000000000049
210
0.0
220
1.0
230
-0.0000000000000002
  0
LINE
  5
1857
  8
0
  6
VERDECKT
 62
     1
 10
138.4809767400801093
 20
-20.5024264878477389
 30
0.0000000000000046
 11
136.9809767400801093
 21
-22.0024264878479094
 31
0.0000000000000049
210
0.0
220
1.0
230
-0.0000000000000002
  0
LINE
  5
1858
  8
0
  6
VERDECKT
 62
     1
 10
138.4809767400801093
 20
-20.5024264878477496
 30
0.0000000000000046
 11
136.9809767400801093
 21
-19.0024264878479094
 31
0.0000000000000042
210
0.0
220
1.0
230
-0.0000000000000002
  0
LINE
  5
1859
  8
0
  6
VERDECKT
 62
     1
 10
183.2809767400804901
 20
-20.5024264878477496
 30
0.0000000000000046
 11
184.7809767400804901
 21
-19.0024264878479094
 31
0.0000000000000042
210
0.0
220
1.0
230
-0.0000000000000002
  0
LINE
  5
185A
  8
0
  6
VERDECKT
 62
     1
 10
183.2809767400804049
 20
-17.5024264878477496
 30
0.0000000000000039
 11
184.7809767400804901
 21
-19.0024264878479201
 31
0.0000000000000042
210
0.0
220
1.0
230
-0.0000000000000002
  0
LINE
  5
185B
  8
0
  6
VERDECKT
 62
     1
 10
138.4809767400801093
 20
-17.5024264878477496
 30
0.0000000000000039
 11
136.9809767400801093
 21
-19.0024264878479201
 31
0.0000000000000042
210
0.0
220
1.0
230
-0.0000000000000002
  0
LINE
  5
185C
  8
0
  6
VERDECKT
 62
     1
 10
138.4809767400801093
 20
-17.5024264878477389
 30
0.0000000000000039
 11
136.9809767400801093
 21
-16.0024264878477389
 31
0.0000000000000036
210
0.0
220
1.0
230
-0.0000000000000002
  0
LINE
  5
185D
  8
0
  6
VERDECKT
 62
     1
 10
183.2809767400804049
 20
-17.5024264878477389
 30
0.0000000000000039
 11
184.7809767400804901
 21
-16.0024264878477389
 31
0.0000000000000036
210
0.0
220
1.0
230
-0.0000000000000002
  0
LINE
  5
185E
  8
0
  6
VERDECKT
 62
     1
 10
183.2809767400804049
 20
-14.5024264878475506
 30
0.0000000000000032
 11
184.7809767400804901
 21
-16.0024264878477389
 31
0.0000000000000036
210
0.0
220
1.0
230
-0.0000000000000002
  0
LINE
  5
185F
  8
0
  6
VERDECKT
 62
     1
 10
138.4809767400801093
 20
-14.5024264878475506
 30
0.0000000000000032
 11
136.9809767400801093
 21
-16.0024264878477389
 31
0.0000000000000036
210
0.0
220
1.0
230
-0.0000000000000002
  0
LINE
  5
1860
  8
0
  6
VERDECKT
 62
     1
 10
138.4809767400801093
 20
-14.50242648784754
 30
0.0000000000000032
 11
136.9809767400801093
 21
-13.0024264878477105
 31
0.0000000000000029
210
0.0
220
1.0
230
-0.0000000000000002
  0
LINE
  5
1861
  8
0
  6
VERDECKT
 62
     1
 10
183.2809767400804049
 20
-14.50242648784754
 30
0.0000000000000032
 11
184.7809767400804901
 21
-13.0024264878477105
 31
0.0000000000000029
210
0.0
220
1.0
230
-0.0000000000000002
  0
LINE
  5
1862
  8
0
  6
VERDECKT
 62
     1
 10
183.2809767400804049
 20
-11.5024264878475506
 30
0.0000000000000026
 11
184.7809767400804901
 21
-13.0024264878477194
 31
0.0000000000000029
210
0.0
220
1.0
230
-0.0000000000000002
  0
LINE
  5
1863
  8
0
  6
VERDECKT
 62
     1
 10
138.4809767400801093
 20
-11.5024264878475506
 30
0.0000000000000026
 11
136.9809767400801093
 21
-13.0024264878477194
 31
0.0000000000000029
210
0.0
220
1.0
230
-0.0000000000000002
  0
LINE
  5
1864
  8
0
  6
VERDECKT
 62
     1
 10
138.4809767400801093
 20
-11.50242648784754
 30
0.0000000000000026
 11
137.9809767400813882
 21
-11.0024264878487905
 31
0.0000000000000024
210
0.0
220
1.0
230
-0.0000000000000002
  0
LINE
  5
1865
  8
0
  6
VERDECKT
 62
     1
 10
183.2809767400804049
 20
-11.50242648784754
 30
0.0000000000000026
 11
183.7809767400792111
 21
-11.0024264878487905
 31
0.0000000000000024
210
0.0
220
1.0
230
-0.0000000000000002
  0
ENDBLK
  5
1867
  8
0
  0
ENDSEC
  0
SECTION
  2
ENTITIES
  0
TEXT
  5
8F
  8
VOLL
 10
78.076754716981128
 20
31.025947764705851
 30
0.0
 40
1.8
  1

  7
GREEKS
  0
INSERT
  5
C66
  8
ADSK_ASSOC_ENTITY_BACKUPS
  2
*S4
 10
0.0
 20
0.0
 30
0.0
  0
INSERT
  5
17F4
  8
STEMPEL
  2
A$CCDCB807C
 10
79.5309200306191997
 20
-98.4818137259425441
 30
-12.4713376616653004
  0
INSERT
  5
1868
  8
STEMPEL
  2
A$CB482B5F6
 10
79.5309200306192139
 20
170.6388951899031952
 30
-12.4713376616652702
  0
VIEWPORT
  5
928
 67
     1
  8
0
 10
105.0594212950829984
 20
150.1718107928390111
 30
0.0
 40
533.9969448798290159
 41
299.1239570917758783
 68
     1
 69
     1
1001
ACAD
1000
MVIEW
1002
{
1070
    16
1010
0.0
1020
0.0
1030
0.0
1010
0.0
1020
0.0
1030
1.0
1040
0.0
1040
299.1239570917758783
1040
105.0594212950829984
1040
150.1718107928390111
1040
50.0
1040
0.0
1040
0.0
1070
     0
1070
  1500
1070
     1
1070
     1
1070
     0
1070
     0
1070
     0
1070
     0
1040
0.0
1040
0.0
1040
0.0
1040
10.0
1040
10.0
1040
10.0
1040
10.0
1070
     0
1002
{
1002
}
1002
}
  0
ENDSEC
  0
EOF
