  0
SECTION
  2
HEADER
  9
$ACADVER
  1
AC1009
  9
$INSBASE
 10
0.0
 20
0.0
 30
0.0
  9
$EXTMIN
 10
-30.3198331959804399
 20
-158.0201104751558034
 30
-0.0028379182365654
  9
$EXTMAX
 10
29.0102485330255
 20
93.0112309903037158
 30
0.0042573104195185
  9
$LIMMIN
 10
0.0
 20
0.0
  9
$LIMMAX
 10
210.0
 20
297.0
  9
$ORTHOMODE
 70
     1
  9
$REGENMODE
 70
     1
  9
$FILLMODE
 70
     1
  9
$QTEXTMODE
 70
     0
  9
$MIRRTEXT
 70
     1
  9
$DRAGMODE
 70
     2
  9
$LTSCALE
 40
10.0
  9
$OSMODE
 70
  2559
  9
$ATTMODE
 70
     1
  9
$TEXTSIZE
 40
3.5
  9
$TRACEWID
 40
0.5
  9
$TEXTSTYLE
  7
STANDARD
  9
$CLAYER
  8
STEMPEL
  9
$CELTYPE
  6
BYLAYER
  9
$CECOLOR
 62
   256
  9
$DIMSCALE
 40
1.0
  9
$DIMASZ
 40
3.5
  9
$DIMEXO
 40
1.0
  9
$DIMDLI
 40
7.0
  9
$DIMRND
 40
0.0
  9
$DIMDLE
 40
0.0
  9
$DIMEXE
 40
1.0
  9
$DIMTP
 40
0.0
  9
$DIMTM
 40
0.0
  9
$DIMTXT
 40
3.5
  9
$DIMCEN
 40
1.5
  9
$DIMTSZ
 40
0.0
  9
$DIMTOL
 70
     0
  9
$DIMLIM
 70
     0
  9
$DIMTIH
 70
     0
  9
$DIMTOH
 70
     0
  9
$DIMSE1
 70
     0
  9
$DIMSE2
 70
     0
  9
$DIMTAD
 70
     1
  9
$DIMZIN
 70
     8
  9
$DIMBLK
  1

  9
$DIMASO
 70
     1
  9
$DIMSHO
 70
     0
  9
$DIMPOST
  1

  9
$DIMAPOST
  1

  9
$DIMALT
 70
     0
  9
$DIMALTD
 70
     2
  9
$DIMALTF
 40
25.3999999999999986
  9
$DIMLFAC
 40
1.0
  9
$DIMTOFL
 70
     1
  9
$DIMTVP
 40
0.0
  9
$DIMTIX
 70
     0
  9
$DIMSOXD
 70
     0
  9
$DIMSAH
 70
     0
  9
$DIMBLK1
  1

  9
$DIMBLK2
  1

  9
$DIMSTYLE
  2
STANDARD
  9
$DIMCLRD
 70
     0
  9
$DIMCLRE
 70
     0
  9
$DIMCLRT
 70
     1
  9
$DIMTFAC
 40
0.5142857142857143
  9
$DIMGAP
 40
1.5
  9
$LUNITS
 70
     2
  9
$LUPREC
 70
     2
  9
$SKETCHINC
 40
1.0
  9
$FILLETRAD
 40
0.0
  9
$AUNITS
 70
     0
  9
$AUPREC
 70
     0
  9
$MENU
  1
ACAD
  9
$ELEVATION
 40
0.0
  9
$PELEVATION
 40
0.0
  9
$THICKNESS
 40
0.0
  9
$LIMCHECK
 70
     0
  9
$BLIPMODE
 70
     0
  9
$CHAMFERA
 40
0.0
  9
$CHAMFERB
 40
0.0
  9
$SKPOLY
 70
     0
  9
$TDCREATE
 40
2455397.8646990740671754
  9
$TDUPDATE
 40
2458376.5744444448500872
  9
$TDINDWG
 40
0.0457223727
  9
$TDUSRTIMER
 40
0.0457223727
  9
$USRTIMER
 70
     1
  9
$ANGBASE
 50
0.0
  9
$ANGDIR
 70
     0
  9
$PDMODE
 70
     0
  9
$PDSIZE
 40
0.0
  9
$PLINEWID
 40
0.0
  9
$COORDS
 70
     1
  9
$SPLFRAME
 70
     0
  9
$SPLINETYPE
 70
     6
  9
$SPLINESEGS
 70
     8
  9
$ATTDIA
 70
     1
  9
$ATTREQ
 70
     1
  9
$HANDLING
 70
     1
  9
$HANDSEED
  5
72C
  9
$SURFTAB1
 70
     6
  9
$SURFTAB2
 70
     6
  9
$SURFTYPE
 70
     6
  9
$SURFU
 70
     6
  9
$SURFV
 70
     6
  9
$UCSNAME
  2

  9
$UCSORG
 10
0.0
 20
0.0
 30
0.0
  9
$UCSXDIR
 10
1.0
 20
0.0
 30
0.0
  9
$UCSYDIR
 10
0.0
 20
1.0
 30
0.0
  9
$PUCSNAME
  2

  9
$PUCSORG
 10
0.0
 20
0.0
 30
0.0
  9
$PUCSXDIR
 10
1.0
 20
0.0
 30
0.0
  9
$PUCSYDIR
 10
0.0
 20
1.0
 30
0.0
  9
$USERI1
 70
     0
  9
$USERI2
 70
     0
  9
$USERI3
 70
     0
  9
$USERI4
 70
     0
  9
$USERI5
 70
     0
  9
$USERR1
 40
0.0
  9
$USERR2
 40
0.0
  9
$USERR3
 40
0.0
  9
$USERR4
 40
0.0
  9
$USERR5
 40
0.0
  9
$WORLDVIEW
 70
     1
  9
$SHADEDGE
 70
     3
  9
$SHADEDIF
 70
    70
  9
$TILEMODE
 70
     1
  9
$MAXACTVP
 70
    16
  9
$PLIMCHECK
 70
     0
  9
$PEXTMIN
 10
-0.1802977924868259
 20
-0.1953190313608601
 30
0.0
  9
$PEXTMAX
 10
17.5228521894998011
 20
25.039165774906909
 30
0.0
  9
$PLIMMIN
 10
-0.2500002402958907
 20
-0.2499999962453767
  9
$PLIMMAX
 10
10.7499995194082203
 20
8.2499997634587334
  9
$UNITMODE
 70
     0
  9
$VISRETAIN
 70
     0
  9
$PLINEGEN
 70
     0
  9
$PSLTSCALE
 70
     0
  0
ENDSEC
  0
SECTION
  2
TABLES
  0
TABLE
  2
VPORT
 70
     1
  0
VPORT
  2
*ACTIVE
 70
     0
 10
0.0
 20
0.0
 11
1.0
 21
1.0
 12
-0.6547923314774664
 22
-64.5044397424260154
 13
0.0
 23
0.0
 14
1.0
 24
1.0
 15
10.0
 25
10.0
 16
-0.0000000000000771
 26
0.0
 36
347.3976106087666267
 17
0.0
 27
32.0
 37
-0.0000000000000103
 40
252.3110254491406863
 41
1.868197278911564
 42
50.0
 43
0.0
 44
0.0
 50
0.0
 51
0.0
 71
     0
 72
  1500
 73
     1
 74
     0
 75
     0
 76
     0
 77
     0
 78
     0
  0
ENDTAB
  0
TABLE
  2
LTYPE
 70
     4
  0
LTYPE
  2
CONTINUOUS
 70
     0
  3
Solid line
 72
    65
 73
     0
 40
0.0
  0
LTYPE
  2
AUSGEZOGEN
 70
     0
  3
Ausgezogene Linie
 72
    65
 73
     0
 40
0.0
  0
LTYPE
  2
VERDECKT
 70
     0
  3
_ _ _ _ _ _ _ _ _ _ _ _ _ _ _ _ _ _ _ _ _ _ _
 72
    65
 73
     2
 40
0.375
 49
0.25
 49
-0.125
  0
ENDTAB
  0
TABLE
  2
LAYER
 70
    10
  0
LAYER
  2
0
 70
     0
 62
     7
  6
CONTINUOUS
  0
LAYER
  2
VOLL
 70
     0
 62
     1
  6
CONTINUOUS
  0
LAYER
  2
STEMPEL
 70
     0
 62
     3
  6
CONTINUOUS
  0
LAYER
  2
DEFPOINTS
 70
     0
 62
     7
  6
AUSGEZOGEN
  0
ENDTAB
  0
TABLE
  2
STYLE
 70
     2
  0
STYLE
  2
STANDARD
 70
     0
 40
0.0
 41
0.8
 50
0.0
 71
     0
 42
3.5
  3
simplex.shx
  4

  0
STYLE
  2
GREEKS
 70
     0
 40
0.0
 41
0.8
 50
0.0
 71
     0
 42
2.5
  3
SIMPLEX.shx
  4

  0
ENDTAB
  0
TABLE
  2
VIEW
 70
     1
  0
ENDTAB
  0
TABLE
  2
UCS
 70
     0
  0
ENDTAB
  0
TABLE
  2
APPID
 70
    10
  0
APPID
  2
ACAD
 70
     0
  0
APPID
  2
ACAECLAYERSTANDARD
 70
     0
  0
APPID
  2
ACCMTRANSPARENCY
 70
     0
  0
APPID
  2
ACAD_NAV_VCDISPLAY
 70
     0
  0
APPID
  2
GRADIENTCOLOR1ACI
 70
     0
  0
APPID
  2
GRADIENTCOLOR2ACI
 70
     0
  0
APPID
  2
ACAD_PSEXT
 70
     0
  0
APPID
  2
ACAD_MLEADERVER
 70
     0
  0
APPID
  2
ACAD_OBJECT_CHANGE_GUID
 70
     0
  0
APPID
  2
ACAD_EXEMPT_FROM_CAD_STANDARDS
 70
     0
  0
ENDTAB
  0
TABLE
  2
DIMSTYLE
 70
     1
  0
DIMSTYLE
  2
STANDARD
 70
     0
  3

  4

  5

  6

  7

 40
1.0
 41
0.18
 42
0.0625
 43
0.38
 44
0.18
 45
0.0
 46
0.0
 47
0.0
 48
0.0
140
0.18
141
0.09
142
0.0
143
25.3999999999999986
144
1.0
145
0.0
146
1.0
147
0.09
 71
     0
 72
     0
 73
     1
 74
     1
 75
     0
 76
     0
 77
     0
 78
     0
170
     0
171
     2
172
     0
173
     0
174
     0
175
     0
176
     0
177
     0
178
     0
  0
ENDTAB
  0
ENDSEC
  0
SECTION
  2
BLOCKS
  0
BLOCK
  8
0
  2
$MODEL_SPACE
 70
     0
 10
0.0
 20
0.0
 30
0.0
  3
$MODEL_SPACE
  1

  0
ENDBLK
  5
36
  8
0
  0
BLOCK
 67
     1
  8
0
  2
$PAPER_SPACE
 70
     0
 10
0.0
 20
0.0
 30
0.0
  3
$PAPER_SPACE
  1

  0
ENDBLK
  5
34
 67
     1
  8
0
  0
BLOCK
  8
0
  2
A$C52E711A8
 70
     0
 10
0.0
 20
0.0
 30
0.0
  3
A$C52E711A8
  1

  0
LINE
  5
6B8
  8
0
  6
CONTINUOUS
 62
     3
 10
-26.0625566823703103
 20
0.0000000000000911
 30
0.0
 11
26.0625566823703103
 21
-0.0000000000000911
 31
0.0
210
0.0000000000000002
220
1.0
230
-0.0000000000000002
  0
LINE
  5
6B9
  8
0
  6
CONTINUOUS
 62
     3
 10
-28.9999999999996412
 20
93.0000000000001279
 30
-0.0000000000000207
 11
29.0000000000003588
 21
92.9999999999999005
 31
-0.0000000000000207
210
0.0000000000000002
220
1.0
230
-0.0000000000000002
  0
LINE
  5
6BA
  8
0
  6
CONTINUOUS
 62
     3
 10
-26.0625566823703494
 20
0.0000000000000888
 30
0.0
 11
-26.4999999999999716
 21
5.0000000000000622
 31
-0.0000000000000011
210
0.0000000000000002
220
1.0
230
-0.0000000000000002
  0
LINE
  5
6BB
  8
0
  6
CONTINUOUS
 62
     3
 10
26.0625566823703316
 20
-0.0000000000000915
 30
0.0
 11
26.4999999999999893
 21
4.9999999999998748
 31
-0.0000000000000011
210
0.0000000000000002
220
1.0
230
-0.0000000000000002
  0
LINE
  5
6BC
  8
0
  6
CONTINUOUS
 62
     3
 10
29.0000000000003588
 20
92.9999999999998863
 30
-0.0000000000000207
 11
29.0000000000002487
 21
62.9999999999999005
 31
-0.000000000000014
210
0.0000000000000002
220
1.0
230
-0.0000000000000002
  0
LINE
  5
6BD
  8
0
  6
CONTINUOUS
 62
     3
 10
-28.9999999999996483
 20
93.0000000000000853
 30
-0.0000000000000207
 11
-28.9999999999997513
 21
63.0000000000001066
 31
-0.000000000000014
210
0.0000000000000002
220
1.0
230
-0.0000000000000002
  0
ARC
  5
6BE
  8
0
  6
CONTINUOUS
 62
     3
 10
16.9999999999999503
 20
63.0000000000000426
 30
0.0
 40
11.9999999999997904
210
0.0
220
-0.0000000000000002
230
-1.0
 50
331.0449756281394116
 51
0.0000000000003308
  0
ARC
  5
6BF
  8
0
  6
CONTINUOUS
 62
     3
 10
-17.0000000000003304
 20
62.9999999999999432
 30
0.0
 40
11.9999999999998899
210
0.0
220
-0.0000000000000002
230
-1.0
 50
180.0000000000001137
 51
208.9550243718609863
  0
ARC
  5
6C0
  8
0
  6
CONTINUOUS
 62
     3
 10
34.4999999999992326
 20
53.317541634481799
 30
0.0
 40
7.9999999999994102
210
0.0
220
-0.0000000000000002
230
-1.0
 50
151.0449756281406906
 51
180.0000000000001137
  0
ARC
  5
6C1
  8
0
  6
CONTINUOUS
 62
     3
 10
-34.4999999999996376
 20
53.3175416344815503
 30
0.0
 40
7.9999999999994449
210
0.0
220
-0.0000000000000002
230
-1.0
 50
0.0000000000003181
 51
28.9550243718596398
  0
LINE
  5
6C2
  8
0
  6
CONTINUOUS
 62
     3
 10
26.5000000000002096
 20
53.3175416344815929
 30
-0.0000000000000118
 11
26.5000000000000284
 21
4.9999999999998801
 31
-0.0000000000000011
210
0.0000000000000002
220
1.0
230
-0.0000000000000002
  0
LINE
  5
6C3
  8
0
  6
CONTINUOUS
 62
     3
 10
-26.4999999999997904
 20
53.3175416344817705
 30
-0.0000000000000118
 11
-26.4999999999999716
 21
5.0000000000000631
 31
-0.0000000000000011
210
0.0000000000000002
220
1.0
230
-0.0000000000000002
  0
LINE
  5
6C4
  8
0
  6
VERDECKT
 62
     1
 10
-24.5568269260553187
 20
0.0000000000000938
 30
0.0
 11
-24.9999999999999183
 21
5.0654914143634153
 31
-0.0000000000000011
210
0.0000000000000002
220
1.0
230
-0.0000000000000002
  0
LINE
  5
6C5
  8
0
  6
VERDECKT
 62
     1
 10
24.5568269260553116
 20
-0.0000000000000809
 30
0.0
 11
24.9999999999999289
 21
5.0654914143632368
 31
-0.0000000000000011
210
0.0000000000000002
220
1.0
230
-0.0000000000000002
  0
LINE
  5
6C6
  8
0
  6
VERDECKT
 62
     1
 10
25.000000000000199
 20
53.3175416344815929
 30
-0.0000000000000118
 11
25.0000000000000284
 21
5.0654914143632324
 31
-0.0000000000000011
210
0.0000000000000002
220
1.0
230
-0.0000000000000002
  0
LINE
  5
6C7
  8
0
  6
VERDECKT
 62
     1
 10
-24.999999999999801
 20
53.3175416344817705
 30
-0.0000000000000118
 11
-24.9999999999999609
 21
5.0654914143634127
 31
-0.0000000000000011
210
0.0000000000000002
220
1.0
230
-0.0000000000000002
  0
ARC
  5
6C8
  8
0
  6
VERDECKT
 62
     1
 10
34.5000000000005329
 20
53.3175416344816284
 30
0.0
 40
9.5000000000006999
210
0.0
220
-0.0000000000000002
230
-1.0
 50
151.0449756281406053
 51
179.9999999999990905
  0
ARC
  5
6C9
  8
0
  6
VERDECKT
 62
     1
 10
-34.5000000000008811
 20
53.3175416344813868
 30
0.0
 40
9.5000000000006821
210
0.0
220
-0.0000000000000002
230
-1.0
 50
0.0000000000012213
 51
28.9550243718597997
  0
ARC
  5
6CA
  8
0
  6
VERDECKT
 62
     1
 10
17.0000000000011191
 20
62.9999999999998792
 30
0.0
 40
10.4999999999986198
210
0.0
220
-0.0000000000000002
230
-1.0
 50
331.0449756281395821
 51
0.0000000000012595
  0
ARC
  5
6CB
  8
0
  6
VERDECKT
 62
     1
 10
-17.0000000000017799
 20
62.9999999999997016
 30
0.0
 40
10.4999999999984404
210
0.0
220
-0.0000000000000002
230
-1.0
 50
179.9999999999988063
 51
208.9550243718612137
  0
LINE
  5
6CC
  8
0
  6
VERDECKT
 62
     1
 10
27.5000000000002984
 20
92.9999999999999289
 30
-0.0000000000000207
 11
27.5000000000001883
 21
62.9999999999999076
 31
-0.000000000000014
210
0.0000000000000002
220
1.0
230
-0.0000000000000002
  0
LINE
  5
6CD
  8
0
  6
VERDECKT
 62
     1
 10
-27.4999999999995914
 20
93.0000000000000853
 30
-0.0000000000000207
 11
-27.4999999999997016
 21
63.0000000000001066
 31
-0.000000000000014
210
0.0000000000000002
220
1.0
230
-0.0000000000000002
  0
ENDBLK
  5
6CF
  8
0
  0
BLOCK
  8
0
  2
A$C259F4BC2
 70
     0
 10
0.0
 20
0.0
 30
0.0
  3
A$C259F4BC2
  1

  0
CIRCLE
  5
6D3
  8
0
  6
CONTINUOUS
 62
     3
 10
0.0
 20
-0.0000000000000202
 30
0.0
 40
24.5568269260553613
  0
CIRCLE
  5
6D4
  8
0
  6
CONTINUOUS
 62
     3
 10
0.0000000000001824
 20
-0.0000000000000169
 30
0.0
 40
25.0000000000000213
  0
CIRCLE
  5
6D5
  8
0
  6
CONTINUOUS
 62
     3
 10
0.0000000000003617
 20
-0.0000000000000145
 30
0.0
 40
27.4999999999999183
  0
CIRCLE
  5
6D6
  8
0
  6
CONTINUOUS
 62
     3
 10
0.0000000000003617
 20
-0.0000000000000145
 30
0.0
 40
28.9999999999999787
  0
CIRCLE
  5
6D7
  8
0
  6
VERDECKT
 62
     1
 10
0.0
 20
-0.0000000000000202
 30
0.0
 40
26.062556682370321
  0
CIRCLE
  5
6D8
  8
0
  6
VERDECKT
 62
     1
 10
0.0000000000001824
 20
-0.0000000000000169
 30
0.0
 40
26.5000000000000213
  0
ENDBLK
  5
6DA
  8
0
  0
ENDSEC
  0
SECTION
  2
ENTITIES
  0
TEXT
  5
8F
  8
VOLL
 10
78.076754716981128
 20
31.025947764705851
 30
0.0
 40
1.8
  1

  7
GREEKS
  0
INSERT
  5
6D0
  8
STEMPEL
  2
A$C52E711A8
 10
0.0
 20
0.0
 30
0.0
  0
INSERT
  5
6DB
  8
STEMPEL
  2
A$C259F4BC2
 10
-0.0000000000001013
 20
-129.0
 30
0.0
  0
VIEWPORT
  5
41B
 67
     1
  8
0
 10
8.6711411052975258
 20
12.4216305325338592
 30
0.0
 40
49.939351440801822
 41
25.4339193592928297
 68
     1
 69
     1
1001
ACAD
1000
MVIEW
1002
{
1070
    16
1010
0.0
1020
0.0
1030
0.0
1010
0.0
1020
0.0
1030
1.0
1040
0.0
1040
25.4339193592928297
1040
8.6711411052975258
1040
12.4216305325338592
1040
50.0
1040
0.0
1040
0.0
1070
     0
1070
  1500
1070
     1
1070
     1
1070
     0
1070
     0
1070
     0
1070
     0
1040
0.0
1040
0.0
1040
0.0
1040
10.0
1040
10.0
1040
10.0
1040
10.0
1070
     0
1002
{
1002
}
1002
}
  0
VIEWPORT
  5
420
 67
     1
  8
DEFPOINTS
 10
8.6712771985064876
 20
12.4219233717730209
 30
0.0
 40
17.7031499819866305
 41
25.2344848062677798
 68
     2
 69
     2
1001
ACAD
1000
MVIEW
1002
{
1070
    16
1010
0.0
1020
0.0
1030
0.0
1010
0.0
1020
0.0
1030
1.0
1040
0.0
1040
308.8471586754640725
1040
104.4816772996458951
1040
150.9920487258461037
1040
50.0
1040
0.0
1040
0.0
1070
     0
1070
  1500
1070
     1
1070
     0
1070
     0
1070
     0
1070
     0
1070
     0
1040
0.0
1040
0.0
1040
0.0
1040
1.0
1040
1.0
1040
10.0
1040
10.0
1070
     0
1002
{
1002
}
1002
}
  0
VIEWPORT
  5
424
 67
     1
  8
DEFPOINTS
 10
13.8797004840705291
 20
10.7061316577625796
 30
0.0
 40
3.9367051095685071
 41
6.5898465295334168
 68
     3
 69
     3
1001
ACAD
1000
MVIEW
1002
{
1070
    16
1010
372.2706595513265029
1020
167.1429729614883968
1030
-33.6450651998240815
1010
0.0
1020
295.3373363455478966
1030
742.6499353621618411
1040
3.1415926535897931
1040
112.1647304543365067
1040
13.3091687459405907
1040
0.0
1040
50.0
1040
0.0
1040
0.0
1070
     0
1070
  1500
1070
     1
1070
     0
1070
     0
1070
     0
1070
     0
1070
     0
1040
0.0
1040
0.0
1040
0.0
1040
1.0
1040
1.0
1040
10.0
1040
10.0
1070
     0
1002
{
1002
}
1002
}
  0
ENDSEC
  0
EOF
