  0
SECTION
  2
HEADER
  9
$ACADVER
  1
AC1009
  9
$INSBASE
 10
0.0
 20
0.0
 30
0.0
  9
$EXTMIN
 10
707.4320704912004203
 20
322.9141693330641942
 30
-0.0070304499448639
  9
$EXTMAX
 10
777.4942647838636276
 20
506.4980514139871843
 30
0.0015467569371594
  9
$LIMMIN
 10
0.0
 20
0.0
  9
$LIMMAX
 10
210.0
 20
297.0
  9
$ORTHOMODE
 70
     1
  9
$REGENMODE
 70
     1
  9
$FILLMODE
 70
     1
  9
$QTEXTMODE
 70
     0
  9
$MIRRTEXT
 70
     1
  9
$DRAGMODE
 70
     2
  9
$LTSCALE
 40
10.0
  9
$OSMODE
 70
  2495
  9
$ATTMODE
 70
     1
  9
$TEXTSIZE
 40
3.5
  9
$TRACEWID
 40
0.5
  9
$TEXTSTYLE
  7
STANDARD
  9
$CLAYER
  8
0
  9
$CELTYPE
  6
BYLAYER
  9
$CECOLOR
 62
   256
  9
$DIMSCALE
 40
1.0
  9
$DIMASZ
 40
3.5
  9
$DIMEXO
 40
1.0
  9
$DIMDLI
 40
7.0
  9
$DIMRND
 40
0.0
  9
$DIMDLE
 40
0.0
  9
$DIMEXE
 40
1.0
  9
$DIMTP
 40
0.0
  9
$DIMTM
 40
0.0
  9
$DIMTXT
 40
3.5
  9
$DIMCEN
 40
1.5
  9
$DIMTSZ
 40
0.0
  9
$DIMTOL
 70
     0
  9
$DIMLIM
 70
     0
  9
$DIMTIH
 70
     0
  9
$DIMTOH
 70
     0
  9
$DIMSE1
 70
     0
  9
$DIMSE2
 70
     0
  9
$DIMTAD
 70
     1
  9
$DIMZIN
 70
     8
  9
$DIMBLK
  1

  9
$DIMASO
 70
     1
  9
$DIMSHO
 70
     0
  9
$DIMPOST
  1

  9
$DIMAPOST
  1

  9
$DIMALT
 70
     0
  9
$DIMALTD
 70
     2
  9
$DIMALTF
 40
25.3999999999999986
  9
$DIMLFAC
 40
1.0
  9
$DIMTOFL
 70
     1
  9
$DIMTVP
 40
0.0
  9
$DIMTIX
 70
     0
  9
$DIMSOXD
 70
     0
  9
$DIMSAH
 70
     0
  9
$DIMBLK1
  1

  9
$DIMBLK2
  1

  9
$DIMSTYLE
  2
STANDARD
  9
$DIMCLRD
 70
     0
  9
$DIMCLRE
 70
     0
  9
$DIMCLRT
 70
     1
  9
$DIMTFAC
 40
0.5142857142857143
  9
$DIMGAP
 40
1.5
  9
$LUNITS
 70
     2
  9
$LUPREC
 70
     2
  9
$SKETCHINC
 40
1.0
  9
$FILLETRAD
 40
0.0
  9
$AUNITS
 70
     0
  9
$AUPREC
 70
     0
  9
$MENU
  1
ACAD
  9
$ELEVATION
 40
0.0
  9
$PELEVATION
 40
0.0
  9
$THICKNESS
 40
0.0
  9
$LIMCHECK
 70
     0
  9
$BLIPMODE
 70
     0
  9
$CHAMFERA
 40
0.0
  9
$CHAMFERB
 40
0.0
  9
$SKPOLY
 70
     0
  9
$TDCREATE
 40
2455397.8646990740671754
  9
$TDUPDATE
 40
2458794.3671875
  9
$TDINDWG
 40
0.1163743519
  9
$TDUSRTIMER
 40
0.1163743519
  9
$USRTIMER
 70
     1
  9
$ANGBASE
 50
0.0
  9
$ANGDIR
 70
     0
  9
$PDMODE
 70
     0
  9
$PDSIZE
 40
0.0
  9
$PLINEWID
 40
0.0
  9
$COORDS
 70
     1
  9
$SPLFRAME
 70
     0
  9
$SPLINETYPE
 70
     6
  9
$SPLINESEGS
 70
     8
  9
$ATTDIA
 70
     1
  9
$ATTREQ
 70
     1
  9
$HANDLING
 70
     1
  9
$HANDSEED
  5
235A
  9
$SURFTAB1
 70
     6
  9
$SURFTAB2
 70
     6
  9
$SURFTYPE
 70
     6
  9
$SURFU
 70
     6
  9
$SURFV
 70
     6
  9
$UCSNAME
  2

  9
$UCSORG
 10
0.0
 20
0.0
 30
0.0
  9
$UCSXDIR
 10
1.0
 20
0.0
 30
0.0
  9
$UCSYDIR
 10
0.0
 20
1.0
 30
0.0
  9
$PUCSNAME
  2

  9
$PUCSORG
 10
0.0
 20
0.0
 30
0.0
  9
$PUCSXDIR
 10
1.0
 20
0.0
 30
0.0
  9
$PUCSYDIR
 10
0.0
 20
1.0
 30
0.0
  9
$USERI1
 70
     0
  9
$USERI2
 70
     0
  9
$USERI3
 70
     0
  9
$USERI4
 70
     0
  9
$USERI5
 70
     0
  9
$USERR1
 40
0.0
  9
$USERR2
 40
0.0
  9
$USERR3
 40
0.0
  9
$USERR4
 40
0.0
  9
$USERR5
 40
0.0
  9
$WORLDVIEW
 70
     1
  9
$SHADEDGE
 70
     3
  9
$SHADEDIF
 70
    70
  9
$TILEMODE
 70
     1
  9
$MAXACTVP
 70
    16
  9
$PLIMCHECK
 70
     0
  9
$PEXTMIN
 10
-83.9284568735070451
 20
-68.7846834131460128
 30
-0.0000000000018335
  9
$PEXTMAX
 10
126.0875633880448987
 20
443.8774089381280987
 30
0.0000000000000145
  9
$PLIMMIN
 10
-83.9124375899632753
 20
146.8774065507500097
  9
$PLIMMAX
 10
126.0875624100366963
 20
443.8774065507499813
  9
$UNITMODE
 70
     0
  9
$VISRETAIN
 70
     0
  9
$PLINEGEN
 70
     0
  9
$PSLTSCALE
 70
     0
  0
ENDSEC
  0
SECTION
  2
TABLES
  0
TABLE
  2
VPORT
 70
     1
  0
VPORT
  2
*ACTIVE
 70
     0
 10
0.0
 20
0.0
 11
1.0
 21
1.0
 12
-1.113544964622889
 22
110.6819292670087975
 13
0.0
 23
0.0
 14
1.0
 24
1.0
 15
10.0
 25
10.0
 16
-0.0000000000001137
 26
0.0
 36
478.1223194647113814
 17
743.576712602154771
 27
304.0241811065167781
 37
-29.9624406902381502
 40
184.8967584724433948
 41
1.7852028639618129
 42
50.0
 43
0.0
 44
0.0
 50
0.0
 51
0.0
 71
     0
 72
  1500
 73
     1
 74
     0
 75
     0
 76
     0
 77
     0
 78
     0
  0
ENDTAB
  0
TABLE
  2
LTYPE
 70
     6
  0
LTYPE
  2
CONTINUOUS
 70
     0
  3
Solid line
 72
    65
 73
     0
 40
0.0
  0
LTYPE
  2
VERDECKT
 70
     0
  3
Verdeckt __ __ __ __ __ __ __ __ __ __ __ __ __
 72
    65
 73
     2
 40
0.375
 49
0.25
 49
-0.125
  0
ENDTAB
  0
TABLE
  2
LAYER
 70
    14
  0
LAYER
  2
0
 70
     0
 62
     7
  6
CONTINUOUS
  0
LAYER
  2
VOLL
 70
     0
 62
     1
  6
CONTINUOUS
  0
LAYER
  2
DEFPOINTS
 70
     0
 62
     7
  6
CONTINUOUS
  0
LAYER
  2
ADSK_ASSOC_ENTITY_BACKUPS
 70
     1
 62
    -7
  6
CONTINUOUS
  0
ENDTAB
  0
TABLE
  2
STYLE
 70
     4
  0
STYLE
  2
STANDARD
 70
     0
 40
0.0
 41
0.8
 50
0.0
 71
     0
 42
3.5
  3
simplex.shx
  4

  0
STYLE
  2
GREEKS
 70
     0
 40
0.0
 41
0.8
 50
0.0
 71
     0
 42
2.5
  3
SIMPLEX.shx
  4

  0
ENDTAB
  0
TABLE
  2
VIEW
 70
     1
  0
ENDTAB
  0
TABLE
  2
UCS
 70
     0
  0
ENDTAB
  0
TABLE
  2
APPID
 70
    16
  0
APPID
  2
ACAD
 70
     0
  0
APPID
  2
ACAD_EXEMPT_FROM_CAD_STANDARDS
 70
     0
  0
APPID
  2
ACAD_NAV_VCDISPLAY
 70
     0
  0
APPID
  2
ACAECLAYERSTANDARD
 70
     0
  0
APPID
  2
ACCMTRANSPARENCY
 70
     0
  0
APPID
  2
ACAD_STEPID
 70
     0
  0
APPID
  2
ACAD_PSEXT
 70
     0
  0
APPID
  2
ACSYNERGY
 70
     0
  0
APPID
  2
SYNERGY_BODY_TBR_ID
 70
     0
  0
APPID
  2
ACAD_VIEW_EDGE_ID
 70
     0
  0
APPID
  2
ACSYNERGYSKETCH
 70
     0
  0
APPID
  2
GRADIENTCOLOR1ACI
 70
     0
  0
APPID
  2
GRADIENTCOLOR2ACI
 70
     0
  0
APPID
  2
ACADANNOMONITORALERTICONDI
 70
     0
  0
APPID
  2
ACAD_MLEADERVER
 70
     0
  0
APPID
  2
AcDbAttr
 70
     0
  0
ENDTAB
  0
TABLE
  2
DIMSTYLE
 70
     2
  0
DIMSTYLE
  2
STANDARD
 70
     0
  3

  4

  5

  6

  7

 40
1.0
 41
0.18
 42
0.0625
 43
0.38
 44
0.18
 45
0.0
 46
0.0
 47
0.0
 48
0.0
140
0.18
141
0.09
142
0.0
143
25.3999999999999986
144
1.0
145
0.0
146
1.0
147
0.09
 71
     0
 72
     0
 73
     1
 74
     1
 75
     0
 76
     0
 77
     0
 78
     0
170
     0
171
     2
172
     0
173
     0
174
     0
175
     0
176
     0
177
     0
178
     0
  0
ENDTAB
  0
ENDSEC
  0
SECTION
  2
BLOCKS
  0
BLOCK
  8
0
  2
$MODEL_SPACE
 70
     0
 10
0.0
 20
0.0
 30
0.0
  3
$MODEL_SPACE
  1

  0
ENDBLK
  5
36
  8
0
  0
BLOCK
 67
     1
  8
0
  2
$PAPER_SPACE
 70
     0
 10
0.0
 20
0.0
 30
0.0
  3
$PAPER_SPACE
  1

  0
ENDBLK
  5
34
 67
     1
  8
0
  0
BLOCK
  8
0
  2
*S2
 70
     1
 10
0.0
 20
0.0
 30
0.0
  3
*S2
  1

  0
ENDBLK
  5
F8E
  8
0
  0
BLOCK
  8
0
  2
A$CE266D97F
 70
     0
 10
0.0
 20
0.0
 30
0.0
  3
A$CE266D97F
  1

  0
CIRCLE
  5
1775
  8
0
  6
CONTINUOUS
 62
     3
 10
346.1983395871316134
 20
187.3411662246348897
 30
0.0000000000000568
 40
26.5
  0
CIRCLE
  5
1776
  8
0
  6
CONTINUOUS
 62
     3
 10
346.1983395871316134
 20
187.3411662246348897
 30
0.0000000000000568
 40
28.5038104225133715
  0
CIRCLE
  5
1777
  8
0
  6
CONTINUOUS
 62
     3
 10
346.1983395871316134
 20
187.3411662246348897
 30
0.0000000000000568
 40
31.2544454929322413
  0
ARC
  5
1778
  8
0
  6
CONTINUOUS
 62
     3
 10
371.9822378922164035
 20
183.9959325716521903
 30
0.0000000000000604
 40
0.4999999999999641
 50
352.6076706250005941
 51
41.993533584757877
  0
ARC
  5
1779
  8
0
  6
CONTINUOUS
 62
     3
 10
371.9822378922164035
 20
190.6863998776175038
 30
0.0000000000000604
 40
0.4999999999999641
 50
318.0064664152421869
 51
7.3923293749994272
  0
ARC
  5
177A
  8
0
  6
CONTINUOUS
 62
     3
 10
375.6983395871316134
 20
187.3411662246348897
 30
0.0000000000000604
 40
4.5000000000000391
 50
138.006466415245086
 51
221.9935335847548004
  0
CIRCLE
  5
177B
  8
0
  6
CONTINUOUS
 62
     3
 10
346.1983395871316134
 20
187.3411662246348897
 30
0.0000000000000568
 40
33.0000000000090381
  0
CIRCLE
  5
177C
  8
0
  6
CONTINUOUS
 62
     3
 10
346.1983395871316134
 20
187.3411662246348897
 30
0.0000000000000568
 40
33.0000320571282799
  0
CIRCLE
  5
177D
  8
0
  6
VERDECKT
 62
     1
 10
346.1983395871316134
 20
187.3411662246348897
 30
0.0000000000000568
 40
29.5
  0
CIRCLE
  5
177E
  8
0
  6
VERDECKT
 62
     1
 10
346.1983395871316134
 20
187.3411662246348897
 30
0.0000000000000568
 40
32.9999959076062623
  0
CIRCLE
  5
177F
  8
0
  6
VERDECKT
 62
     1
 10
346.1983395871316134
 20
187.3411662246348897
 30
0.0000000000000568
 40
28.3299999999999805
  0
ARC
  5
1780
  8
0
  6
VERDECKT
 62
     1
 10
374.6093565362841105
 20
185.0908071610701882
 30
0.0000000000000604
 40
1.0000000000000711
 50
355.4712128721469071
 51
64.1769525841604604
  0
ARC
  5
1781
  8
0
  6
VERDECKT
 62
     1
 10
374.6093565362841105
 20
189.5915252881995059
 30
0.0000000000000604
 40
1.0000000000000711
 50
295.8230474158395964
 51
4.5287871278530929
  0
ARC
  5
1782
  8
0
  6
VERDECKT
 62
     1
 10
375.6983395871316134
 20
187.3411662246348897
 30
0.0000000000000604
 40
1.4999999999999949
 50
115.8230474158396959
 51
244.1769525841602899
  0
CIRCLE
  5
1783
  8
0
  6
VERDECKT
 62
     1
 10
346.1983395871316134
 20
187.3411662246348897
 30
0.0000000000000568
 40
30.0074477226112606
  0
ENDBLK
  5
1785
  8
0
  0
BLOCK
  8
0
  2
A$C13C6118F
 70
     0
 10
0.0
 20
0.0
 30
0.0
  3
A$C13C6118F
  1

  0
LINE
  5
1789
  8
0
  6
CONTINUOUS
 62
     3
 10
316.6983395871314997
 20
-28.4999999999997193
 30
0.0000000000000063
 11
375.6983395871316134
 21
-28.4999999999997193
 31
0.0000000000000063
210
0.0
220
1.0
230
-0.0000000000000002
  0
LINE
  5
178A
  8
0
  6
CONTINUOUS
 62
     3
 10
314.9438940941993224
 20
52.4999999999997584
 30
-0.0000000000000117
 11
377.4527850800637907
 21
52.4999999999997584
 31
-0.0000000000000117
210
0.0
220
1.0
230
-0.0000000000000002
  0
LINE
  5
178B
  8
0
  6
CONTINUOUS
 62
     3
 10
316.6983395871314997
 20
-29.4999999999996909
 30
0.0000000000000066
 11
375.6983395871316134
 21
-29.4999999999996909
 31
0.0000000000000066
210
0.0
220
1.0
230
-0.0000000000000002
  0
LINE
  5
178C
  8
0
  6
CONTINUOUS
 62
     3
 10
317.8683395871315724
 20
-30.4999999999997193
 30
0.0000000000000068
 11
374.5283395871314838
 21
-30.4999999999997193
 31
0.0000000000000068
210
0.0
220
1.0
230
-0.0000000000000002
  0
LINE
  5
178D
  8
0
  6
CONTINUOUS
 62
     3
 10
316.6983395871314997
 20
-31.4999999999997016
 30
0.000000000000007
 11
375.6983395871316134
 21
-31.4999999999997016
 31
0.000000000000007
210
0.0
220
1.0
230
-0.0000000000000002
  0
LINE
  5
178E
  8
0
  6
CONTINUOUS
 62
     3
 10
317.8683395871315724
 20
-32.4999999999997229
 30
0.0000000000000072
 11
374.5283395871314838
 21
-32.4999999999997229
 31
0.0000000000000072
210
0.0
220
1.0
230
-0.0000000000000002
  0
LINE
  5
178F
  8
0
  6
CONTINUOUS
 62
     3
 10
316.6983395871314997
 20
-33.4999999999996874
 30
0.0000000000000074
 11
375.6983395871316134
 21
-33.4999999999996874
 31
0.0000000000000074
210
0.0
220
1.0
230
-0.0000000000000002
  0
LINE
  5
1790
  8
0
  6
CONTINUOUS
 62
     3
 10
317.8683395871315724
 20
-34.49999999999973
 30
0.0000000000000077
 11
374.5283395871314838
 21
-34.49999999999973
 31
0.0000000000000077
210
0.0
220
1.0
230
-0.0000000000000002
  0
LINE
  5
1791
  8
0
  6
CONTINUOUS
 62
     3
 10
316.6983395871314997
 20
-35.4999999999997016
 30
0.0000000000000079
 11
375.6983395871316134
 21
-35.4999999999997016
 31
0.0000000000000079
210
0.0
220
1.0
230
-0.0000000000000002
  0
LINE
  5
1792
  8
0
  6
CONTINUOUS
 62
     3
 10
317.8683395871315724
 20
-36.4999999999997229
 30
0.0000000000000081
 11
374.5283395871314838
 21
-36.4999999999997229
 31
0.0000000000000081
210
0.0
220
1.0
230
-0.0000000000000002
  0
LINE
  5
1793
  8
0
  6
CONTINUOUS
 62
     3
 10
316.6983395871314997
 20
-37.4999999999997016
 30
0.0000000000000083
 11
375.6983395871316134
 21
-37.4999999999997016
 31
0.0000000000000083
210
0.0
220
1.0
230
-0.0000000000000002
  0
LINE
  5
1794
  8
0
  6
CONTINUOUS
 62
     3
 10
317.8683395871315724
 20
-38.4999999999997229
 30
0.0000000000000085
 11
374.5283395871314838
 21
-38.4999999999997229
 31
0.0000000000000085
210
0.0
220
1.0
230
-0.0000000000000002
  0
LINE
  5
1795
  8
0
  6
CONTINUOUS
 62
     3
 10
316.6983395871314997
 20
-39.4999999999996874
 30
0.0000000000000088
 11
375.6983395871316134
 21
-39.4999999999996874
 31
0.0000000000000088
210
0.0
220
1.0
230
-0.0000000000000002
  0
LINE
  5
1796
  8
0
  6
CONTINUOUS
 62
     3
 10
317.8683395871315724
 20
-40.4999999999997229
 30
0.000000000000009
 11
374.5283395871314838
 21
-40.4999999999997229
 31
0.000000000000009
210
0.0
220
1.0
230
-0.0000000000000002
  0
LINE
  5
1797
  8
0
  6
CONTINUOUS
 62
     3
 10
316.6983395871314997
 20
-41.4999999999996874
 30
0.0000000000000092
 11
375.6983395871316134
 21
-41.4999999999996874
 31
0.0000000000000092
210
0.0
220
1.0
230
-0.0000000000000002
  0
LINE
  5
1798
  8
0
  6
CONTINUOUS
 62
     3
 10
317.8683395871312882
 20
-42.4999999999997229
 30
0.0000000000000094
 11
374.5283395871318248
 21
-42.4999999999997229
 31
0.0000000000000094
210
0.0
220
1.0
230
-0.0000000000000002
  0
LINE
  5
1799
  8
0
  6
CONTINUOUS
 62
     3
 10
316.6983395871314997
 20
-43.4999999999996874
 30
0.0000000000000097
 11
375.6983395871316134
 21
-43.4999999999996874
 31
0.0000000000000097
210
0.0
220
1.0
230
-0.0000000000000002
  0
LINE
  5
179A
  8
0
  6
CONTINUOUS
 62
     3
 10
317.8683395871315156
 20
-44.4999999999997229
 30
0.0000000000000099
 11
374.5283395871315975
 21
-44.4999999999997229
 31
0.0000000000000099
210
0.0
220
1.0
230
-0.0000000000000002
  0
LINE
  5
179B
  8
0
  6
CONTINUOUS
 62
     3
 10
316.6983395871314997
 20
-45.4999999999996874
 30
0.0000000000000101
 11
375.6983395871316134
 21
-45.4999999999996874
 31
0.0000000000000101
210
0.0
220
1.0
230
-0.0000000000000002
  0
LINE
  5
179C
  8
0
  6
CONTINUOUS
 62
     3
 10
317.8683395871311745
 20
-46.4999999999997229
 30
0.0000000000000103
 11
374.5283395871318817
 21
-46.4999999999997229
 31
0.0000000000000103
210
0.0
220
1.0
230
-0.0000000000000002
  0
LINE
  5
179D
  8
0
  6
CONTINUOUS
 62
     3
 10
316.6983395871314997
 20
-47.4999999999996874
 30
0.0000000000000105
 11
375.6983395871316134
 21
-47.4999999999996874
 31
0.0000000000000105
210
0.0
220
1.0
230
-0.0000000000000002
  0
LINE
  5
179E
  8
0
  6
CONTINUOUS
 62
     3
 10
317.8683395871311745
 20
-48.4999999999997229
 30
0.0000000000000108
 11
374.5283395871318817
 21
-48.4999999999997229
 31
0.0000000000000108
210
0.0
220
1.0
230
-0.0000000000000002
  0
LINE
  5
179F
  8
0
  6
CONTINUOUS
 62
     3
 10
316.6983395871314997
 20
-49.4999999999997016
 30
0.000000000000011
 11
375.6983395871316134
 21
-49.4999999999997016
 31
0.000000000000011
210
0.0
220
1.0
230
-0.0000000000000002
  0
LINE
  5
17A0
  8
0
  6
CONTINUOUS
 62
     3
 10
317.8683395871311177
 20
-50.49999999999973
 30
0.0000000000000112
 11
374.528339587132109
 21
-50.49999999999973
 31
0.0000000000000112
210
0.0
220
1.0
230
-0.0000000000000002
  0
LINE
  5
17A1
  8
0
  6
CONTINUOUS
 62
     3
 10
316.6983395871314997
 20
-51.4999999999997016
 30
0.0000000000000114
 11
375.6983395871316134
 21
-51.4999999999997016
 31
0.0000000000000114
210
0.0
220
1.0
230
-0.0000000000000002
  0
LINE
  5
17A2
  8
0
  6
CONTINUOUS
 62
     3
 10
317.8683395871315156
 20
-52.49999999999973
 30
0.0000000000000117
 11
374.5283395871315975
 21
-52.49999999999973
 31
0.0000000000000117
210
0.0
220
1.0
230
-0.0000000000000002
  0
POLYLINE
  8
0
  5
1852
  62
3
  66
     1
 10
0.000000
 20
0.000000
 30
0.000000
  70
     8
  0
VERTEX
  8
0
  5
1853
 10
375.695
 20
7.28615
 30
-1.60000e-15
  70
    32
  0
VERTEX
  8
0
  5
1854
 10
375.695
 20
7.28617
 30
-1.60000e-15
  70
    32
  0
VERTEX
  8
0
  5
1855
 10
375.695
 20
7.28624
 30
-1.60000e-15
  70
    32
  0
VERTEX
  8
0
  5
1856
 10
375.695
 20
7.28635
 30
-1.60000e-15
  70
    32
  0
VERTEX
  8
0
  5
1857
 10
375.695
 20
7.28651
 30
-1.60001e-15
  70
    32
  0
VERTEX
  8
0
  5
1858
 10
375.695
 20
7.28672
 30
-1.60002e-15
  70
    32
  0
VERTEX
  8
0
  5
1859
 10
375.695
 20
7.28697
 30
-1.60003e-15
  70
    32
  0
VERTEX
  8
0
  5
185A
 10
375.695
 20
7.28726
 30
-1.60005e-15
  70
    32
  0
VERTEX
  8
0
  5
185B
 10
375.695
 20
7.28760
 30
-1.60007e-15
  70
    32
  0
VERTEX
  8
0
  5
185C
 10
375.695
 20
7.28798
 30
-1.60011e-15
  70
    32
  0
VERTEX
  8
0
  5
185D
 10
375.695
 20
7.28841
 30
-1.60015e-15
  70
    32
  0
VERTEX
  8
0
  5
185E
 10
375.695
 20
7.28889
 30
-1.60019e-15
  70
    32
  0
VERTEX
  8
0
  5
185F
 10
375.695
 20
7.28941
 30
-1.60025e-15
  70
    32
  0
VERTEX
  8
0
  5
1860
 10
375.695
 20
7.28997
 30
-1.60032e-15
  70
    32
  0
VERTEX
  8
0
  5
1861
 10
375.695
 20
7.29058
 30
-1.60040e-15
  70
    32
  0
VERTEX
  8
0
  5
1862
 10
375.695
 20
7.29124
 30
-1.60049e-15
  70
    32
  0
VERTEX
  8
0
  5
1863
 10
375.695
 20
7.29194
 30
-1.60060e-15
  70
    32
  0
VERTEX
  8
0
  5
1864
 10
375.695
 20
7.29268
 30
-1.60072e-15
  70
    32
  0
VERTEX
  8
0
  5
1865
 10
375.695
 20
7.29347
 30
-1.60085e-15
  70
    32
  0
VERTEX
  8
0
  5
1866
 10
375.695
 20
7.29431
 30
-1.60100e-15
  70
    32
  0
VERTEX
  8
0
  5
1867
 10
375.695
 20
7.29518
 30
-1.60117e-15
  70
    32
  0
VERTEX
  8
0
  5
1868
 10
375.695
 20
7.29611
 30
-1.60135e-15
  70
    32
  0
VERTEX
  8
0
  5
1869
 10
375.694
 20
7.29708
 30
-1.60156e-15
  70
    32
  0
VERTEX
  8
0
  5
186A
 10
375.694
 20
7.29809
 30
-1.60178e-15
  70
    32
  0
VERTEX
  8
0
  5
186B
 10
375.694
 20
7.29915
 30
-1.60202e-15
  70
    32
  0
VERTEX
  8
0
  5
186C
 10
375.694
 20
7.30025
 30
-1.60228e-15
  70
    32
  0
VERTEX
  8
0
  5
186D
 10
375.694
 20
7.30139
 30
-1.60257e-15
  70
    32
  0
VERTEX
  8
0
  5
186E
 10
375.694
 20
7.30259
 30
-1.60288e-15
  70
    32
  0
VERTEX
  8
0
  5
186F
 10
375.694
 20
7.30382
 30
-1.60321e-15
  70
    32
  0
VERTEX
  8
0
  5
1870
 10
375.694
 20
7.30510
 30
-1.60356e-15
  70
    32
  0
VERTEX
  8
0
  5
1871
 10
375.694
 20
7.30642
 30
-1.60394e-15
  70
    32
  0
VERTEX
  8
0
  5
1872
 10
375.694
 20
7.30779
 30
-1.60435e-15
  70
    32
  0
VERTEX
  8
0
  5
1873
 10
375.694
 20
7.30921
 30
-1.60479e-15
  70
    32
  0
VERTEX
  8
0
  5
1874
 10
375.693
 20
7.31066
 30
-1.60525e-15
  70
    32
  0
VERTEX
  8
0
  5
1875
 10
375.693
 20
7.31216
 30
-1.60574e-15
  70
    32
  0
VERTEX
  8
0
  5
1876
 10
375.693
 20
7.31371
 30
-1.60626e-15
  70
    32
  0
VERTEX
  8
0
  5
1877
 10
375.693
 20
7.31530
 30
-1.60682e-15
  70
    32
  0
VERTEX
  8
0
  5
1878
 10
375.693
 20
7.31693
 30
-1.60740e-15
  70
    32
  0
VERTEX
  8
0
  5
1879
 10
375.693
 20
7.31861
 30
-1.60802e-15
  70
    32
  0
VERTEX
  8
0
  5
187A
 10
375.693
 20
7.32033
 30
-1.60867e-15
  70
    32
  0
VERTEX
  8
0
  5
187B
 10
375.693
 20
7.32210
 30
-1.60935e-15
  70
    32
  0
VERTEX
  8
0
  5
187C
 10
375.692
 20
7.32391
 30
-1.61007e-15
  70
    32
  0
VERTEX
  8
0
  5
187D
 10
375.692
 20
7.32576
 30
-1.61082e-15
  70
    32
  0
VERTEX
  8
0
  5
187E
 10
375.692
 20
7.32766
 30
-1.61161e-15
  70
    32
  0
VERTEX
  8
0
  5
187F
 10
375.692
 20
7.32960
 30
-1.61244e-15
  70
    32
  0
VERTEX
  8
0
  5
1880
 10
375.692
 20
7.33159
 30
-1.61331e-15
  70
    32
  0
VERTEX
  8
0
  5
1881
 10
375.692
 20
7.33362
 30
-1.61422e-15
  70
    32
  0
VERTEX
  8
0
  5
1882
 10
375.692
 20
7.33569
 30
-1.61517e-15
  70
    32
  0
VERTEX
  8
0
  5
1883
 10
375.691
 20
7.33781
 30
-1.61615e-15
  70
    32
  0
VERTEX
  8
0
  5
1884
 10
375.691
 20
7.33997
 30
-1.61719e-15
  70
    32
  0
VERTEX
  8
0
  5
1885
 10
375.691
 20
7.34217
 30
-1.61826e-15
  70
    32
  0
VERTEX
  8
0
  5
1886
 10
375.691
 20
7.34442
 30
-1.61938e-15
  70
    32
  0
VERTEX
  8
0
  5
1887
 10
375.691
 20
7.34671
 30
-1.62054e-15
  70
    32
  0
VERTEX
  8
0
  5
1888
 10
375.691
 20
7.34904
 30
-1.62175e-15
  70
    32
  0
VERTEX
  8
0
  5
1889
 10
375.690
 20
7.35142
 30
-1.62300e-15
  70
    32
  0
VERTEX
  8
0
  5
188A
 10
375.690
 20
7.35384
 30
-1.62430e-15
  70
    32
  0
VERTEX
  8
0
  5
188B
 10
375.690
 20
7.35631
 30
-1.62565e-15
  70
    32
  0
VERTEX
  8
0
  5
188C
 10
375.690
 20
7.35882
 30
-1.62705e-15
  70
    32
  0
VERTEX
  8
0
  5
188D
 10
375.690
 20
7.36137
 30
-1.62850e-15
  70
    32
  0
VERTEX
  8
0
  5
188E
 10
375.689
 20
7.36397
 30
-1.63000e-15
  70
    32
  0
VERTEX
  8
0
  5
188F
 10
375.689
 20
7.36660
 30
-1.63155e-15
  70
    32
  0
VERTEX
  8
0
  5
1890
 10
375.689
 20
7.36929
 30
-1.63316e-15
  70
    32
  0
VERTEX
  8
0
  5
1891
 10
375.689
 20
7.37201
 30
-1.63481e-15
  70
    32
  0
VERTEX
  8
0
  5
1892
 10
375.689
 20
7.37478
 30
-1.63653e-15
  70
    32
  0
VERTEX
  8
0
  5
1893
 10
375.688
 20
7.37759
 30
-1.63829e-15
  70
    32
  0
VERTEX
  8
0
  5
1894
 10
375.688
 20
7.38045
 30
-1.64012e-15
  70
    32
  0
VERTEX
  8
0
  5
1895
 10
375.688
 20
7.38334
 30
-1.64200e-15
  70
    32
  0
VERTEX
  8
0
  5
1896
 10
375.688
 20
7.38628
 30
-1.64393e-15
  70
    32
  0
VERTEX
  8
0
  5
1897
 10
375.688
 20
7.38927
 30
-1.64593e-15
  70
    32
  0
VERTEX
  8
0
  5
1898
 10
375.687
 20
7.39229
 30
-1.64799e-15
  70
    32
  0
VERTEX
  8
0
  5
1899
 10
375.687
 20
7.39536
 30
-1.65009e-15
  70
    32
  0
VERTEX
  8
0
  5
189A
 10
375.687
 20
7.39848
 30
-1.65216e-15
  70
    32
  0
VERTEX
  8
0
  5
189B
 10
375.687
 20
7.40163
 30
-1.65417e-15
  70
    32
  0
VERTEX
  8
0
  5
189C
 10
375.686
 20
7.40483
 30
-1.65612e-15
  70
    32
  0
VERTEX
  8
0
  5
189D
 10
375.686
 20
7.40807
 30
-1.65801e-15
  70
    32
  0
VERTEX
  8
0
  5
189E
 10
375.686
 20
7.41135
 30
-1.65985e-15
  70
    32
  0
VERTEX
  8
0
  5
189F
 10
375.686
 20
7.41468
 30
-1.66163e-15
  70
    32
  0
VERTEX
  8
0
  5
18A0
 10
375.685
 20
7.41805
 30
-1.66336e-15
  70
    32
  0
VERTEX
  8
0
  5
18A1
 10
375.685
 20
7.42145
 30
-1.66504e-15
  70
    32
  0
VERTEX
  8
0
  5
18A2
 10
375.685
 20
7.42491
 30
-1.66667e-15
  70
    32
  0
VERTEX
  8
0
  5
18A3
 10
375.685
 20
7.42840
 30
-1.66824e-15
  70
    32
  0
VERTEX
  8
0
  5
18A4
 10
375.684
 20
7.43193
 30
-1.66977e-15
  70
    32
  0
VERTEX
  8
0
  5
18A5
 10
375.684
 20
7.43551
 30
-1.67124e-15
  70
    32
  0
VERTEX
  8
0
  5
18A6
 10
375.684
 20
7.43913
 30
-1.67267e-15
  70
    32
  0
VERTEX
  8
0
  5
18A7
 10
375.684
 20
7.44279
 30
-1.67405e-15
  70
    32
  0
VERTEX
  8
0
  5
18A8
 10
375.683
 20
7.44649
 30
-1.67538e-15
  70
    32
  0
VERTEX
  8
0
  5
18A9
 10
375.683
 20
7.45023
 30
-1.67666e-15
  70
    32
  0
VERTEX
  8
0
  5
18AA
 10
375.683
 20
7.45402
 30
-1.67790e-15
  70
    32
  0
VERTEX
  8
0
  5
18AB
 10
375.683
 20
7.45784
 30
-1.67910e-15
  70
    32
  0
VERTEX
  8
0
  5
18AC
 10
375.682
 20
7.46171
 30
-1.68025e-15
  70
    32
  0
VERTEX
  8
0
  5
18AD
 10
375.682
 20
7.46562
 30
-1.68135e-15
  70
    32
  0
VERTEX
  8
0
  5
18AE
 10
375.682
 20
7.46956
 30
-1.68242e-15
  70
    32
  0
VERTEX
  8
0
  5
18AF
 10
375.681
 20
7.47355
 30
-1.68344e-15
  70
    32
  0
VERTEX
  8
0
  5
18B0
 10
375.681
 20
7.47758
 30
-1.68443e-15
  70
    32
  0
VERTEX
  8
0
  5
18B1
 10
375.681
 20
7.48165
 30
-1.68537e-15
  70
    32
  0
VERTEX
  8
0
  5
18B2
 10
375.681
 20
7.48576
 30
-1.68628e-15
  70
    32
  0
VERTEX
  8
0
  5
18B3
 10
375.680
 20
7.48991
 30
-1.68714e-15
  70
    32
  0
VERTEX
  8
0
  5
18B4
 10
375.680
 20
7.49410
 30
-1.68797e-15
  70
    32
  0
VERTEX
  8
0
  5
18B5
 10
375.680
 20
7.49833
 30
-1.68877e-15
  70
    32
  0
VERTEX
  8
0
  5
18B6
 10
375.679
 20
7.50260
 30
-1.68952e-15
  70
    32
  0
VERTEX
  8
0
  5
18B7
 10
375.679
 20
7.50691
 30
-1.69025e-15
  70
    32
  0
VERTEX
  8
0
  5
18B8
 10
375.679
 20
7.51126
 30
-1.69093e-15
  70
    32
  0
VERTEX
  8
0
  5
18B9
 10
375.678
 20
7.51565
 30
-1.69159e-15
  70
    32
  0
VERTEX
  8
0
  5
18BA
 10
375.678
 20
7.52008
 30
-1.69221e-15
  70
    32
  0
VERTEX
  8
0
  5
18BB
 10
375.678
 20
7.52455
 30
-1.69280e-15
  70
    32
  0
VERTEX
  8
0
  5
18BC
 10
375.677
 20
7.52906
 30
-1.69336e-15
  70
    32
  0
VERTEX
  8
0
  5
18BD
 10
375.677
 20
7.53361
 30
-1.69390e-15
  70
    32
  0
VERTEX
  8
0
  5
18BE
 10
375.677
 20
7.53819
 30
-1.69440e-15
  70
    32
  0
VERTEX
  8
0
  5
18BF
 10
375.677
 20
7.54282
 30
-1.69487e-15
  70
    32
  0
VERTEX
  8
0
  5
18C0
 10
375.676
 20
7.54748
 30
-1.69532e-15
  70
    32
  0
VERTEX
  8
0
  5
18C1
 10
375.676
 20
7.55219
 30
-1.69574e-15
  70
    32
  0
VERTEX
  8
0
  5
18C2
 10
375.676
 20
7.55693
 30
-1.69613e-15
  70
    32
  0
VERTEX
  8
0
  5
18C3
 10
375.675
 20
7.56171
 30
-1.69650e-15
  70
    32
  0
VERTEX
  8
0
  5
18C4
 10
375.675
 20
7.56653
 30
-1.69684e-15
  70
    32
  0
VERTEX
  8
0
  5
18C5
 10
375.675
 20
7.57139
 30
-1.69716e-15
  70
    32
  0
VERTEX
  8
0
  5
18C6
 10
375.674
 20
7.57629
 30
-1.69746e-15
  70
    32
  0
VERTEX
  8
0
  5
18C7
 10
375.674
 20
7.58122
 30
-1.69774e-15
  70
    32
  0
VERTEX
  8
0
  5
18C8
 10
375.674
 20
7.58620
 30
-1.69799e-15
  70
    32
  0
VERTEX
  8
0
  5
18C9
 10
375.673
 20
7.59121
 30
-1.69823e-15
  70
    32
  0
VERTEX
  8
0
  5
18CA
 10
375.673
 20
7.59626
 30
-1.69845e-15
  70
    32
  0
VERTEX
  8
0
  5
18CB
 10
375.673
 20
7.60134
 30
-1.69864e-15
  70
    32
  0
VERTEX
  8
0
  5
18CC
 10
375.672
 20
7.60647
 30
-1.69883e-15
  70
    32
  0
VERTEX
  8
0
  5
18CD
 10
375.672
 20
7.61163
 30
-1.69899e-15
  70
    32
  0
VERTEX
  8
0
  5
18CE
 10
375.672
 20
7.61683
 30
-1.69914e-15
  70
    32
  0
VERTEX
  8
0
  5
18CF
 10
375.671
 20
7.62207
 30
-1.69927e-15
  70
    32
  0
VERTEX
  8
0
  5
18D0
 10
375.671
 20
7.62734
 30
-1.69939e-15
  70
    32
  0
VERTEX
  8
0
  5
18D1
 10
375.671
 20
7.63266
 30
-1.69949e-15
  70
    32
  0
VERTEX
  8
0
  5
18D2
 10
375.670
 20
7.63801
 30
-1.69958e-15
  70
    32
  0
VERTEX
  8
0
  5
18D3
 10
375.670
 20
7.64339
 30
-1.69966e-15
  70
    32
  0
VERTEX
  8
0
  5
18D4
 10
375.669
 20
7.64882
 30
-1.69973e-15
  70
    32
  0
VERTEX
  8
0
  5
18D5
 10
375.669
 20
7.65428
 30
-1.69979e-15
  70
    32
  0
VERTEX
  8
0
  5
18D6
 10
375.669
 20
7.65978
 30
-1.69984e-15
  70
    32
  0
VERTEX
  8
0
  5
18D7
 10
375.668
 20
7.66531
 30
-1.69988e-15
  70
    32
  0
VERTEX
  8
0
  5
18D8
 10
375.668
 20
7.67088
 30
-1.69992e-15
  70
    32
  0
VERTEX
  8
0
  5
18D9
 10
375.668
 20
7.67649
 30
-1.69994e-15
  70
    32
  0
VERTEX
  8
0
  5
18DA
 10
375.667
 20
7.68213
 30
-1.69996e-15
  70
    32
  0
VERTEX
  8
0
  5
18DB
 10
375.667
 20
7.68781
 30
-1.69998e-15
  70
    32
  0
VERTEX
  8
0
  5
18DC
 10
375.667
 20
7.69353
 30
-1.69999e-15
  70
    32
  0
VERTEX
  8
0
  5
18DD
 10
375.666
 20
7.69928
 30
-1.69999e-15
  70
    32
  0
VERTEX
  8
0
  5
18DE
 10
375.666
 20
7.70507
 30
-1.70000e-15
  70
    32
  0
VERTEX
  8
0
  5
18DF
 10
375.666
 20
7.71089
 30
-1.70000e-15
  70
    32
  0
VERTEX
  8
0
  5
18E0
 10
375.665
 20
7.71675
 30
-1.70000e-15
  70
    32
  0
VERTEX
  8
0
  5
18E1
 10
375.665
 20
7.72265
 30
-1.70002e-15
  70
    32
  0
VERTEX
  8
0
  5
18E2
 10
375.664
 20
7.72858
 30
-1.70013e-15
  70
    32
  0
VERTEX
  8
0
  5
18E3
 10
375.664
 20
7.73454
 30
-1.70036e-15
  70
    32
  0
VERTEX
  8
0
  5
18E4
 10
375.664
 20
7.74054
 30
-1.70070e-15
  70
    32
  0
VERTEX
  8
0
  5
18E5
 10
375.663
 20
7.74658
 30
-1.70115e-15
  70
    32
  0
VERTEX
  8
0
  5
18E6
 10
375.663
 20
7.75265
 30
-1.70170e-15
  70
    32
  0
VERTEX
  8
0
  5
18E7
 10
375.663
 20
7.75876
 30
-1.70236e-15
  70
    32
  0
VERTEX
  8
0
  5
18E8
 10
375.662
 20
7.76490
 30
-1.70312e-15
  70
    32
  0
VERTEX
  8
0
  5
18E9
 10
375.662
 20
7.77107
 30
-1.70397e-15
  70
    32
  0
VERTEX
  8
0
  5
18EA
 10
375.661
 20
7.77728
 30
-1.70493e-15
  70
    32
  0
VERTEX
  8
0
  5
18EB
 10
375.661
 20
7.78352
 30
-1.70597e-15
  70
    32
  0
VERTEX
  8
0
  5
18EC
 10
375.661
 20
7.78980
 30
-1.70711e-15
  70
    32
  0
VERTEX
  8
0
  5
18ED
 10
375.660
 20
7.79611
 30
-1.70833e-15
  70
    32
  0
VERTEX
  8
0
  5
18EE
 10
375.660
 20
7.80246
 30
-1.70964e-15
  70
    32
  0
VERTEX
  8
0
  5
18EF
 10
375.660
 20
7.80883
 30
-1.71104e-15
  70
    32
  0
VERTEX
  8
0
  5
18F0
 10
375.659
 20
7.81525
 30
-1.71251e-15
  70
    32
  0
VERTEX
  8
0
  5
18F1
 10
375.659
 20
7.82169
 30
-1.71407e-15
  70
    32
  0
VERTEX
  8
0
  5
18F2
 10
375.658
 20
7.82817
 30
-1.71570e-15
  70
    32
  0
VERTEX
  8
0
  5
18F3
 10
375.658
 20
7.83468
 30
-1.71740e-15
  70
    32
  0
VERTEX
  8
0
  5
18F4
 10
375.658
 20
7.84122
 30
-1.71918e-15
  70
    32
  0
VERTEX
  8
0
  5
18F5
 10
375.657
 20
7.84780
 30
-1.72102e-15
  70
    32
  0
VERTEX
  8
0
  5
18F6
 10
375.657
 20
7.85441
 30
-1.72294e-15
  70
    32
  0
VERTEX
  8
0
  5
18F7
 10
375.656
 20
7.86105
 30
-1.72491e-15
  70
    32
  0
VERTEX
  8
0
  5
18F8
 10
375.656
 20
7.86772
 30
-1.72695e-15
  70
    32
  0
VERTEX
  8
0
  5
18F9
 10
375.656
 20
7.87442
 30
-1.72905e-15
  70
    32
  0
VERTEX
  8
0
  5
18FA
 10
375.655
 20
7.88116
 30
-1.73120e-15
  70
    32
  0
VERTEX
  8
0
  5
18FB
 10
375.655
 20
7.88793
 30
-1.73341e-15
  70
    32
  0
VERTEX
  8
0
  5
18FC
 10
375.655
 20
7.89473
 30
-1.73567e-15
  70
    32
  0
VERTEX
  8
0
  5
18FD
 10
375.654
 20
7.90156
 30
-1.73798e-15
  70
    32
  0
VERTEX
  8
0
  5
18FE
 10
375.654
 20
7.90842
 30
-1.74034e-15
  70
    32
  0
VERTEX
  8
0
  5
18FF
 10
375.653
 20
7.91532
 30
-1.74274e-15
  70
    32
  0
VERTEX
  8
0
  5
1900
 10
375.653
 20
7.92224
 30
-1.74518e-15
  70
    32
  0
VERTEX
  8
0
  5
1901
 10
375.653
 20
7.92920
 30
-1.74767e-15
  70
    32
  0
VERTEX
  8
0
  5
1902
 10
375.652
 20
7.93618
 30
-1.75019e-15
  70
    32
  0
VERTEX
  8
0
  5
1903
 10
375.652
 20
7.94320
 30
-1.75274e-15
  70
    32
  0
VERTEX
  8
0
  5
1904
 10
375.651
 20
7.95025
 30
-1.75533e-15
  70
    32
  0
VERTEX
  8
0
  5
1905
 10
375.651
 20
7.95733
 30
-1.75795e-15
  70
    32
  0
VERTEX
  8
0
  5
1906
 10
375.651
 20
7.96443
 30
-1.76060e-15
  70
    32
  0
VERTEX
  8
0
  5
1907
 10
375.650
 20
7.97157
 30
-1.76327e-15
  70
    32
  0
VERTEX
  8
0
  5
1908
 10
375.650
 20
7.97874
 30
-1.76596e-15
  70
    32
  0
VERTEX
  8
0
  5
1909
 10
375.650
 20
7.98594
 30
-1.76868e-15
  70
    32
  0
VERTEX
  8
0
  5
190A
 10
375.649
 20
7.99316
 30
-1.77141e-15
  70
    32
  0
VERTEX
  8
0
  5
190B
 10
375.649
 20
8.00042
 30
-1.77416e-15
  70
    32
  0
VERTEX
  8
0
  5
190C
 10
375.648
 20
8.00771
 30
-1.77692e-15
  70
    32
  0
VERTEX
  8
0
  5
190D
 10
375.648
 20
8.01502
 30
-1.77969e-15
  70
    32
  0
VERTEX
  8
0
  5
190E
 10
375.648
 20
8.02236
 30
-1.78247e-15
  70
    32
  0
VERTEX
  8
0
  5
190F
 10
375.647
 20
8.02974
 30
-1.78526e-15
  70
    32
  0
VERTEX
  8
0
  5
1910
 10
375.647
 20
8.03714
 30
-1.78805e-15
  70
    32
  0
VERTEX
  8
0
  5
1911
 10
375.647
 20
8.04457
 30
-1.79084e-15
  70
    32
  0
VERTEX
  8
0
  5
1912
 10
375.646
 20
8.05203
 30
-1.79363e-15
  70
    32
  0
VERTEX
  8
0
  5
1913
 10
375.646
 20
8.05951
 30
-1.79641e-15
  70
    32
  0
VERTEX
  8
0
  5
1914
 10
375.645
 20
8.06703
 30
-1.79919e-15
  70
    32
  0
VERTEX
  8
0
  5
1915
 10
375.645
 20
8.07457
 30
-1.80196e-15
  70
    32
  0
VERTEX
  8
0
  5
1916
 10
375.645
 20
8.08214
 30
-1.80471e-15
  70
    32
  0
VERTEX
  8
0
  5
1917
 10
375.644
 20
8.08974
 30
-1.80746e-15
  70
    32
  0
VERTEX
  8
0
  5
1918
 10
375.644
 20
8.09736
 30
-1.81019e-15
  70
    32
  0
VERTEX
  8
0
  5
1919
 10
375.643
 20
8.10501
 30
-1.81289e-15
  70
    32
  0
VERTEX
  8
0
  5
191A
 10
375.643
 20
8.11269
 30
-1.81558e-15
  70
    32
  0
VERTEX
  8
0
  5
191B
 10
375.643
 20
8.12040
 30
-1.81825e-15
  70
    32
  0
VERTEX
  8
0
  5
191C
 10
375.642
 20
8.12813
 30
-1.82089e-15
  70
    32
  0
VERTEX
  8
0
  5
191D
 10
375.642
 20
8.13589
 30
-1.82350e-15
  70
    32
  0
VERTEX
  8
0
  5
191E
 10
375.642
 20
8.14368
 30
-1.82607e-15
  70
    32
  0
VERTEX
  8
0
  5
191F
 10
375.641
 20
8.15149
 30
-1.82862e-15
  70
    32
  0
VERTEX
  8
0
  5
1920
 10
375.641
 20
8.15933
 30
-1.83113e-15
  70
    32
  0
VERTEX
  8
0
  5
1921
 10
375.641
 20
8.16720
 30
-1.83360e-15
  70
    32
  0
VERTEX
  8
0
  5
1922
 10
375.640
 20
8.17509
 30
-1.83603e-15
  70
    32
  0
VERTEX
  8
0
  5
1923
 10
375.640
 20
8.18301
 30
-1.83842e-15
  70
    32
  0
VERTEX
  8
0
  5
1924
 10
375.639
 20
8.19095
 30
-1.84077e-15
  70
    32
  0
VERTEX
  8
0
  5
1925
 10
375.639
 20
8.19892
 30
-1.84306e-15
  70
    32
  0
VERTEX
  8
0
  5
1926
 10
375.639
 20
8.20692
 30
-1.84531e-15
  70
    32
  0
VERTEX
  8
0
  5
1927
 10
375.638
 20
8.21494
 30
-1.84750e-15
  70
    32
  0
VERTEX
  8
0
  5
1928
 10
375.638
 20
8.22298
 30
-1.84964e-15
  70
    32
  0
VERTEX
  8
0
  5
1929
 10
375.638
 20
8.23105
 30
-1.85172e-15
  70
    32
  0
VERTEX
  8
0
  5
192A
 10
375.637
 20
8.23915
 30
-1.85374e-15
  70
    32
  0
VERTEX
  8
0
  5
192B
 10
375.637
 20
8.24726
 30
-1.85571e-15
  70
    32
  0
VERTEX
  8
0
  5
192C
 10
375.637
 20
8.25541
 30
-1.85762e-15
  70
    32
  0
VERTEX
  8
0
  5
192D
 10
375.636
 20
8.26358
 30
-1.85948e-15
  70
    32
  0
VERTEX
  8
0
  5
192E
 10
375.636
 20
8.27177
 30
-1.86129e-15
  70
    32
  0
VERTEX
  8
0
  5
192F
 10
375.635
 20
8.27998
 30
-1.86305e-15
  70
    32
  0
VERTEX
  8
0
  5
1930
 10
375.635
 20
8.28822
 30
-1.86476e-15
  70
    32
  0
VERTEX
  8
0
  5
1931
 10
375.635
 20
8.29648
 30
-1.86643e-15
  70
    32
  0
VERTEX
  8
0
  5
1932
 10
375.634
 20
8.30477
 30
-1.86805e-15
  70
    32
  0
VERTEX
  8
0
  5
1933
 10
375.634
 20
8.31308
 30
-1.86963e-15
  70
    32
  0
VERTEX
  8
0
  5
1934
 10
375.634
 20
8.32141
 30
-1.87117e-15
  70
    32
  0
VERTEX
  8
0
  5
1935
 10
375.633
 20
8.32977
 30
-1.87267e-15
  70
    32
  0
VERTEX
  8
0
  5
1936
 10
375.633
 20
8.33814
 30
-1.87413e-15
  70
    32
  0
VERTEX
  8
0
  5
1937
 10
375.633
 20
8.34654
 30
-1.87555e-15
  70
    32
  0
VERTEX
  8
0
  5
1938
 10
375.632
 20
8.35497
 30
-1.87695e-15
  70
    32
  0
VERTEX
  8
0
  5
1939
 10
375.632
 20
8.36341
 30
-1.87830e-15
  70
    32
  0
VERTEX
  8
0
  5
193A
 10
375.632
 20
8.37188
 30
-1.87963e-15
  70
    32
  0
VERTEX
  8
0
  5
193B
 10
375.631
 20
8.38037
 30
-1.88093e-15
  70
    32
  0
VERTEX
  8
0
  5
193C
 10
375.631
 20
8.38888
 30
-1.88220e-15
  70
    32
  0
VERTEX
  8
0
  5
193D
 10
375.631
 20
8.39741
 30
-1.88345e-15
  70
    32
  0
VERTEX
  8
0
  5
193E
 10
375.630
 20
8.40596
 30
-1.88467e-15
  70
    32
  0
VERTEX
  8
0
  5
193F
 10
375.630
 20
8.41453
 30
-1.88586e-15
  70
    32
  0
VERTEX
  8
0
  5
1940
 10
375.630
 20
8.42313
 30
-1.88704e-15
  70
    32
  0
VERTEX
  8
0
  5
1941
 10
375.629
 20
8.43174
 30
-1.88820e-15
  70
    32
  0
VERTEX
  8
0
  5
1942
 10
375.629
 20
8.44038
 30
-1.88933e-15
  70
    32
  0
VERTEX
  8
0
  5
1943
 10
375.629
 20
8.44903
 30
-1.89046e-15
  70
    32
  0
VERTEX
  8
0
  5
1944
 10
375.628
 20
8.45771
 30
-1.89156e-15
  70
    32
  0
VERTEX
  8
0
  5
1945
 10
375.628
 20
8.46640
 30
-1.89266e-15
  70
    32
  0
VERTEX
  8
0
  5
1946
 10
375.628
 20
8.47512
 30
-1.89374e-15
  70
    32
  0
VERTEX
  8
0
  5
1947
 10
375.627
 20
8.48386
 30
-1.89482e-15
  70
    32
  0
VERTEX
  8
0
  5
1948
 10
375.627
 20
8.49261
 30
-1.89588e-15
  70
    32
  0
VERTEX
  8
0
  5
1949
 10
375.627
 20
8.50139
 30
-1.89694e-15
  70
    32
  0
VERTEX
  8
0
  5
194A
 10
375.627
 20
8.51018
 30
-1.89800e-15
  70
    32
  0
VERTEX
  8
0
  5
194B
 10
375.626
 20
8.51899
 30
-1.89905e-15
  70
    32
  0
VERTEX
  8
0
  5
194C
 10
375.626
 20
8.52782
 30
-1.90010e-15
  70
    32
  0
VERTEX
  8
0
  5
194D
 10
375.626
 20
8.53667
 30
-1.90115e-15
  70
    32
  0
VERTEX
  8
0
  5
194E
 10
375.625
 20
8.54554
 30
-1.90220e-15
  70
    32
  0
VERTEX
  8
0
  5
194F
 10
375.625
 20
8.55443
 30
-1.90326e-15
  70
    32
  0
VERTEX
  8
0
  5
1950
 10
375.625
 20
8.56333
 30
-1.90432e-15
  70
    32
  0
VERTEX
  8
0
  5
1951
 10
375.624
 20
8.57225
 30
-1.90539e-15
  70
    32
  0
VERTEX
  8
0
  5
1952
 10
375.624
 20
8.58120
 30
-1.90646e-15
  70
    32
  0
VERTEX
  8
0
  5
1953
 10
375.624
 20
8.59015
 30
-1.90755e-15
  70
    32
  0
VERTEX
  8
0
  5
1954
 10
375.624
 20
8.59913
 30
-1.90865e-15
  70
    32
  0
VERTEX
  8
0
  5
1955
 10
375.623
 20
8.60812
 30
-1.90976e-15
  70
    32
  0
VERTEX
  8
0
  5
1956
 10
375.623
 20
8.61713
 30
-1.91089e-15
  70
    32
  0
VERTEX
  8
0
  5
1957
 10
375.623
 20
8.62616
 30
-1.91203e-15
  70
    32
  0
VERTEX
  8
0
  5
1958
 10
375.622
 20
8.63520
 30
-1.91319e-15
  70
    32
  0
VERTEX
  8
0
  5
1959
 10
375.622
 20
8.64426
 30
-1.91438e-15
  70
    32
  0
VERTEX
  8
0
  5
195A
 10
375.622
 20
8.65334
 30
-1.91558e-15
  70
    32
  0
VERTEX
  8
0
  5
195B
 10
375.622
 20
8.66243
 30
-1.91681e-15
  70
    32
  0
VERTEX
  8
0
  5
195C
 10
375.621
 20
8.67154
 30
-1.91806e-15
  70
    32
  0
VERTEX
  8
0
  5
195D
 10
375.621
 20
8.68066
 30
-1.91934e-15
  70
    32
  0
VERTEX
  8
0
  5
195E
 10
375.621
 20
8.68980
 30
-1.92065e-15
  70
    32
  0
VERTEX
  8
0
  5
195F
 10
375.621
 20
8.69896
 30
-1.92198e-15
  70
    32
  0
VERTEX
  8
0
  5
1960
 10
375.620
 20
8.70813
 30
-1.92335e-15
  70
    32
  0
VERTEX
  8
0
  5
1961
 10
375.620
 20
8.71732
 30
-1.92475e-15
  70
    32
  0
VERTEX
  8
0
  5
1962
 10
375.620
 20
8.72652
 30
-1.92619e-15
  70
    32
  0
VERTEX
  8
0
  5
1963
 10
375.620
 20
8.73573
 30
-1.92766e-15
  70
    32
  0
VERTEX
  8
0
  5
1964
 10
375.619
 20
8.74496
 30
-1.92917e-15
  70
    32
  0
VERTEX
  8
0
  5
1965
 10
375.619
 20
8.75421
 30
-1.93072e-15
  70
    32
  0
VERTEX
  8
0
  5
1966
 10
375.619
 20
8.76347
 30
-1.93232e-15
  70
    32
  0
VERTEX
  8
0
  5
1967
 10
375.619
 20
8.77274
 30
-1.93395e-15
  70
    32
  0
VERTEX
  8
0
  5
1968
 10
375.618
 20
8.78203
 30
-1.93563e-15
  70
    32
  0
VERTEX
  8
0
  5
1969
 10
375.618
 20
8.79133
 30
-1.93736e-15
  70
    32
  0
VERTEX
  8
0
  5
196A
 10
375.618
 20
8.80064
 30
-1.93913e-15
  70
    32
  0
VERTEX
  8
0
  5
196B
 10
375.618
 20
8.80997
 30
-1.94096e-15
  70
    32
  0
VERTEX
  8
0
  5
196C
 10
375.617
 20
8.81931
 30
-1.94283e-15
  70
    32
  0
VERTEX
  8
0
  5
196D
 10
375.617
 20
8.82867
 30
-1.94476e-15
  70
    32
  0
VERTEX
  8
0
  5
196E
 10
375.617
 20
8.83803
 30
-1.94674e-15
  70
    32
  0
VERTEX
  8
0
  5
196F
 10
375.617
 20
8.84741
 30
-1.94878e-15
  70
    32
  0
VERTEX
  8
0
  5
1970
 10
375.617
 20
8.85681
 30
-1.95088e-15
  70
    32
  0
VERTEX
  8
0
  5
1971
 10
375.616
 20
8.86621
 30
-1.95304e-15
  70
    32
  0
VERTEX
  8
0
  5
1972
 10
375.616
 20
8.87563
 30
-1.95525e-15
  70
    32
  0
VERTEX
  8
0
  5
1973
 10
375.616
 20
8.88506
 30
-1.95752e-15
  70
    32
  0
VERTEX
  8
0
  5
1974
 10
375.616
 20
8.89450
 30
-1.95984e-15
  70
    32
  0
VERTEX
  8
0
  5
1975
 10
375.616
 20
8.90395
 30
-1.96222e-15
  70
    32
  0
VERTEX
  8
0
  5
1976
 10
375.615
 20
8.91341
 30
-1.96464e-15
  70
    32
  0
VERTEX
  8
0
  5
1977
 10
375.615
 20
8.92289
 30
-1.96712e-15
  70
    32
  0
VERTEX
  8
0
  5
1978
 10
375.615
 20
8.93238
 30
-1.96964e-15
  70
    32
  0
VERTEX
  8
0
  5
1979
 10
375.615
 20
8.94187
 30
-1.97221e-15
  70
    32
  0
VERTEX
  8
0
  5
197A
 10
375.615
 20
8.95138
 30
-1.97482e-15
  70
    32
  0
VERTEX
  8
0
  5
197B
 10
375.614
 20
8.96090
 30
-1.97747e-15
  70
    32
  0
VERTEX
  8
0
  5
197C
 10
375.614
 20
8.97043
 30
-1.98016e-15
  70
    32
  0
VERTEX
  8
0
  5
197D
 10
375.614
 20
8.97996
 30
-1.98290e-15
  70
    32
  0
VERTEX
  8
0
  5
197E
 10
375.614
 20
8.98951
 30
-1.98567e-15
  70
    32
  0
VERTEX
  8
0
  5
197F
 10
375.614
 20
8.99907
 30
-1.98847e-15
  70
    32
  0
VERTEX
  8
0
  5
1980
 10
375.614
 20
9.00864
 30
-1.99131e-15
  70
    32
  0
VERTEX
  8
0
  5
1981
 10
375.613
 20
9.01822
 30
-1.99418e-15
  70
    32
  0
VERTEX
  8
0
  5
1982
 10
375.613
 20
9.02780
 30
-1.99708e-15
  70
    32
  0
VERTEX
  8
0
  5
1983
 10
375.613
 20
9.03740
 30
-2.00001e-15
  70
    32
  0
VERTEX
  8
0
  5
1984
 10
375.613
 20
9.04700
 30
-2.00297e-15
  70
    32
  0
VERTEX
  8
0
  5
1985
 10
375.613
 20
9.05661
 30
-2.00596e-15
  70
    32
  0
VERTEX
  8
0
  5
1986
 10
375.613
 20
9.06623
 30
-2.00896e-15
  70
    32
  0
VERTEX
  8
0
  5
1987
 10
375.613
 20
9.07586
 30
-2.01199e-15
  70
    32
  0
VERTEX
  8
0
  5
1988
 10
375.612
 20
9.08550
 30
-2.01504e-15
  70
    32
  0
VERTEX
  8
0
  5
1989
 10
375.612
 20
9.09515
 30
-2.01811e-15
  70
    32
  0
VERTEX
  8
0
  5
198A
 10
375.612
 20
9.10480
 30
-2.02120e-15
  70
    32
  0
VERTEX
  8
0
  5
198B
 10
375.612
 20
9.11446
 30
-2.02430e-15
  70
    32
  0
VERTEX
  8
0
  5
198C
 10
375.612
 20
9.12413
 30
-2.02741e-15
  70
    32
  0
VERTEX
  8
0
  5
198D
 10
375.612
 20
9.13380
 30
-2.03054e-15
  70
    32
  0
VERTEX
  8
0
  5
198E
 10
375.612
 20
9.14348
 30
-2.03368e-15
  70
    32
  0
VERTEX
  8
0
  5
198F
 10
375.611
 20
9.15317
 30
-2.03682e-15
  70
    32
  0
VERTEX
  8
0
  5
1990
 10
375.611
 20
9.16287
 30
-2.03998e-15
  70
    32
  0
VERTEX
  8
0
  5
1991
 10
375.611
 20
9.17257
 30
-2.04313e-15
  70
    32
  0
VERTEX
  8
0
  5
1992
 10
375.611
 20
9.18228
 30
-2.04630e-15
  70
    32
  0
VERTEX
  8
0
  5
1993
 10
375.611
 20
9.19199
 30
-2.04946e-15
  70
    32
  0
VERTEX
  8
0
  5
1994
 10
375.611
 20
9.20171
 30
-2.05263e-15
  70
    32
  0
VERTEX
  8
0
  5
1995
 10
375.611
 20
9.21143
 30
-2.05579e-15
  70
    32
  0
VERTEX
  8
0
  5
1996
 10
375.611
 20
9.22116
 30
-2.05895e-15
  70
    32
  0
VERTEX
  8
0
  5
1997
 10
375.611
 20
9.23090
 30
-2.06211e-15
  70
    32
  0
VERTEX
  8
0
  5
1998
 10
375.611
 20
9.24064
 30
-2.06525e-15
  70
    32
  0
VERTEX
  8
0
  5
1999
 10
375.610
 20
9.25039
 30
-2.06840e-15
  70
    32
  0
VERTEX
  8
0
  5
199A
 10
375.610
 20
9.26014
 30
-2.07153e-15
  70
    32
  0
VERTEX
  8
0
  5
199B
 10
375.610
 20
9.26989
 30
-2.07465e-15
  70
    32
  0
VERTEX
  8
0
  5
199C
 10
375.610
 20
9.27965
 30
-2.07776e-15
  70
    32
  0
VERTEX
  8
0
  5
199D
 10
375.610
 20
9.28942
 30
-2.08085e-15
  70
    32
  0
VERTEX
  8
0
  5
199E
 10
375.610
 20
9.29918
 30
-2.08393e-15
  70
    32
  0
VERTEX
  8
0
  5
199F
 10
375.610
 20
9.30896
 30
-2.08699e-15
  70
    32
  0
VERTEX
  8
0
  5
19A0
 10
375.610
 20
9.31873
 30
-2.09002e-15
  70
    32
  0
VERTEX
  8
0
  5
19A1
 10
375.610
 20
9.32851
 30
-2.09304e-15
  70
    32
  0
VERTEX
  8
0
  5
19A2
 10
375.610
 20
9.33829
 30
-2.09604e-15
  70
    32
  0
VERTEX
  8
0
  5
19A3
 10
375.610
 20
9.34808
 30
-2.09901e-15
  70
    32
  0
VERTEX
  8
0
  5
19A4
 10
375.610
 20
9.35786
 30
-2.10195e-15
  70
    32
  0
VERTEX
  8
0
  5
19A5
 10
375.610
 20
9.36765
 30
-2.10487e-15
  70
    32
  0
VERTEX
  8
0
  5
19A6
 10
375.610
 20
9.37745
 30
-2.10775e-15
  70
    32
  0
VERTEX
  8
0
  5
19A7
 10
375.610
 20
9.38724
 30
-2.11061e-15
  70
    32
  0
VERTEX
  8
0
  5
19A8
 10
375.610
 20
9.39704
 30
-2.11343e-15
  70
    32
  0
VERTEX
  8
0
  5
19A9
 10
375.610
 20
9.40684
 30
-2.11621e-15
  70
    32
  0
VERTEX
  8
0
  5
19AA
 10
375.609
 20
9.41664
 30
-2.11897e-15
  70
    32
  0
VERTEX
  8
0
  5
19AB
 10
375.609
 20
9.42644
 30
-2.12168e-15
  70
    32
  0
VERTEX
  8
0
  5
19AC
 10
375.609
 20
9.43625
 30
-2.12435e-15
  70
    32
  0
VERTEX
  8
0
  5
19AD
 10
375.609
 20
9.44605
 30
-2.12698e-15
  70
    32
  0
VERTEX
  8
0
  5
19AE
 10
375.609
 20
9.45586
 30
-2.12957e-15
  70
    32
  0
VERTEX
  8
0
  5
19AF
 10
375.609
 20
9.46567
 30
-2.13211e-15
  70
    32
  0
VERTEX
  8
0
  5
19B0
 10
375.609
 20
9.47547
 30
-2.13461e-15
  70
    32
  0
VERTEX
  8
0
  5
19B1
 10
375.609
 20
9.48528
 30
-2.13706e-15
  70
    32
  0
VERTEX
  8
0
  5
19B2
 10
375.609
 20
9.49509
 30
-2.13946e-15
  70
    32
  0
VERTEX
  8
0
  5
19B3
 10
375.609
 20
9.50490
 30
-2.14180e-15
  70
    32
  0
VERTEX
  8
0
  5
19B4
 10
375.609
 20
9.51471
 30
-2.14410e-15
  70
    32
  0
VERTEX
  8
0
  5
19B5
 10
375.609
 20
9.52451
 30
-2.14634e-15
  70
    32
  0
VERTEX
  8
0
  5
19B6
 10
375.609
 20
9.53432
 30
-2.14852e-15
  70
    32
  0
VERTEX
  8
0
  5
19B7
 10
375.609
 20
9.54413
 30
-2.15065e-15
  70
    32
  0
VERTEX
  8
0
  5
19B8
 10
375.609
 20
9.55394
 30
-2.15271e-15
  70
    32
  0
VERTEX
  8
0
  5
19B9
 10
375.609
 20
9.56374
 30
-2.15472e-15
  70
    32
  0
VERTEX
  8
0
  5
19BA
 10
375.609
 20
9.57354
 30
-2.15667e-15
  70
    32
  0
VERTEX
  8
0
  5
19BB
 10
375.609
 20
9.58335
 30
-2.15857e-15
  70
    32
  0
VERTEX
  8
0
  5
19BC
 10
375.610
 20
9.59315
 30
-2.16042e-15
  70
    32
  0
VERTEX
  8
0
  5
19BD
 10
375.610
 20
9.60295
 30
-2.16222e-15
  70
    32
  0
VERTEX
  8
0
  5
19BE
 10
375.610
 20
9.61274
 30
-2.16396e-15
  70
    32
  0
VERTEX
  8
0
  5
19BF
 10
375.610
 20
9.62254
 30
-2.16566e-15
  70
    32
  0
VERTEX
  8
0
  5
19C0
 10
375.610
 20
9.63233
 30
-2.16732e-15
  70
    32
  0
VERTEX
  8
0
  5
19C1
 10
375.610
 20
9.64212
 30
-2.16893e-15
  70
    32
  0
VERTEX
  8
0
  5
19C2
 10
375.610
 20
9.65191
 30
-2.17050e-15
  70
    32
  0
VERTEX
  8
0
  5
19C3
 10
375.610
 20
9.66170
 30
-2.17202e-15
  70
    32
  0
VERTEX
  8
0
  5
19C4
 10
375.610
 20
9.67148
 30
-2.17351e-15
  70
    32
  0
VERTEX
  8
0
  5
19C5
 10
375.610
 20
9.68126
 30
-2.17496e-15
  70
    32
  0
VERTEX
  8
0
  5
19C6
 10
375.610
 20
9.69103
 30
-2.17638e-15
  70
    32
  0
VERTEX
  8
0
  5
19C7
 10
375.610
 20
9.70080
 30
-2.17776e-15
  70
    32
  0
VERTEX
  8
0
  5
19C8
 10
375.610
 20
9.71057
 30
-2.17911e-15
  70
    32
  0
VERTEX
  8
0
  5
19C9
 10
375.610
 20
9.72033
 30
-2.18043e-15
  70
    32
  0
VERTEX
  8
0
  5
19CA
 10
375.610
 20
9.73009
 30
-2.18172e-15
  70
    32
  0
VERTEX
  8
0
  5
19CB
 10
375.610
 20
9.73985
 30
-2.18298e-15
  70
    32
  0
VERTEX
  8
0
  5
19CC
 10
375.610
 20
9.74960
 30
-2.18422e-15
  70
    32
  0
VERTEX
  8
0
  5
19CD
 10
375.611
 20
9.75935
 30
-2.18543e-15
  70
    32
  0
VERTEX
  8
0
  5
19CE
 10
375.611
 20
9.76909
 30
-2.18662e-15
  70
    32
  0
VERTEX
  8
0
  5
19CF
 10
375.611
 20
9.77882
 30
-2.18779e-15
  70
    32
  0
VERTEX
  8
0
  5
19D0
 10
375.611
 20
9.78855
 30
-2.18894e-15
  70
    32
  0
VERTEX
  8
0
  5
19D1
 10
375.611
 20
9.79828
 30
-2.19008e-15
  70
    32
  0
VERTEX
  8
0
  5
19D2
 10
375.611
 20
9.80800
 30
-2.19120e-15
  70
    32
  0
VERTEX
  8
0
  5
19D3
 10
375.611
 20
9.81771
 30
-2.19230e-15
  70
    32
  0
VERTEX
  8
0
  5
19D4
 10
375.611
 20
9.82742
 30
-2.19340e-15
  70
    32
  0
VERTEX
  8
0
  5
19D5
 10
375.611
 20
9.83712
 30
-2.19448e-15
  70
    32
  0
VERTEX
  8
0
  5
19D6
 10
375.611
 20
9.84682
 30
-2.19556e-15
  70
    32
  0
VERTEX
  8
0
  5
19D7
 10
375.612
 20
9.85651
 30
-2.19662e-15
  70
    32
  0
VERTEX
  8
0
  5
19D8
 10
375.612
 20
9.86619
 30
-2.19769e-15
  70
    32
  0
VERTEX
  8
0
  5
19D9
 10
375.612
 20
9.87586
 30
-2.19874e-15
  70
    32
  0
VERTEX
  8
0
  5
19DA
 10
375.612
 20
9.88553
 30
-2.19980e-15
  70
    32
  0
VERTEX
  8
0
  5
19DB
 10
375.612
 20
9.89519
 30
-2.20086e-15
  70
    32
  0
VERTEX
  8
0
  5
19DC
 10
375.612
 20
9.90484
 30
-2.20192e-15
  70
    32
  0
VERTEX
  8
0
  5
19DD
 10
375.612
 20
9.91449
 30
-2.20298e-15
  70
    32
  0
VERTEX
  8
0
  5
19DE
 10
375.613
 20
9.92413
 30
-2.20404e-15
  70
    32
  0
VERTEX
  8
0
  5
19DF
 10
375.613
 20
9.93376
 30
-2.20511e-15
  70
    32
  0
VERTEX
  8
0
  5
19E0
 10
375.613
 20
9.94338
 30
-2.20619e-15
  70
    32
  0
VERTEX
  8
0
  5
19E1
 10
375.613
 20
9.95299
 30
-2.20728e-15
  70
    32
  0
VERTEX
  8
0
  5
19E2
 10
375.613
 20
9.96259
 30
-2.20838e-15
  70
    32
  0
VERTEX
  8
0
  5
19E3
 10
375.613
 20
9.97219
 30
-2.20950e-15
  70
    32
  0
VERTEX
  8
0
  5
19E4
 10
375.613
 20
9.98177
 30
-2.21063e-15
  70
    32
  0
VERTEX
  8
0
  5
19E5
 10
375.614
 20
9.99135
 30
-2.21177e-15
  70
    32
  0
VERTEX
  8
0
  5
19E6
 10
375.614
 20
10.0009
 30
-2.21294e-15
  70
    32
  0
VERTEX
  8
0
  5
19E7
 10
375.614
 20
10.0105
 30
-2.21412e-15
  70
    32
  0
VERTEX
  8
0
  5
19E8
 10
375.614
 20
10.0200
 30
-2.21532e-15
  70
    32
  0
VERTEX
  8
0
  5
19E9
 10
375.614
 20
10.0296
 30
-2.21655e-15
  70
    32
  0
VERTEX
  8
0
  5
19EA
 10
375.614
 20
10.0391
 30
-2.21780e-15
  70
    32
  0
VERTEX
  8
0
  5
19EB
 10
375.615
 20
10.0486
 30
-2.21908e-15
  70
    32
  0
VERTEX
  8
0
  5
19EC
 10
375.615
 20
10.0581
 30
-2.22039e-15
  70
    32
  0
VERTEX
  8
0
  5
19ED
 10
375.615
 20
10.0676
 30
-2.22173e-15
  70
    32
  0
VERTEX
  8
0
  5
19EE
 10
375.615
 20
10.0771
 30
-2.22310e-15
  70
    32
  0
VERTEX
  8
0
  5
19EF
 10
375.615
 20
10.0866
 30
-2.22450e-15
  70
    32
  0
VERTEX
  8
0
  5
19F0
 10
375.616
 20
10.0960
 30
-2.22594e-15
  70
    32
  0
VERTEX
  8
0
  5
19F1
 10
375.616
 20
10.1055
 30
-2.22741e-15
  70
    32
  0
VERTEX
  8
0
  5
19F2
 10
375.616
 20
10.1149
 30
-2.22892e-15
  70
    32
  0
VERTEX
  8
0
  5
19F3
 10
375.616
 20
10.1244
 30
-2.23048e-15
  70
    32
  0
VERTEX
  8
0
  5
19F4
 10
375.616
 20
10.1338
 30
-2.23207e-15
  70
    32
  0
VERTEX
  8
0
  5
19F5
 10
375.617
 20
10.1432
 30
-2.23371e-15
  70
    32
  0
VERTEX
  8
0
  5
19F6
 10
375.617
 20
10.1526
 30
-2.23539e-15
  70
    32
  0
VERTEX
  8
0
  5
19F7
 10
375.617
 20
10.1620
 30
-2.23712e-15
  70
    32
  0
VERTEX
  8
0
  5
19F8
 10
375.617
 20
10.1713
 30
-2.23889e-15
  70
    32
  0
VERTEX
  8
0
  5
19F9
 10
375.617
 20
10.1807
 30
-2.24072e-15
  70
    32
  0
VERTEX
  8
0
  5
19FA
 10
375.618
 20
10.1900
 30
-2.24260e-15
  70
    32
  0
VERTEX
  8
0
  5
19FB
 10
375.618
 20
10.1994
 30
-2.24453e-15
  70
    32
  0
VERTEX
  8
0
  5
19FC
 10
375.618
 20
10.2087
 30
-2.24652e-15
  70
    32
  0
VERTEX
  8
0
  5
19FD
 10
375.618
 20
10.2180
 30
-2.24856e-15
  70
    32
  0
VERTEX
  8
0
  5
19FE
 10
375.619
 20
10.2273
 30
-2.25067e-15
  70
    32
  0
VERTEX
  8
0
  5
19FF
 10
375.619
 20
10.2365
 30
-2.25283e-15
  70
    32
  0
VERTEX
  8
0
  5
1A00
 10
375.619
 20
10.2458
 30
-2.25504e-15
  70
    32
  0
VERTEX
  8
0
  5
1A01
 10
375.619
 20
10.2550
 30
-2.25731e-15
  70
    32
  0
VERTEX
  8
0
  5
1A02
 10
375.620
 20
10.2643
 30
-2.25964e-15
  70
    32
  0
VERTEX
  8
0
  5
1A03
 10
375.620
 20
10.2735
 30
-2.26200e-15
  70
    32
  0
VERTEX
  8
0
  5
1A04
 10
375.620
 20
10.2827
 30
-2.26442e-15
  70
    32
  0
VERTEX
  8
0
  5
1A05
 10
375.620
 20
10.2919
 30
-2.26688e-15
  70
    32
  0
VERTEX
  8
0
  5
1A06
 10
375.621
 20
10.3010
 30
-2.26938e-15
  70
    32
  0
VERTEX
  8
0
  5
1A07
 10
375.621
 20
10.3102
 30
-2.27192e-15
  70
    32
  0
VERTEX
  8
0
  5
1A08
 10
375.621
 20
10.3193
 30
-2.27449e-15
  70
    32
  0
VERTEX
  8
0
  5
1A09
 10
375.621
 20
10.3285
 30
-2.27710e-15
  70
    32
  0
VERTEX
  8
0
  5
1A0A
 10
375.622
 20
10.3376
 30
-2.27974e-15
  70
    32
  0
VERTEX
  8
0
  5
1A0B
 10
375.622
 20
10.3467
 30
-2.28240e-15
  70
    32
  0
VERTEX
  8
0
  5
1A0C
 10
375.622
 20
10.3557
 30
-2.28509e-15
  70
    32
  0
VERTEX
  8
0
  5
1A0D
 10
375.622
 20
10.3648
 30
-2.28781e-15
  70
    32
  0
VERTEX
  8
0
  5
1A0E
 10
375.623
 20
10.3738
 30
-2.29055e-15
  70
    32
  0
VERTEX
  8
0
  5
1A0F
 10
375.623
 20
10.3829
 30
-2.29330e-15
  70
    32
  0
VERTEX
  8
0
  5
1A10
 10
375.623
 20
10.3919
 30
-2.29607e-15
  70
    32
  0
VERTEX
  8
0
  5
1A11
 10
375.624
 20
10.4009
 30
-2.29886e-15
  70
    32
  0
VERTEX
  8
0
  5
1A12
 10
375.624
 20
10.4098
 30
-2.30165e-15
  70
    32
  0
VERTEX
  8
0
  5
1A13
 10
375.624
 20
10.4188
 30
-2.30446e-15
  70
    32
  0
VERTEX
  8
0
  5
1A14
 10
375.624
 20
10.4277
 30
-2.30727e-15
  70
    32
  0
VERTEX
  8
0
  5
1A15
 10
375.625
 20
10.4367
 30
-2.31008e-15
  70
    32
  0
VERTEX
  8
0
  5
1A16
 10
375.625
 20
10.4456
 30
-2.31289e-15
  70
    32
  0
VERTEX
  8
0
  5
1A17
 10
375.625
 20
10.4545
 30
-2.31570e-15
  70
    32
  0
VERTEX
  8
0
  5
1A18
 10
375.626
 20
10.4633
 30
-2.31851e-15
  70
    32
  0
VERTEX
  8
0
  5
1A19
 10
375.626
 20
10.4722
 30
-2.32131e-15
  70
    32
  0
VERTEX
  8
0
  5
1A1A
 10
375.626
 20
10.4810
 30
-2.32410e-15
  70
    32
  0
VERTEX
  8
0
  5
1A1B
 10
375.627
 20
10.4898
 30
-2.32688e-15
  70
    32
  0
VERTEX
  8
0
  5
1A1C
 10
375.627
 20
10.4986
 30
-2.32965e-15
  70
    32
  0
VERTEX
  8
0
  5
1A1D
 10
375.627
 20
10.5074
 30
-2.33240e-15
  70
    32
  0
VERTEX
  8
0
  5
1A1E
 10
375.627
 20
10.5161
 30
-2.33513e-15
  70
    32
  0
VERTEX
  8
0
  5
1A1F
 10
375.628
 20
10.5249
 30
-2.33784e-15
  70
    32
  0
VERTEX
  8
0
  5
1A20
 10
375.628
 20
10.5336
 30
-2.34052e-15
  70
    32
  0
VERTEX
  8
0
  5
1A21
 10
375.628
 20
10.5423
 30
-2.34318e-15
  70
    32
  0
VERTEX
  8
0
  5
1A22
 10
375.629
 20
10.5510
 30
-2.34581e-15
  70
    32
  0
VERTEX
  8
0
  5
1A23
 10
375.629
 20
10.5596
 30
-2.34841e-15
  70
    32
  0
VERTEX
  8
0
  5
1A24
 10
375.629
 20
10.5683
 30
-2.35097e-15
  70
    32
  0
VERTEX
  8
0
  5
1A25
 10
375.630
 20
10.5769
 30
-2.35350e-15
  70
    32
  0
VERTEX
  8
0
  5
1A26
 10
375.630
 20
10.5855
 30
-2.35598e-15
  70
    32
  0
VERTEX
  8
0
  5
1A27
 10
375.630
 20
10.5940
 30
-2.35843e-15
  70
    32
  0
VERTEX
  8
0
  5
1A28
 10
375.631
 20
10.6026
 30
-2.36083e-15
  70
    32
  0
VERTEX
  8
0
  5
1A29
 10
375.631
 20
10.6111
 30
-2.36318e-15
  70
    32
  0
VERTEX
  8
0
  5
1A2A
 10
375.631
 20
10.6196
 30
-2.36549e-15
  70
    32
  0
VERTEX
  8
0
  5
1A2B
 10
375.632
 20
10.6281
 30
-2.36774e-15
  70
    32
  0
VERTEX
  8
0
  5
1A2C
 10
375.632
 20
10.6366
 30
-2.36994e-15
  70
    32
  0
VERTEX
  8
0
  5
1A2D
 10
375.632
 20
10.6450
 30
-2.37209e-15
  70
    32
  0
VERTEX
  8
0
  5
1A2E
 10
375.633
 20
10.6534
 30
-2.37417e-15
  70
    32
  0
VERTEX
  8
0
  5
1A2F
 10
375.633
 20
10.6618
 30
-2.37619e-15
  70
    32
  0
VERTEX
  8
0
  5
1A30
 10
375.633
 20
10.6702
 30
-2.37815e-15
  70
    32
  0
VERTEX
  8
0
  5
1A31
 10
375.634
 20
10.6786
 30
-2.38004e-15
  70
    32
  0
VERTEX
  8
0
  5
1A32
 10
375.634
 20
10.6869
 30
-2.38186e-15
  70
    32
  0
VERTEX
  8
0
  5
1A33
 10
375.634
 20
10.6952
 30
-2.38361e-15
  70
    32
  0
VERTEX
  8
0
  5
1A34
 10
375.635
 20
10.7035
 30
-2.38529e-15
  70
    32
  0
VERTEX
  8
0
  5
1A35
 10
375.635
 20
10.7118
 30
-2.38689e-15
  70
    32
  0
VERTEX
  8
0
  5
1A36
 10
375.635
 20
10.7200
 30
-2.38841e-15
  70
    32
  0
VERTEX
  8
0
  5
1A37
 10
375.636
 20
10.7282
 30
-2.38984e-15
  70
    32
  0
VERTEX
  8
0
  5
1A38
 10
375.636
 20
10.7364
 30
-2.39120e-15
  70
    32
  0
VERTEX
  8
0
  5
1A39
 10
375.637
 20
10.7446
 30
-2.39246e-15
  70
    32
  0
VERTEX
  8
0
  5
1A3A
 10
375.637
 20
10.7527
 30
-2.39364e-15
  70
    32
  0
VERTEX
  8
0
  5
1A3B
 10
375.637
 20
10.7609
 30
-2.39473e-15
  70
    32
  0
VERTEX
  8
0
  5
1A3C
 10
375.638
 20
10.7689
 30
-2.39572e-15
  70
    32
  0
VERTEX
  8
0
  5
1A3D
 10
375.638
 20
10.7770
 30
-2.39662e-15
  70
    32
  0
VERTEX
  8
0
  5
1A3E
 10
375.638
 20
10.7851
 30
-2.39741e-15
  70
    32
  0
VERTEX
  8
0
  5
1A3F
 10
375.639
 20
10.7931
 30
-2.39811e-15
  70
    32
  0
VERTEX
  8
0
  5
1A40
 10
375.639
 20
10.8011
 30
-2.39870e-15
  70
    32
  0
VERTEX
  8
0
  5
1A41
 10
375.639
 20
10.8090
 30
-2.39918e-15
  70
    32
  0
VERTEX
  8
0
  5
1A42
 10
375.640
 20
10.8170
 30
-2.39955e-15
  70
    32
  0
VERTEX
  8
0
  5
1A43
 10
375.640
 20
10.8249
 30
-2.39982e-15
  70
    32
  0
VERTEX
  8
0
  5
1A44
 10
375.641
 20
10.8328
 30
-2.39997e-15
  70
    32
  0
VERTEX
  8
0
  5
1A45
 10
375.641
 20
10.8407
 30
-2.40000e-15
  70
    32
  0
VERTEX
  8
0
  5
1A46
 10
375.641
 20
10.8485
 30
-2.40009e-15
  70
    32
  0
VERTEX
  8
0
  5
1A47
 10
375.642
 20
10.8563
 30
-2.40029e-15
  70
    32
  0
VERTEX
  8
0
  5
1A48
 10
375.642
 20
10.8641
 30
-2.40060e-15
  70
    32
  0
VERTEX
  8
0
  5
1A49
 10
375.642
 20
10.8719
 30
-2.40101e-15
  70
    32
  0
VERTEX
  8
0
  5
1A4A
 10
375.643
 20
10.8796
 30
-2.40153e-15
  70
    32
  0
VERTEX
  8
0
  5
1A4B
 10
375.643
 20
10.8873
 30
-2.40215e-15
  70
    32
  0
VERTEX
  8
0
  5
1A4C
 10
375.643
 20
10.8950
 30
-2.40287e-15
  70
    32
  0
VERTEX
  8
0
  5
1A4D
 10
375.644
 20
10.9027
 30
-2.40368e-15
  70
    32
  0
VERTEX
  8
0
  5
1A4E
 10
375.644
 20
10.9103
 30
-2.40458e-15
  70
    32
  0
VERTEX
  8
0
  5
1A4F
 10
375.645
 20
10.9179
 30
-2.40557e-15
  70
    32
  0
VERTEX
  8
0
  5
1A50
 10
375.645
 20
10.9254
 30
-2.40664e-15
  70
    32
  0
VERTEX
  8
0
  5
1A51
 10
375.645
 20
10.9330
 30
-2.40779e-15
  70
    32
  0
VERTEX
  8
0
  5
1A52
 10
375.646
 20
10.9405
 30
-2.40902e-15
  70
    32
  0
VERTEX
  8
0
  5
1A53
 10
375.646
 20
10.9480
 30
-2.41032e-15
  70
    32
  0
VERTEX
  8
0
  5
1A54
 10
375.647
 20
10.9554
 30
-2.41170e-15
  70
    32
  0
VERTEX
  8
0
  5
1A55
 10
375.647
 20
10.9629
 30
-2.41314e-15
  70
    32
  0
VERTEX
  8
0
  5
1A56
 10
375.647
 20
10.9703
 30
-2.41465e-15
  70
    32
  0
VERTEX
  8
0
  5
1A57
 10
375.648
 20
10.9776
 30
-2.41621e-15
  70
    32
  0
VERTEX
  8
0
  5
1A58
 10
375.648
 20
10.9850
 30
-2.41784e-15
  70
    32
  0
VERTEX
  8
0
  5
1A59
 10
375.648
 20
10.9923
 30
-2.41952e-15
  70
    32
  0
VERTEX
  8
0
  5
1A5A
 10
375.649
 20
10.9996
 30
-2.42124e-15
  70
    32
  0
VERTEX
  8
0
  5
1A5B
 10
375.649
 20
11.0068
 30
-2.42302e-15
  70
    32
  0
VERTEX
  8
0
  5
1A5C
 10
375.650
 20
11.0141
 30
-2.42484e-15
  70
    32
  0
VERTEX
  8
0
  5
1A5D
 10
375.650
 20
11.0213
 30
-2.42671e-15
  70
    32
  0
VERTEX
  8
0
  5
1A5E
 10
375.650
 20
11.0284
 30
-2.42861e-15
  70
    32
  0
VERTEX
  8
0
  5
1A5F
 10
375.651
 20
11.0356
 30
-2.43054e-15
  70
    32
  0
VERTEX
  8
0
  5
1A60
 10
375.651
 20
11.0427
 30
-2.43251e-15
  70
    32
  0
VERTEX
  8
0
  5
1A61
 10
375.651
 20
11.0498
 30
-2.43450e-15
  70
    32
  0
VERTEX
  8
0
  5
1A62
 10
375.652
 20
11.0568
 30
-2.43652e-15
  70
    32
  0
VERTEX
  8
0
  5
1A63
 10
375.652
 20
11.0638
 30
-2.43856e-15
  70
    32
  0
VERTEX
  8
0
  5
1A64
 10
375.653
 20
11.0708
 30
-2.44062e-15
  70
    32
  0
VERTEX
  8
0
  5
1A65
 10
375.653
 20
11.0778
 30
-2.44269e-15
  70
    32
  0
VERTEX
  8
0
  5
1A66
 10
375.653
 20
11.0847
 30
-2.44478e-15
  70
    32
  0
VERTEX
  8
0
  5
1A67
 10
375.654
 20
11.0916
 30
-2.44687e-15
  70
    32
  0
VERTEX
  8
0
  5
1A68
 10
375.654
 20
11.0984
 30
-2.44897e-15
  70
    32
  0
VERTEX
  8
0
  5
1A69
 10
375.655
 20
11.1053
 30
-2.45107e-15
  70
    32
  0
VERTEX
  8
0
  5
1A6A
 10
375.655
 20
11.1121
 30
-2.45316e-15
  70
    32
  0
VERTEX
  8
0
  5
1A6B
 10
375.655
 20
11.1188
 30
-2.45526e-15
  70
    32
  0
VERTEX
  8
0
  5
1A6C
 10
375.656
 20
11.1256
 30
-2.45734e-15
  70
    32
  0
VERTEX
  8
0
  5
1A6D
 10
375.656
 20
11.1323
 30
-2.45941e-15
  70
    32
  0
VERTEX
  8
0
  5
1A6E
 10
375.656
 20
11.1390
 30
-2.46147e-15
  70
    32
  0
VERTEX
  8
0
  5
1A6F
 10
375.657
 20
11.1456
 30
-2.46351e-15
  70
    32
  0
VERTEX
  8
0
  5
1A70
 10
375.657
 20
11.1522
 30
-2.46553e-15
  70
    32
  0
VERTEX
  8
0
  5
1A71
 10
375.658
 20
11.1588
 30
-2.46752e-15
  70
    32
  0
VERTEX
  8
0
  5
1A72
 10
375.658
 20
11.1653
 30
-2.46949e-15
  70
    32
  0
VERTEX
  8
0
  5
1A73
 10
375.658
 20
11.1718
 30
-2.47142e-15
  70
    32
  0
VERTEX
  8
0
  5
1A74
 10
375.659
 20
11.1783
 30
-2.47332e-15
  70
    32
  0
VERTEX
  8
0
  5
1A75
 10
375.659
 20
11.1847
 30
-2.47518e-15
  70
    32
  0
VERTEX
  8
0
  5
1A76
 10
375.660
 20
11.1912
 30
-2.47701e-15
  70
    32
  0
VERTEX
  8
0
  5
1A77
 10
375.660
 20
11.1975
 30
-2.47878e-15
  70
    32
  0
VERTEX
  8
0
  5
1A78
 10
375.660
 20
11.2039
 30
-2.48051e-15
  70
    32
  0
VERTEX
  8
0
  5
1A79
 10
375.661
 20
11.2102
 30
-2.48219e-15
  70
    32
  0
VERTEX
  8
0
  5
1A7A
 10
375.661
 20
11.2165
 30
-2.48381e-15
  70
    32
  0
VERTEX
  8
0
  5
1A7B
 10
375.661
 20
11.2227
 30
-2.48538e-15
  70
    32
  0
VERTEX
  8
0
  5
1A7C
 10
375.662
 20
11.2289
 30
-2.48688e-15
  70
    32
  0
VERTEX
  8
0
  5
1A7D
 10
375.662
 20
11.2351
 30
-2.48832e-15
  70
    32
  0
VERTEX
  8
0
  5
1A7E
 10
375.663
 20
11.2412
 30
-2.48970e-15
  70
    32
  0
VERTEX
  8
0
  5
1A7F
 10
375.663
 20
11.2473
 30
-2.49100e-15
  70
    32
  0
VERTEX
  8
0
  5
1A80
 10
375.663
 20
11.2534
 30
-2.49223e-15
  70
    32
  0
VERTEX
  8
0
  5
1A81
 10
375.664
 20
11.2594
 30
-2.49338e-15
  70
    32
  0
VERTEX
  8
0
  5
1A82
 10
375.664
 20
11.2654
 30
-2.49445e-15
  70
    32
  0
VERTEX
  8
0
  5
1A83
 10
375.664
 20
11.2714
 30
-2.49544e-15
  70
    32
  0
VERTEX
  8
0
  5
1A84
 10
375.665
 20
11.2773
 30
-2.49634e-15
  70
    32
  0
VERTEX
  8
0
  5
1A85
 10
375.665
 20
11.2832
 30
-2.49714e-15
  70
    32
  0
VERTEX
  8
0
  5
1A86
 10
375.666
 20
11.2891
 30
-2.49786e-15
  70
    32
  0
VERTEX
  8
0
  5
1A87
 10
375.666
 20
11.2949
 30
-2.49848e-15
  70
    32
  0
VERTEX
  8
0
  5
1A88
 10
375.666
 20
11.3007
 30
-2.49900e-15
  70
    32
  0
VERTEX
  8
0
  5
1A89
 10
375.667
 20
11.3065
 30
-2.49941e-15
  70
    32
  0
VERTEX
  8
0
  5
1A8A
 10
375.667
 20
11.3122
 30
-2.49972e-15
  70
    32
  0
VERTEX
  8
0
  5
1A8B
 10
375.667
 20
11.3179
 30
-2.49991e-15
  70
    32
  0
VERTEX
  8
0
  5
1A8C
 10
375.668
 20
11.3235
 30
-2.50000e-15
  70
    32
  0
VERTEX
  8
0
  5
1A8D
 10
375.668
 20
11.3291
 30
-2.50004e-15
  70
    32
  0
VERTEX
  8
0
  5
1A8E
 10
375.668
 20
11.3347
 30
-2.50018e-15
  70
    32
  0
VERTEX
  8
0
  5
1A8F
 10
375.669
 20
11.3402
 30
-2.50044e-15
  70
    32
  0
VERTEX
  8
0
  5
1A90
 10
375.669
 20
11.3457
 30
-2.50080e-15
  70
    32
  0
VERTEX
  8
0
  5
1A91
 10
375.669
 20
11.3512
 30
-2.50127e-15
  70
    32
  0
VERTEX
  8
0
  5
1A92
 10
375.670
 20
11.3566
 30
-2.50184e-15
  70
    32
  0
VERTEX
  8
0
  5
1A93
 10
375.670
 20
11.3620
 30
-2.50251e-15
  70
    32
  0
VERTEX
  8
0
  5
1A94
 10
375.671
 20
11.3674
 30
-2.50327e-15
  70
    32
  0
VERTEX
  8
0
  5
1A95
 10
375.671
 20
11.3727
 30
-2.50413e-15
  70
    32
  0
VERTEX
  8
0
  5
1A96
 10
375.671
 20
11.3779
 30
-2.50507e-15
  70
    32
  0
VERTEX
  8
0
  5
1A97
 10
375.672
 20
11.3832
 30
-2.50609e-15
  70
    32
  0
VERTEX
  8
0
  5
1A98
 10
375.672
 20
11.3884
 30
-2.50720e-15
  70
    32
  0
VERTEX
  8
0
  5
1A99
 10
375.672
 20
11.3935
 30
-2.50839e-15
  70
    32
  0
VERTEX
  8
0
  5
1A9A
 10
375.673
 20
11.3987
 30
-2.50965e-15
  70
    32
  0
VERTEX
  8
0
  5
1A9B
 10
375.673
 20
11.4038
 30
-2.51098e-15
  70
    32
  0
VERTEX
  8
0
  5
1A9C
 10
375.673
 20
11.4088
 30
-2.51238e-15
  70
    32
  0
VERTEX
  8
0
  5
1A9D
 10
375.674
 20
11.4138
 30
-2.51385e-15
  70
    32
  0
VERTEX
  8
0
  5
1A9E
 10
375.674
 20
11.4188
 30
-2.51537e-15
  70
    32
  0
VERTEX
  8
0
  5
1A9F
 10
375.674
 20
11.4237
 30
-2.51696e-15
  70
    32
  0
VERTEX
  8
0
  5
1AA0
 10
375.675
 20
11.4286
 30
-2.51860e-15
  70
    32
  0
VERTEX
  8
0
  5
1AA1
 10
375.675
 20
11.4335
 30
-2.52030e-15
  70
    32
  0
VERTEX
  8
0
  5
1AA2
 10
375.675
 20
11.4383
 30
-2.52204e-15
  70
    32
  0
VERTEX
  8
0
  5
1AA3
 10
375.676
 20
11.4431
 30
-2.52383e-15
  70
    32
  0
VERTEX
  8
0
  5
1AA4
 10
375.676
 20
11.4478
 30
-2.52566e-15
  70
    32
  0
VERTEX
  8
0
  5
1AA5
 10
375.676
 20
11.4525
 30
-2.52753e-15
  70
    32
  0
VERTEX
  8
0
  5
1AA6
 10
375.677
 20
11.4572
 30
-2.52944e-15
  70
    32
  0
VERTEX
  8
0
  5
1AA7
 10
375.677
 20
11.4618
 30
-2.53138e-15
  70
    32
  0
VERTEX
  8
0
  5
1AA8
 10
375.677
 20
11.4664
 30
-2.53335e-15
  70
    32
  0
VERTEX
  8
0
  5
1AA9
 10
375.677
 20
11.4709
 30
-2.53535e-15
  70
    32
  0
VERTEX
  8
0
  5
1AAA
 10
375.678
 20
11.4755
 30
-2.53737e-15
  70
    32
  0
VERTEX
  8
0
  5
1AAB
 10
375.678
 20
11.4799
 30
-2.53941e-15
  70
    32
  0
VERTEX
  8
0
  5
1AAC
 10
375.678
 20
11.4843
 30
-2.54146e-15
  70
    32
  0
VERTEX
  8
0
  5
1AAD
 10
375.679
 20
11.4887
 30
-2.54353e-15
  70
    32
  0
VERTEX
  8
0
  5
1AAE
 10
375.679
 20
11.4931
 30
-2.54561e-15
  70
    32
  0
VERTEX
  8
0
  5
1AAF
 10
375.679
 20
11.4974
 30
-2.54770e-15
  70
    32
  0
VERTEX
  8
0
  5
1AB0
 10
375.680
 20
11.5017
 30
-2.54978e-15
  70
    32
  0
VERTEX
  8
0
  5
1AB1
 10
375.680
 20
11.5059
 30
-2.55187e-15
  70
    32
  0
VERTEX
  8
0
  5
1AB2
 10
375.680
 20
11.5101
 30
-2.55396e-15
  70
    32
  0
VERTEX
  8
0
  5
1AB3
 10
375.681
 20
11.5142
 30
-2.55604e-15
  70
    32
  0
VERTEX
  8
0
  5
1AB4
 10
375.681
 20
11.5183
 30
-2.55811e-15
  70
    32
  0
VERTEX
  8
0
  5
1AB5
 10
375.681
 20
11.5224
 30
-2.56017e-15
  70
    32
  0
VERTEX
  8
0
  5
1AB6
 10
375.681
 20
11.5264
 30
-2.56221e-15
  70
    32
  0
VERTEX
  8
0
  5
1AB7
 10
375.682
 20
11.5304
 30
-2.56424e-15
  70
    32
  0
VERTEX
  8
0
  5
1AB8
 10
375.682
 20
11.5344
 30
-2.56624e-15
  70
    32
  0
VERTEX
  8
0
  5
1AB9
 10
375.682
 20
11.5383
 30
-2.56821e-15
  70
    32
  0
VERTEX
  8
0
  5
1ABA
 10
375.683
 20
11.5421
 30
-2.57016e-15
  70
    32
  0
VERTEX
  8
0
  5
1ABB
 10
375.683
 20
11.5460
 30
-2.57207e-15
  70
    32
  0
VERTEX
  8
0
  5
1ABC
 10
375.683
 20
11.5497
 30
-2.57395e-15
  70
    32
  0
VERTEX
  8
0
  5
1ABD
 10
375.683
 20
11.5535
 30
-2.57579e-15
  70
    32
  0
VERTEX
  8
0
  5
1ABE
 10
375.684
 20
11.5572
 30
-2.57759e-15
  70
    32
  0
VERTEX
  8
0
  5
1ABF
 10
375.684
 20
11.5609
 30
-2.57935e-15
  70
    32
  0
VERTEX
  8
0
  5
1AC0
 10
375.684
 20
11.5645
 30
-2.58105e-15
  70
    32
  0
VERTEX
  8
0
  5
1AC1
 10
375.684
 20
11.5680
 30
-2.58270e-15
  70
    32
  0
VERTEX
  8
0
  5
1AC2
 10
375.685
 20
11.5716
 30
-2.58430e-15
  70
    32
  0
VERTEX
  8
0
  5
1AC3
 10
375.685
 20
11.5751
 30
-2.58584e-15
  70
    32
  0
VERTEX
  8
0
  5
1AC4
 10
375.685
 20
11.5785
 30
-2.58732e-15
  70
    32
  0
VERTEX
  8
0
  5
1AC5
 10
375.685
 20
11.5819
 30
-2.58874e-15
  70
    32
  0
VERTEX
  8
0
  5
1AC6
 10
375.686
 20
11.5853
 30
-2.59008e-15
  70
    32
  0
VERTEX
  8
0
  5
1AC7
 10
375.686
 20
11.5886
 30
-2.59136e-15
  70
    32
  0
VERTEX
  8
0
  5
1AC8
 10
375.686
 20
11.5919
 30
-2.59256e-15
  70
    32
  0
VERTEX
  8
0
  5
1AC9
 10
375.686
 20
11.5952
 30
-2.59369e-15
  70
    32
  0
VERTEX
  8
0
  5
1ACA
 10
375.687
 20
11.5984
 30
-2.59473e-15
  70
    32
  0
VERTEX
  8
0
  5
1ACB
 10
375.687
 20
11.6015
 30
-2.59569e-15
  70
    32
  0
VERTEX
  8
0
  5
1ACC
 10
375.687
 20
11.6046
 30
-2.59656e-15
  70
    32
  0
VERTEX
  8
0
  5
1ACD
 10
375.687
 20
11.6077
 30
-2.59734e-15
  70
    32
  0
VERTEX
  8
0
  5
1ACE
 10
375.688
 20
11.6107
 30
-2.59803e-15
  70
    32
  0
VERTEX
  8
0
  5
1ACF
 10
375.688
 20
11.6137
 30
-2.59862e-15
  70
    32
  0
VERTEX
  8
0
  5
1AD0
 10
375.688
 20
11.6167
 30
-2.59911e-15
  70
    32
  0
VERTEX
  8
0
  5
1AD1
 10
375.688
 20
11.6196
 30
-2.59949e-15
  70
    32
  0
VERTEX
  8
0
  5
1AD2
 10
375.688
 20
11.6224
 30
-2.59977e-15
  70
    32
  0
VERTEX
  8
0
  5
1AD3
 10
375.689
 20
11.6252
 30
-2.59994e-15
  70
    32
  0
VERTEX
  8
0
  5
1AD4
 10
375.689
 20
11.6280
 30
-2.60000e-15
  70
    32
  0
VERTEX
  8
0
  5
1AD5
 10
375.689
 20
11.6307
 30
-2.60000e-15
  70
    32
  0
VERTEX
  8
0
  5
1AD6
 10
375.689
 20
11.6334
 30
-2.60000e-15
  70
    32
  0
VERTEX
  8
0
  5
1AD7
 10
375.689
 20
11.6360
 30
-2.60000e-15
  70
    32
  0
VERTEX
  8
0
  5
1AD8
 10
375.690
 20
11.6386
 30
-2.60000e-15
  70
    32
  0
VERTEX
  8
0
  5
1AD9
 10
375.690
 20
11.6412
 30
-2.60000e-15
  70
    32
  0
VERTEX
  8
0
  5
1ADA
 10
375.690
 20
11.6437
 30
-2.60000e-15
  70
    32
  0
VERTEX
  8
0
  5
1ADB
 10
375.690
 20
11.6462
 30
-2.60000e-15
  70
    32
  0
VERTEX
  8
0
  5
1ADC
 10
375.690
 20
11.6486
 30
-2.60000e-15
  70
    32
  0
VERTEX
  8
0
  5
1ADD
 10
375.691
 20
11.6510
 30
-2.60000e-15
  70
    32
  0
VERTEX
  8
0
  5
1ADE
 10
375.691
 20
11.6533
 30
-2.60000e-15
  70
    32
  0
VERTEX
  8
0
  5
1ADF
 10
375.691
 20
11.6556
 30
-2.60000e-15
  70
    32
  0
VERTEX
  8
0
  5
1AE0
 10
375.691
 20
11.6579
 30
-2.60000e-15
  70
    32
  0
VERTEX
  8
0
  5
1AE1
 10
375.691
 20
11.6601
 30
-2.60000e-15
  70
    32
  0
VERTEX
  8
0
  5
1AE2
 10
375.691
 20
11.6622
 30
-2.60000e-15
  70
    32
  0
VERTEX
  8
0
  5
1AE3
 10
375.692
 20
11.6643
 30
-2.60000e-15
  70
    32
  0
VERTEX
  8
0
  5
1AE4
 10
375.692
 20
11.6664
 30
-2.60000e-15
  70
    32
  0
VERTEX
  8
0
  5
1AE5
 10
375.692
 20
11.6684
 30
-2.60000e-15
  70
    32
  0
VERTEX
  8
0
  5
1AE6
 10
375.692
 20
11.6704
 30
-2.60000e-15
  70
    32
  0
VERTEX
  8
0
  5
1AE7
 10
375.692
 20
11.6724
 30
-2.60000e-15
  70
    32
  0
VERTEX
  8
0
  5
1AE8
 10
375.692
 20
11.6743
 30
-2.60000e-15
  70
    32
  0
VERTEX
  8
0
  5
1AE9
 10
375.692
 20
11.6761
 30
-2.60000e-15
  70
    32
  0
VERTEX
  8
0
  5
1AEA
 10
375.693
 20
11.6779
 30
-2.60000e-15
  70
    32
  0
VERTEX
  8
0
  5
1AEB
 10
375.693
 20
11.6797
 30
-2.60000e-15
  70
    32
  0
VERTEX
  8
0
  5
1AEC
 10
375.693
 20
11.6814
 30
-2.60000e-15
  70
    32
  0
VERTEX
  8
0
  5
1AED
 10
375.693
 20
11.6831
 30
-2.60000e-15
  70
    32
  0
VERTEX
  8
0
  5
1AEE
 10
375.693
 20
11.6847
 30
-2.60000e-15
  70
    32
  0
VERTEX
  8
0
  5
1AEF
 10
375.693
 20
11.6863
 30
-2.60000e-15
  70
    32
  0
VERTEX
  8
0
  5
1AF0
 10
375.693
 20
11.6879
 30
-2.60000e-15
  70
    32
  0
VERTEX
  8
0
  5
1AF1
 10
375.693
 20
11.6894
 30
-2.60000e-15
  70
    32
  0
VERTEX
  8
0
  5
1AF2
 10
375.694
 20
11.6908
 30
-2.60000e-15
  70
    32
  0
VERTEX
  8
0
  5
1AF3
 10
375.694
 20
11.6922
 30
-2.60000e-15
  70
    32
  0
VERTEX
  8
0
  5
1AF4
 10
375.694
 20
11.6936
 30
-2.60000e-15
  70
    32
  0
VERTEX
  8
0
  5
1AF5
 10
375.694
 20
11.6949
 30
-2.60000e-15
  70
    32
  0
VERTEX
  8
0
  5
1AF6
 10
375.694
 20
11.6962
 30
-2.60000e-15
  70
    32
  0
VERTEX
  8
0
  5
1AF7
 10
375.694
 20
11.6974
 30
-2.60000e-15
  70
    32
  0
VERTEX
  8
0
  5
1AF8
 10
375.694
 20
11.6986
 30
-2.60000e-15
  70
    32
  0
VERTEX
  8
0
  5
1AF9
 10
375.694
 20
11.6998
 30
-2.60000e-15
  70
    32
  0
VERTEX
  8
0
  5
1AFA
 10
375.694
 20
11.7009
 30
-2.60000e-15
  70
    32
  0
VERTEX
  8
0
  5
1AFB
 10
375.694
 20
11.7019
 30
-2.60000e-15
  70
    32
  0
VERTEX
  8
0
  5
1AFC
 10
375.694
 20
11.7029
 30
-2.60000e-15
  70
    32
  0
VERTEX
  8
0
  5
1AFD
 10
375.695
 20
11.7039
 30
-2.60000e-15
  70
    32
  0
VERTEX
  8
0
  5
1AFE
 10
375.695
 20
11.7048
 30
-2.60000e-15
  70
    32
  0
VERTEX
  8
0
  5
1AFF
 10
375.695
 20
11.7057
 30
-2.60000e-15
  70
    32
  0
VERTEX
  8
0
  5
1B00
 10
375.695
 20
11.7065
 30
-2.60000e-15
  70
    32
  0
VERTEX
  8
0
  5
1B01
 10
375.695
 20
11.7073
 30
-2.60000e-15
  70
    32
  0
VERTEX
  8
0
  5
1B02
 10
375.695
 20
11.7081
 30
-2.60000e-15
  70
    32
  0
VERTEX
  8
0
  5
1B03
 10
375.695
 20
11.7088
 30
-2.60000e-15
  70
    32
  0
VERTEX
  8
0
  5
1B04
 10
375.695
 20
11.7094
 30
-2.60000e-15
  70
    32
  0
VERTEX
  8
0
  5
1B05
 10
375.695
 20
11.7100
 30
-2.60000e-15
  70
    32
  0
VERTEX
  8
0
  5
1B06
 10
375.695
 20
11.7106
 30
-2.60000e-15
  70
    32
  0
VERTEX
  8
0
  5
1B07
 10
375.695
 20
11.7111
 30
-2.60000e-15
  70
    32
  0
VERTEX
  8
0
  5
1B08
 10
375.695
 20
11.7116
 30
-2.60000e-15
  70
    32
  0
VERTEX
  8
0
  5
1B09
 10
375.695
 20
11.7120
 30
-2.60000e-15
  70
    32
  0
VERTEX
  8
0
  5
1B0A
 10
375.695
 20
11.7124
 30
-2.60000e-15
  70
    32
  0
VERTEX
  8
0
  5
1B0B
 10
375.695
 20
11.7127
 30
-2.60000e-15
  70
    32
  0
VERTEX
  8
0
  5
1B0C
 10
375.695
 20
11.7130
 30
-2.60000e-15
  70
    32
  0
VERTEX
  8
0
  5
1B0D
 10
375.695
 20
11.7133
 30
-2.60000e-15
  70
    32
  0
VERTEX
  8
0
  5
1B0E
 10
375.695
 20
11.7135
 30
-2.60000e-15
  70
    32
  0
VERTEX
  8
0
  5
1B0F
 10
375.695
 20
11.7136
 30
-2.60000e-15
  70
    32
  0
VERTEX
  8
0
  5
1B10
 10
375.695
 20
11.7138
 30
-2.60000e-15
  70
    32
  0
VERTEX
  8
0
  5
1B11
 10
375.695
 20
11.7138
 30
-2.60000e-15
  70
    32
  0
VERTEX
  8
0
  5
1B12
 10
375.695
 20
11.7139
 30
-2.60000e-15
  70
    32
  0
SEQEND
  8
0
  5
1B13
  0
POLYLINE
  8
0
  5
1B14
  62
3
  66
     1
 10
0.000000
 20
0.000000
 30
0.000000
  70
     8
  0
VERTEX
  8
0
  5
1B15
 10
375.695
 20
11.7139
 30
-2.60000e-15
  70
    32
  0
VERTEX
  8
0
  5
1B16
 10
375.695
 20
11.7138
 30
-2.60000e-15
  70
    32
  0
VERTEX
  8
0
  5
1B17
 10
375.695
 20
11.7138
 30
-2.60000e-15
  70
    32
  0
VERTEX
  8
0
  5
1B18
 10
375.695
 20
11.7136
 30
-2.60000e-15
  70
    32
  0
VERTEX
  8
0
  5
1B19
 10
375.695
 20
11.7135
 30
-2.60000e-15
  70
    32
  0
VERTEX
  8
0
  5
1B1A
 10
375.695
 20
11.7133
 30
-2.60000e-15
  70
    32
  0
VERTEX
  8
0
  5
1B1B
 10
375.695
 20
11.7130
 30
-2.60000e-15
  70
    32
  0
VERTEX
  8
0
  5
1B1C
 10
375.695
 20
11.7127
 30
-2.60000e-15
  70
    32
  0
VERTEX
  8
0
  5
1B1D
 10
375.695
 20
11.7124
 30
-2.60000e-15
  70
    32
  0
VERTEX
  8
0
  5
1B1E
 10
375.695
 20
11.7120
 30
-2.60000e-15
  70
    32
  0
VERTEX
  8
0
  5
1B1F
 10
375.695
 20
11.7116
 30
-2.60000e-15
  70
    32
  0
VERTEX
  8
0
  5
1B20
 10
375.695
 20
11.7111
 30
-2.60000e-15
  70
    32
  0
VERTEX
  8
0
  5
1B21
 10
375.695
 20
11.7106
 30
-2.60000e-15
  70
    32
  0
VERTEX
  8
0
  5
1B22
 10
375.695
 20
11.7100
 30
-2.60000e-15
  70
    32
  0
VERTEX
  8
0
  5
1B23
 10
375.695
 20
11.7094
 30
-2.60000e-15
  70
    32
  0
VERTEX
  8
0
  5
1B24
 10
375.695
 20
11.7088
 30
-2.60000e-15
  70
    32
  0
VERTEX
  8
0
  5
1B25
 10
375.695
 20
11.7081
 30
-2.60000e-15
  70
    32
  0
VERTEX
  8
0
  5
1B26
 10
375.695
 20
11.7073
 30
-2.60000e-15
  70
    32
  0
VERTEX
  8
0
  5
1B27
 10
375.695
 20
11.7065
 30
-2.60000e-15
  70
    32
  0
VERTEX
  8
0
  5
1B28
 10
375.695
 20
11.7057
 30
-2.60000e-15
  70
    32
  0
VERTEX
  8
0
  5
1B29
 10
375.695
 20
11.7048
 30
-2.60000e-15
  70
    32
  0
VERTEX
  8
0
  5
1B2A
 10
375.695
 20
11.7039
 30
-2.60000e-15
  70
    32
  0
VERTEX
  8
0
  5
1B2B
 10
375.694
 20
11.7029
 30
-2.60000e-15
  70
    32
  0
VERTEX
  8
0
  5
1B2C
 10
375.694
 20
11.7019
 30
-2.60000e-15
  70
    32
  0
VERTEX
  8
0
  5
1B2D
 10
375.694
 20
11.7009
 30
-2.60000e-15
  70
    32
  0
VERTEX
  8
0
  5
1B2E
 10
375.694
 20
11.6998
 30
-2.60000e-15
  70
    32
  0
VERTEX
  8
0
  5
1B2F
 10
375.694
 20
11.6986
 30
-2.60000e-15
  70
    32
  0
VERTEX
  8
0
  5
1B30
 10
375.694
 20
11.6974
 30
-2.60000e-15
  70
    32
  0
VERTEX
  8
0
  5
1B31
 10
375.694
 20
11.6962
 30
-2.60000e-15
  70
    32
  0
VERTEX
  8
0
  5
1B32
 10
375.694
 20
11.6949
 30
-2.60000e-15
  70
    32
  0
VERTEX
  8
0
  5
1B33
 10
375.694
 20
11.6936
 30
-2.60000e-15
  70
    32
  0
VERTEX
  8
0
  5
1B34
 10
375.694
 20
11.6922
 30
-2.60000e-15
  70
    32
  0
VERTEX
  8
0
  5
1B35
 10
375.694
 20
11.6908
 30
-2.60000e-15
  70
    32
  0
VERTEX
  8
0
  5
1B36
 10
375.693
 20
11.6893
 30
-2.60000e-15
  70
    32
  0
VERTEX
  8
0
  5
1B37
 10
375.693
 20
11.6878
 30
-2.60000e-15
  70
    32
  0
VERTEX
  8
0
  5
1B38
 10
375.693
 20
11.6863
 30
-2.60000e-15
  70
    32
  0
VERTEX
  8
0
  5
1B39
 10
375.693
 20
11.6847
 30
-2.60000e-15
  70
    32
  0
VERTEX
  8
0
  5
1B3A
 10
375.693
 20
11.6831
 30
-2.60000e-15
  70
    32
  0
VERTEX
  8
0
  5
1B3B
 10
375.693
 20
11.6814
 30
-2.60000e-15
  70
    32
  0
VERTEX
  8
0
  5
1B3C
 10
375.693
 20
11.6797
 30
-2.60000e-15
  70
    32
  0
VERTEX
  8
0
  5
1B3D
 10
375.693
 20
11.6779
 30
-2.60000e-15
  70
    32
  0
VERTEX
  8
0
  5
1B3E
 10
375.692
 20
11.6761
 30
-2.60000e-15
  70
    32
  0
VERTEX
  8
0
  5
1B3F
 10
375.692
 20
11.6742
 30
-2.60000e-15
  70
    32
  0
VERTEX
  8
0
  5
1B40
 10
375.692
 20
11.6723
 30
-2.60000e-15
  70
    32
  0
VERTEX
  8
0
  5
1B41
 10
375.692
 20
11.6704
 30
-2.60000e-15
  70
    32
  0
VERTEX
  8
0
  5
1B42
 10
375.692
 20
11.6684
 30
-2.60000e-15
  70
    32
  0
VERTEX
  8
0
  5
1B43
 10
375.692
 20
11.6664
 30
-2.60000e-15
  70
    32
  0
VERTEX
  8
0
  5
1B44
 10
375.692
 20
11.6643
 30
-2.60000e-15
  70
    32
  0
VERTEX
  8
0
  5
1B45
 10
375.691
 20
11.6622
 30
-2.60000e-15
  70
    32
  0
VERTEX
  8
0
  5
1B46
 10
375.691
 20
11.6600
 30
-2.60000e-15
  70
    32
  0
VERTEX
  8
0
  5
1B47
 10
375.691
 20
11.6578
 30
-2.60000e-15
  70
    32
  0
VERTEX
  8
0
  5
1B48
 10
375.691
 20
11.6556
 30
-2.60000e-15
  70
    32
  0
VERTEX
  8
0
  5
1B49
 10
375.691
 20
11.6533
 30
-2.60000e-15
  70
    32
  0
VERTEX
  8
0
  5
1B4A
 10
375.691
 20
11.6510
 30
-2.60000e-15
  70
    32
  0
VERTEX
  8
0
  5
1B4B
 10
375.690
 20
11.6486
 30
-2.60000e-15
  70
    32
  0
VERTEX
  8
0
  5
1B4C
 10
375.690
 20
11.6462
 30
-2.60000e-15
  70
    32
  0
VERTEX
  8
0
  5
1B4D
 10
375.690
 20
11.6437
 30
-2.60000e-15
  70
    32
  0
VERTEX
  8
0
  5
1B4E
 10
375.690
 20
11.6412
 30
-2.60000e-15
  70
    32
  0
VERTEX
  8
0
  5
1B4F
 10
375.690
 20
11.6386
 30
-2.60000e-15
  70
    32
  0
VERTEX
  8
0
  5
1B50
 10
375.689
 20
11.6360
 30
-2.60000e-15
  70
    32
  0
VERTEX
  8
0
  5
1B51
 10
375.689
 20
11.6334
 30
-2.60000e-15
  70
    32
  0
VERTEX
  8
0
  5
1B52
 10
375.689
 20
11.6307
 30
-2.60000e-15
  70
    32
  0
VERTEX
  8
0
  5
1B53
 10
375.689
 20
11.6280
 30
-2.60000e-15
  70
    32
  0
VERTEX
  8
0
  5
1B54
 10
375.689
 20
11.6252
 30
-2.60000e-15
  70
    32
  0
VERTEX
  8
0
  5
1B55
 10
375.688
 20
11.6224
 30
-2.60000e-15
  70
    32
  0
VERTEX
  8
0
  5
1B56
 10
375.688
 20
11.6196
 30
-2.60000e-15
  70
    32
  0
VERTEX
  8
0
  5
1B57
 10
375.688
 20
11.6167
 30
-2.60000e-15
  70
    32
  0
VERTEX
  8
0
  5
1B58
 10
375.688
 20
11.6137
 30
-2.60000e-15
  70
    32
  0
VERTEX
  8
0
  5
1B59
 10
375.688
 20
11.6107
 30
-2.60000e-15
  70
    32
  0
VERTEX
  8
0
  5
1B5A
 10
375.687
 20
11.6077
 30
-2.60000e-15
  70
    32
  0
VERTEX
  8
0
  5
1B5B
 10
375.687
 20
11.6046
 30
-2.59999e-15
  70
    32
  0
VERTEX
  8
0
  5
1B5C
 10
375.687
 20
11.6015
 30
-2.59988e-15
  70
    32
  0
VERTEX
  8
0
  5
1B5D
 10
375.687
 20
11.5984
 30
-2.59966e-15
  70
    32
  0
VERTEX
  8
0
  5
1B5E
 10
375.686
 20
11.5952
 30
-2.59934e-15
  70
    32
  0
VERTEX
  8
0
  5
1B5F
 10
375.686
 20
11.5919
 30
-2.59890e-15
  70
    32
  0
VERTEX
  8
0
  5
1B60
 10
375.686
 20
11.5886
 30
-2.59837e-15
  70
    32
  0
VERTEX
  8
0
  5
1B61
 10
375.686
 20
11.5853
 30
-2.59774e-15
  70
    32
  0
VERTEX
  8
0
  5
1B62
 10
375.685
 20
11.5820
 30
-2.59701e-15
  70
    32
  0
VERTEX
  8
0
  5
1B63
 10
375.685
 20
11.5785
 30
-2.59619e-15
  70
    32
  0
VERTEX
  8
0
  5
1B64
 10
375.685
 20
11.5751
 30
-2.59528e-15
  70
    32
  0
VERTEX
  8
0
  5
1B65
 10
375.685
 20
11.5716
 30
-2.59429e-15
  70
    32
  0
VERTEX
  8
0
  5
1B66
 10
375.684
 20
11.5681
 30
-2.59322e-15
  70
    32
  0
VERTEX
  8
0
  5
1B67
 10
375.684
 20
11.5645
 30
-2.59206e-15
  70
    32
  0
VERTEX
  8
0
  5
1B68
 10
375.684
 20
11.5609
 30
-2.59083e-15
  70
    32
  0
VERTEX
  8
0
  5
1B69
 10
375.684
 20
11.5572
 30
-2.58953e-15
  70
    32
  0
VERTEX
  8
0
  5
1B6A
 10
375.683
 20
11.5535
 30
-2.58816e-15
  70
    32
  0
VERTEX
  8
0
  5
1B6B
 10
375.683
 20
11.5498
 30
-2.58672e-15
  70
    32
  0
VERTEX
  8
0
  5
1B6C
 10
375.683
 20
11.5460
 30
-2.58521e-15
  70
    32
  0
VERTEX
  8
0
  5
1B6D
 10
375.683
 20
11.5422
 30
-2.58365e-15
  70
    32
  0
VERTEX
  8
0
  5
1B6E
 10
375.682
 20
11.5383
 30
-2.58204e-15
  70
    32
  0
VERTEX
  8
0
  5
1B6F
 10
375.682
 20
11.5344
 30
-2.58036e-15
  70
    32
  0
VERTEX
  8
0
  5
1B70
 10
375.682
 20
11.5304
 30
-2.57864e-15
  70
    32
  0
VERTEX
  8
0
  5
1B71
 10
375.681
 20
11.5264
 30
-2.57687e-15
  70
    32
  0
VERTEX
  8
0
  5
1B72
 10
375.681
 20
11.5224
 30
-2.57506e-15
  70
    32
  0
VERTEX
  8
0
  5
1B73
 10
375.681
 20
11.5183
 30
-2.57321e-15
  70
    32
  0
VERTEX
  8
0
  5
1B74
 10
375.681
 20
11.5142
 30
-2.57132e-15
  70
    32
  0
VERTEX
  8
0
  5
1B75
 10
375.680
 20
11.5101
 30
-2.56940e-15
  70
    32
  0
VERTEX
  8
0
  5
1B76
 10
375.680
 20
11.5059
 30
-2.56744e-15
  70
    32
  0
VERTEX
  8
0
  5
1B77
 10
375.680
 20
11.5017
 30
-2.56546e-15
  70
    32
  0
VERTEX
  8
0
  5
1B78
 10
375.679
 20
11.4974
 30
-2.56346e-15
  70
    32
  0
VERTEX
  8
0
  5
1B79
 10
375.679
 20
11.4931
 30
-2.56143e-15
  70
    32
  0
VERTEX
  8
0
  5
1B7A
 10
375.679
 20
11.4887
 30
-2.55939e-15
  70
    32
  0
VERTEX
  8
0
  5
1B7B
 10
375.678
 20
11.4843
 30
-2.55733e-15
  70
    32
  0
VERTEX
  8
0
  5
1B7C
 10
375.678
 20
11.4799
 30
-2.55526e-15
  70
    32
  0
VERTEX
  8
0
  5
1B7D
 10
375.678
 20
11.4754
 30
-2.55318e-15
  70
    32
  0
VERTEX
  8
0
  5
1B7E
 10
375.677
 20
11.4709
 30
-2.55109e-15
  70
    32
  0
VERTEX
  8
0
  5
1B7F
 10
375.677
 20
11.4664
 30
-2.54901e-15
  70
    32
  0
VERTEX
  8
0
  5
1B80
 10
375.677
 20
11.4618
 30
-2.54693e-15
  70
    32
  0
VERTEX
  8
0
  5
1B81
 10
375.677
 20
11.4572
 30
-2.54485e-15
  70
    32
  0
VERTEX
  8
0
  5
1B82
 10
375.676
 20
11.4525
 30
-2.54278e-15
  70
    32
  0
VERTEX
  8
0
  5
1B83
 10
375.676
 20
11.4478
 30
-2.54072e-15
  70
    32
  0
VERTEX
  8
0
  5
1B84
 10
375.676
 20
11.4431
 30
-2.53867e-15
  70
    32
  0
VERTEX
  8
0
  5
1B85
 10
375.675
 20
11.4383
 30
-2.53664e-15
  70
    32
  0
VERTEX
  8
0
  5
1B86
 10
375.675
 20
11.4335
 30
-2.53464e-15
  70
    32
  0
VERTEX
  8
0
  5
1B87
 10
375.675
 20
11.4286
 30
-2.53265e-15
  70
    32
  0
VERTEX
  8
0
  5
1B88
 10
375.674
 20
11.4237
 30
-2.53070e-15
  70
    32
  0
VERTEX
  8
0
  5
1B89
 10
375.674
 20
11.4188
 30
-2.52877e-15
  70
    32
  0
VERTEX
  8
0
  5
1B8A
 10
375.674
 20
11.4138
 30
-2.52688e-15
  70
    32
  0
VERTEX
  8
0
  5
1B8B
 10
375.673
 20
11.4088
 30
-2.52503e-15
  70
    32
  0
VERTEX
  8
0
  5
1B8C
 10
375.673
 20
11.4037
 30
-2.52321e-15
  70
    32
  0
VERTEX
  8
0
  5
1B8D
 10
375.673
 20
11.3987
 30
-2.52144e-15
  70
    32
  0
VERTEX
  8
0
  5
1B8E
 10
375.672
 20
11.3935
 30
-2.51972e-15
  70
    32
  0
VERTEX
  8
0
  5
1B8F
 10
375.672
 20
11.3884
 30
-2.51805e-15
  70
    32
  0
VERTEX
  8
0
  5
1B90
 10
375.672
 20
11.3832
 30
-2.51643e-15
  70
    32
  0
VERTEX
  8
0
  5
1B91
 10
375.671
 20
11.3779
 30
-2.51486e-15
  70
    32
  0
VERTEX
  8
0
  5
1B92
 10
375.671
 20
11.3727
 30
-2.51336e-15
  70
    32
  0
VERTEX
  8
0
  5
1B93
 10
375.671
 20
11.3673
 30
-2.51192e-15
  70
    32
  0
VERTEX
  8
0
  5
1B94
 10
375.670
 20
11.3620
 30
-2.51054e-15
  70
    32
  0
VERTEX
  8
0
  5
1B95
 10
375.670
 20
11.3566
 30
-2.50923e-15
  70
    32
  0
VERTEX
  8
0
  5
1B96
 10
375.669
 20
11.3512
 30
-2.50800e-15
  70
    32
  0
VERTEX
  8
0
  5
1B97
 10
375.669
 20
11.3457
 30
-2.50684e-15
  70
    32
  0
VERTEX
  8
0
  5
1B98
 10
375.669
 20
11.3402
 30
-2.50576e-15
  70
    32
  0
VERTEX
  8
0
  5
1B99
 10
375.668
 20
11.3347
 30
-2.50476e-15
  70
    32
  0
VERTEX
  8
0
  5
1B9A
 10
375.668
 20
11.3291
 30
-2.50385e-15
  70
    32
  0
VERTEX
  8
0
  5
1B9B
 10
375.668
 20
11.3235
 30
-2.50303e-15
  70
    32
  0
VERTEX
  8
0
  5
1B9C
 10
375.667
 20
11.3179
 30
-2.50230e-15
  70
    32
  0
VERTEX
  8
0
  5
1B9D
 10
375.667
 20
11.3122
 30
-2.50166e-15
  70
    32
  0
VERTEX
  8
0
  5
1B9E
 10
375.667
 20
11.3065
 30
-2.50112e-15
  70
    32
  0
VERTEX
  8
0
  5
1B9F
 10
375.666
 20
11.3007
 30
-2.50068e-15
  70
    32
  0
VERTEX
  8
0
  5
1BA0
 10
375.666
 20
11.2949
 30
-2.50035e-15
  70
    32
  0
VERTEX
  8
0
  5
1BA1
 10
375.666
 20
11.2891
 30
-2.50013e-15
  70
    32
  0
VERTEX
  8
0
  5
1BA2
 10
375.665
 20
11.2832
 30
-2.50001e-15
  70
    32
  0
VERTEX
  8
0
  5
1BA3
 10
375.665
 20
11.2774
 30
-2.49998e-15
  70
    32
  0
VERTEX
  8
0
  5
1BA4
 10
375.664
 20
11.2714
 30
-2.49987e-15
  70
    32
  0
VERTEX
  8
0
  5
1BA5
 10
375.664
 20
11.2655
 30
-2.49964e-15
  70
    32
  0
VERTEX
  8
0
  5
1BA6
 10
375.664
 20
11.2595
 30
-2.49930e-15
  70
    32
  0
VERTEX
  8
0
  5
1BA7
 10
375.663
 20
11.2534
 30
-2.49885e-15
  70
    32
  0
VERTEX
  8
0
  5
1BA8
 10
375.663
 20
11.2474
 30
-2.49830e-15
  70
    32
  0
VERTEX
  8
0
  5
1BA9
 10
375.663
 20
11.2412
 30
-2.49764e-15
  70
    32
  0
VERTEX
  8
0
  5
1BAA
 10
375.662
 20
11.2351
 30
-2.49688e-15
  70
    32
  0
VERTEX
  8
0
  5
1BAB
 10
375.662
 20
11.2289
 30
-2.49603e-15
  70
    32
  0
VERTEX
  8
0
  5
1BAC
 10
375.661
 20
11.2227
 30
-2.49508e-15
  70
    32
  0
VERTEX
  8
0
  5
1BAD
 10
375.661
 20
11.2165
 30
-2.49403e-15
  70
    32
  0
VERTEX
  8
0
  5
1BAE
 10
375.661
 20
11.2102
 30
-2.49290e-15
  70
    32
  0
VERTEX
  8
0
  5
1BAF
 10
375.660
 20
11.2039
 30
-2.49167e-15
  70
    32
  0
VERTEX
  8
0
  5
1BB0
 10
375.660
 20
11.1975
 30
-2.49036e-15
  70
    32
  0
VERTEX
  8
0
  5
1BB1
 10
375.660
 20
11.1912
 30
-2.48897e-15
  70
    32
  0
VERTEX
  8
0
  5
1BB2
 10
375.659
 20
11.1848
 30
-2.48749e-15
  70
    32
  0
VERTEX
  8
0
  5
1BB3
 10
375.659
 20
11.1783
 30
-2.48594e-15
  70
    32
  0
VERTEX
  8
0
  5
1BB4
 10
375.658
 20
11.1718
 30
-2.48431e-15
  70
    32
  0
VERTEX
  8
0
  5
1BB5
 10
375.658
 20
11.1653
 30
-2.48261e-15
  70
    32
  0
VERTEX
  8
0
  5
1BB6
 10
375.658
 20
11.1588
 30
-2.48083e-15
  70
    32
  0
VERTEX
  8
0
  5
1BB7
 10
375.657
 20
11.1522
 30
-2.47899e-15
  70
    32
  0
VERTEX
  8
0
  5
1BB8
 10
375.657
 20
11.1456
 30
-2.47707e-15
  70
    32
  0
VERTEX
  8
0
  5
1BB9
 10
375.656
 20
11.1390
 30
-2.47510e-15
  70
    32
  0
VERTEX
  8
0
  5
1BBA
 10
375.656
 20
11.1323
 30
-2.47306e-15
  70
    32
  0
VERTEX
  8
0
  5
1BBB
 10
375.656
 20
11.1256
 30
-2.47096e-15
  70
    32
  0
VERTEX
  8
0
  5
1BBC
 10
375.655
 20
11.1188
 30
-2.46881e-15
  70
    32
  0
VERTEX
  8
0
  5
1BBD
 10
375.655
 20
11.1121
 30
-2.46660e-15
  70
    32
  0
VERTEX
  8
0
  5
1BBE
 10
375.655
 20
11.1053
 30
-2.46434e-15
  70
    32
  0
VERTEX
  8
0
  5
1BBF
 10
375.654
 20
11.0984
 30
-2.46203e-15
  70
    32
  0
VERTEX
  8
0
  5
1BC0
 10
375.654
 20
11.0916
 30
-2.45968e-15
  70
    32
  0
VERTEX
  8
0
  5
1BC1
 10
375.653
 20
11.0847
 30
-2.45728e-15
  70
    32
  0
VERTEX
  8
0
  5
1BC2
 10
375.653
 20
11.0778
 30
-2.45483e-15
  70
    32
  0
VERTEX
  8
0
  5
1BC3
 10
375.653
 20
11.0708
 30
-2.45235e-15
  70
    32
  0
VERTEX
  8
0
  5
1BC4
 10
375.652
 20
11.0638
 30
-2.44983e-15
  70
    32
  0
VERTEX
  8
0
  5
1BC5
 10
375.652
 20
11.0568
 30
-2.44727e-15
  70
    32
  0
VERTEX
  8
0
  5
1BC6
 10
375.651
 20
11.0497
 30
-2.44468e-15
  70
    32
  0
VERTEX
  8
0
  5
1BC7
 10
375.651
 20
11.0427
 30
-2.44207e-15
  70
    32
  0
VERTEX
  8
0
  5
1BC8
 10
375.651
 20
11.0356
 30
-2.43942e-15
  70
    32
  0
VERTEX
  8
0
  5
1BC9
 10
375.650
 20
11.0284
 30
-2.43675e-15
  70
    32
  0
VERTEX
  8
0
  5
1BCA
 10
375.650
 20
11.0213
 30
-2.43405e-15
  70
    32
  0
VERTEX
  8
0
  5
1BCB
 10
375.650
 20
11.0141
 30
-2.43134e-15
  70
    32
  0
VERTEX
  8
0
  5
1BCC
 10
375.649
 20
11.0068
 30
-2.42861e-15
  70
    32
  0
VERTEX
  8
0
  5
1BCD
 10
375.649
 20
10.9996
 30
-2.42586e-15
  70
    32
  0
VERTEX
  8
0
  5
1BCE
 10
375.648
 20
10.9923
 30
-2.42310e-15
  70
    32
  0
VERTEX
  8
0
  5
1BCF
 10
375.648
 20
10.9850
 30
-2.42033e-15
  70
    32
  0
VERTEX
  8
0
  5
1BD0
 10
375.648
 20
10.9776
 30
-2.41755e-15
  70
    32
  0
VERTEX
  8
0
  5
1BD1
 10
375.647
 20
10.9703
 30
-2.41476e-15
  70
    32
  0
VERTEX
  8
0
  5
1BD2
 10
375.647
 20
10.9629
 30
-2.41197e-15
  70
    32
  0
VERTEX
  8
0
  5
1BD3
 10
375.647
 20
10.9554
 30
-2.40918e-15
  70
    32
  0
VERTEX
  8
0
  5
1BD4
 10
375.646
 20
10.9480
 30
-2.40640e-15
  70
    32
  0
VERTEX
  8
0
  5
1BD5
 10
375.646
 20
10.9405
 30
-2.40361e-15
  70
    32
  0
VERTEX
  8
0
  5
1BD6
 10
375.645
 20
10.9330
 30
-2.40083e-15
  70
    32
  0
VERTEX
  8
0
  5
1BD7
 10
375.645
 20
10.9254
 30
-2.39807e-15
  70
    32
  0
VERTEX
  8
0
  5
1BD8
 10
375.645
 20
10.9179
 30
-2.39531e-15
  70
    32
  0
VERTEX
  8
0
  5
1BD9
 10
375.644
 20
10.9103
 30
-2.39256e-15
  70
    32
  0
VERTEX
  8
0
  5
1BDA
 10
375.644
 20
10.9026
 30
-2.38984e-15
  70
    32
  0
VERTEX
  8
0
  5
1BDB
 10
375.643
 20
10.8950
 30
-2.38713e-15
  70
    32
  0
VERTEX
  8
0
  5
1BDC
 10
375.643
 20
10.8873
 30
-2.38444e-15
  70
    32
  0
VERTEX
  8
0
  5
1BDD
 10
375.643
 20
10.8796
 30
-2.38178e-15
  70
    32
  0
VERTEX
  8
0
  5
1BDE
 10
375.642
 20
10.8719
 30
-2.37914e-15
  70
    32
  0
VERTEX
  8
0
  5
1BDF
 10
375.642
 20
10.8641
 30
-2.37653e-15
  70
    32
  0
VERTEX
  8
0
  5
1BE0
 10
375.642
 20
10.8563
 30
-2.37395e-15
  70
    32
  0
VERTEX
  8
0
  5
1BE1
 10
375.641
 20
10.8485
 30
-2.37140e-15
  70
    32
  0
VERTEX
  8
0
  5
1BE2
 10
375.641
 20
10.8407
 30
-2.36889e-15
  70
    32
  0
VERTEX
  8
0
  5
1BE3
 10
375.641
 20
10.8328
 30
-2.36642e-15
  70
    32
  0
VERTEX
  8
0
  5
1BE4
 10
375.640
 20
10.8249
 30
-2.36399e-15
  70
    32
  0
VERTEX
  8
0
  5
1BE5
 10
375.640
 20
10.8170
 30
-2.36160e-15
  70
    32
  0
VERTEX
  8
0
  5
1BE6
 10
375.639
 20
10.8090
 30
-2.35925e-15
  70
    32
  0
VERTEX
  8
0
  5
1BE7
 10
375.639
 20
10.8011
 30
-2.35696e-15
  70
    32
  0
VERTEX
  8
0
  5
1BE8
 10
375.639
 20
10.7931
 30
-2.35471e-15
  70
    32
  0
VERTEX
  8
0
  5
1BE9
 10
375.638
 20
10.7851
 30
-2.35252e-15
  70
    32
  0
VERTEX
  8
0
  5
1BEA
 10
375.638
 20
10.7770
 30
-2.35038e-15
  70
    32
  0
VERTEX
  8
0
  5
1BEB
 10
375.638
 20
10.7689
 30
-2.34830e-15
  70
    32
  0
VERTEX
  8
0
  5
1BEC
 10
375.637
 20
10.7608
 30
-2.34628e-15
  70
    32
  0
VERTEX
  8
0
  5
1BED
 10
375.637
 20
10.7527
 30
-2.34431e-15
  70
    32
  0
VERTEX
  8
0
  5
1BEE
 10
375.637
 20
10.7446
 30
-2.34240e-15
  70
    32
  0
VERTEX
  8
0
  5
1BEF
 10
375.636
 20
10.7364
 30
-2.34054e-15
  70
    32
  0
VERTEX
  8
0
  5
1BF0
 10
375.636
 20
10.7282
 30
-2.33873e-15
  70
    32
  0
VERTEX
  8
0
  5
1BF1
 10
375.635
 20
10.7200
 30
-2.33697e-15
  70
    32
  0
VERTEX
  8
0
  5
1BF2
 10
375.635
 20
10.7118
 30
-2.33526e-15
  70
    32
  0
VERTEX
  8
0
  5
1BF3
 10
375.635
 20
10.7035
 30
-2.33359e-15
  70
    32
  0
VERTEX
  8
0
  5
1BF4
 10
375.634
 20
10.6952
 30
-2.33197e-15
  70
    32
  0
VERTEX
  8
0
  5
1BF5
 10
375.634
 20
10.6869
 30
-2.33039e-15
  70
    32
  0
VERTEX
  8
0
  5
1BF6
 10
375.634
 20
10.6786
 30
-2.32885e-15
  70
    32
  0
VERTEX
  8
0
  5
1BF7
 10
375.633
 20
10.6702
 30
-2.32735e-15
  70
    32
  0
VERTEX
  8
0
  5
1BF8
 10
375.633
 20
10.6618
 30
-2.32589e-15
  70
    32
  0
VERTEX
  8
0
  5
1BF9
 10
375.633
 20
10.6534
 30
-2.32446e-15
  70
    32
  0
VERTEX
  8
0
  5
1BFA
 10
375.632
 20
10.6450
 30
-2.32307e-15
  70
    32
  0
VERTEX
  8
0
  5
1BFB
 10
375.632
 20
10.6366
 30
-2.32171e-15
  70
    32
  0
VERTEX
  8
0
  5
1BFC
 10
375.632
 20
10.6281
 30
-2.32038e-15
  70
    32
  0
VERTEX
  8
0
  5
1BFD
 10
375.631
 20
10.6196
 30
-2.31908e-15
  70
    32
  0
VERTEX
  8
0
  5
1BFE
 10
375.631
 20
10.6111
 30
-2.31781e-15
  70
    32
  0
VERTEX
  8
0
  5
1BFF
 10
375.631
 20
10.6026
 30
-2.31657e-15
  70
    32
  0
VERTEX
  8
0
  5
1C00
 10
375.630
 20
10.5940
 30
-2.31535e-15
  70
    32
  0
VERTEX
  8
0
  5
1C01
 10
375.630
 20
10.5855
 30
-2.31415e-15
  70
    32
  0
VERTEX
  8
0
  5
1C02
 10
375.630
 20
10.5769
 30
-2.31297e-15
  70
    32
  0
VERTEX
  8
0
  5
1C03
 10
375.629
 20
10.5683
 30
-2.31182e-15
  70
    32
  0
VERTEX
  8
0
  5
1C04
 10
375.629
 20
10.5596
 30
-2.31068e-15
  70
    32
  0
VERTEX
  8
0
  5
1C05
 10
375.629
 20
10.5510
 30
-2.30956e-15
  70
    32
  0
VERTEX
  8
0
  5
1C06
 10
375.628
 20
10.5423
 30
-2.30845e-15
  70
    32
  0
VERTEX
  8
0
  5
1C07
 10
375.628
 20
10.5336
 30
-2.30735e-15
  70
    32
  0
VERTEX
  8
0
  5
1C08
 10
375.628
 20
10.5249
 30
-2.30627e-15
  70
    32
  0
VERTEX
  8
0
  5
1C09
 10
375.627
 20
10.5161
 30
-2.30519e-15
  70
    32
  0
VERTEX
  8
0
  5
1C0A
 10
375.627
 20
10.5074
 30
-2.30413e-15
  70
    32
  0
VERTEX
  8
0
  5
1C0B
 10
375.627
 20
10.4986
 30
-2.30307e-15
  70
    32
  0
VERTEX
  8
0
  5
1C0C
 10
375.627
 20
10.4898
 30
-2.30201e-15
  70
    32
  0
VERTEX
  8
0
  5
1C0D
 10
375.626
 20
10.4810
 30
-2.30096e-15
  70
    32
  0
VERTEX
  8
0
  5
1C0E
 10
375.626
 20
10.4722
 30
-2.29991e-15
  70
    32
  0
VERTEX
  8
0
  5
1C0F
 10
375.626
 20
10.4633
 30
-2.29886e-15
  70
    32
  0
VERTEX
  8
0
  5
1C10
 10
375.625
 20
10.4545
 30
-2.29781e-15
  70
    32
  0
VERTEX
  8
0
  5
1C11
 10
375.625
 20
10.4456
 30
-2.29675e-15
  70
    32
  0
VERTEX
  8
0
  5
1C12
 10
375.625
 20
10.4367
 30
-2.29569e-15
  70
    32
  0
VERTEX
  8
0
  5
1C13
 10
375.624
 20
10.4277
 30
-2.29462e-15
  70
    32
  0
VERTEX
  8
0
  5
1C14
 10
375.624
 20
10.4188
 30
-2.29355e-15
  70
    32
  0
VERTEX
  8
0
  5
1C15
 10
375.624
 20
10.4098
 30
-2.29246e-15
  70
    32
  0
VERTEX
  8
0
  5
1C16
 10
375.624
 20
10.4009
 30
-2.29136e-15
  70
    32
  0
VERTEX
  8
0
  5
1C17
 10
375.623
 20
10.3919
 30
-2.29025e-15
  70
    32
  0
VERTEX
  8
0
  5
1C18
 10
375.623
 20
10.3829
 30
-2.28912e-15
  70
    32
  0
VERTEX
  8
0
  5
1C19
 10
375.623
 20
10.3738
 30
-2.28798e-15
  70
    32
  0
VERTEX
  8
0
  5
1C1A
 10
375.622
 20
10.3648
 30
-2.28682e-15
  70
    32
  0
VERTEX
  8
0
  5
1C1B
 10
375.622
 20
10.3557
 30
-2.28564e-15
  70
    32
  0
VERTEX
  8
0
  5
1C1C
 10
375.622
 20
10.3467
 30
-2.28443e-15
  70
    32
  0
VERTEX
  8
0
  5
1C1D
 10
375.622
 20
10.3376
 30
-2.28321e-15
  70
    32
  0
VERTEX
  8
0
  5
1C1E
 10
375.621
 20
10.3285
 30
-2.28195e-15
  70
    32
  0
VERTEX
  8
0
  5
1C1F
 10
375.621
 20
10.3193
 30
-2.28068e-15
  70
    32
  0
VERTEX
  8
0
  5
1C20
 10
375.621
 20
10.3102
 30
-2.27937e-15
  70
    32
  0
VERTEX
  8
0
  5
1C21
 10
375.621
 20
10.3010
 30
-2.27803e-15
  70
    32
  0
VERTEX
  8
0
  5
1C22
 10
375.620
 20
10.2919
 30
-2.27666e-15
  70
    32
  0
VERTEX
  8
0
  5
1C23
 10
375.620
 20
10.2827
 30
-2.27526e-15
  70
    32
  0
VERTEX
  8
0
  5
1C24
 10
375.620
 20
10.2735
 30
-2.27383e-15
  70
    32
  0
VERTEX
  8
0
  5
1C25
 10
375.620
 20
10.2643
 30
-2.27235e-15
  70
    32
  0
VERTEX
  8
0
  5
1C26
 10
375.619
 20
10.2550
 30
-2.27084e-15
  70
    32
  0
VERTEX
  8
0
  5
1C27
 10
375.619
 20
10.2458
 30
-2.26929e-15
  70
    32
  0
VERTEX
  8
0
  5
1C28
 10
375.619
 20
10.2365
 30
-2.26770e-15
  70
    32
  0
VERTEX
  8
0
  5
1C29
 10
375.619
 20
10.2272
 30
-2.26607e-15
  70
    32
  0
VERTEX
  8
0
  5
1C2A
 10
375.618
 20
10.2180
 30
-2.26439e-15
  70
    32
  0
VERTEX
  8
0
  5
1C2B
 10
375.618
 20
10.2087
 30
-2.26266e-15
  70
    32
  0
VERTEX
  8
0
  5
1C2C
 10
375.618
 20
10.1993
 30
-2.26089e-15
  70
    32
  0
VERTEX
  8
0
  5
1C2D
 10
375.618
 20
10.1900
 30
-2.25906e-15
  70
    32
  0
VERTEX
  8
0
  5
1C2E
 10
375.617
 20
10.1807
 30
-2.25719e-15
  70
    32
  0
VERTEX
  8
0
  5
1C2F
 10
375.617
 20
10.1713
 30
-2.25526e-15
  70
    32
  0
VERTEX
  8
0
  5
1C30
 10
375.617
 20
10.1620
 30
-2.25328e-15
  70
    32
  0
VERTEX
  8
0
  5
1C31
 10
375.617
 20
10.1526
 30
-2.25124e-15
  70
    32
  0
VERTEX
  8
0
  5
1C32
 10
375.617
 20
10.1432
 30
-2.24915e-15
  70
    32
  0
VERTEX
  8
0
  5
1C33
 10
375.616
 20
10.1338
 30
-2.24709e-15
  70
    32
  0
VERTEX
  8
0
  5
1C34
 10
375.616
 20
10.1244
 30
-2.24509e-15
  70
    32
  0
VERTEX
  8
0
  5
1C35
 10
375.616
 20
10.1149
 30
-2.24315e-15
  70
    32
  0
VERTEX
  8
0
  5
1C36
 10
375.616
 20
10.1055
 30
-2.24125e-15
  70
    32
  0
VERTEX
  8
0
  5
1C37
 10
375.616
 20
10.0960
 30
-2.23940e-15
  70
    32
  0
VERTEX
  8
0
  5
1C38
 10
375.615
 20
10.0866
 30
-2.23760e-15
  70
    32
  0
VERTEX
  8
0
  5
1C39
 10
375.615
 20
10.0771
 30
-2.23584e-15
  70
    32
  0
VERTEX
  8
0
  5
1C3A
 10
375.615
 20
10.0676
 30
-2.23412e-15
  70
    32
  0
VERTEX
  8
0
  5
1C3B
 10
375.615
 20
10.0581
 30
-2.23245e-15
  70
    32
  0
VERTEX
  8
0
  5
1C3C
 10
375.615
 20
10.0486
 30
-2.23080e-15
  70
    32
  0
VERTEX
  8
0
  5
1C3D
 10
375.614
 20
10.0391
 30
-2.22919e-15
  70
    32
  0
VERTEX
  8
0
  5
1C3E
 10
375.614
 20
10.0296
 30
-2.22761e-15
  70
    32
  0
VERTEX
  8
0
  5
1C3F
 10
375.614
 20
10.0200
 30
-2.22606e-15
  70
    32
  0
VERTEX
  8
0
  5
1C40
 10
375.614
 20
10.0105
 30
-2.22454e-15
  70
    32
  0
VERTEX
  8
0
  5
1C41
 10
375.614
 20
10.0009
 30
-2.22303e-15
  70
    32
  0
VERTEX
  8
0
  5
1C42
 10
375.614
 20
9.99135
 30
-2.22155e-15
  70
    32
  0
VERTEX
  8
0
  5
1C43
 10
375.613
 20
9.98177
 30
-2.22009e-15
  70
    32
  0
VERTEX
  8
0
  5
1C44
 10
375.613
 20
9.97219
 30
-2.21864e-15
  70
    32
  0
VERTEX
  8
0
  5
1C45
 10
375.613
 20
9.96259
 30
-2.21721e-15
  70
    32
  0
VERTEX
  8
0
  5
1C46
 10
375.613
 20
9.95299
 30
-2.21578e-15
  70
    32
  0
VERTEX
  8
0
  5
1C47
 10
375.613
 20
9.94338
 30
-2.21437e-15
  70
    32
  0
VERTEX
  8
0
  5
1C48
 10
375.613
 20
9.93375
 30
-2.21296e-15
  70
    32
  0
VERTEX
  8
0
  5
1C49
 10
375.613
 20
9.92413
 30
-2.21155e-15
  70
    32
  0
VERTEX
  8
0
  5
1C4A
 10
375.612
 20
9.91449
 30
-2.21015e-15
  70
    32
  0
VERTEX
  8
0
  5
1C4B
 10
375.612
 20
9.90484
 30
-2.20874e-15
  70
    32
  0
VERTEX
  8
0
  5
1C4C
 10
375.612
 20
9.89519
 30
-2.20733e-15
  70
    32
  0
VERTEX
  8
0
  5
1C4D
 10
375.612
 20
9.88553
 30
-2.20591e-15
  70
    32
  0
VERTEX
  8
0
  5
1C4E
 10
375.612
 20
9.87586
 30
-2.20448e-15
  70
    32
  0
VERTEX
  8
0
  5
1C4F
 10
375.612
 20
9.86619
 30
-2.20304e-15
  70
    32
  0
VERTEX
  8
0
  5
1C50
 10
375.612
 20
9.85651
 30
-2.20159e-15
  70
    32
  0
VERTEX
  8
0
  5
1C51
 10
375.611
 20
9.84682
 30
-2.20012e-15
  70
    32
  0
VERTEX
  8
0
  5
1C52
 10
375.611
 20
9.83713
 30
-2.19863e-15
  70
    32
  0
VERTEX
  8
0
  5
1C53
 10
375.611
 20
9.82742
 30
-2.19712e-15
  70
    32
  0
VERTEX
  8
0
  5
1C54
 10
375.611
 20
9.81772
 30
-2.19558e-15
  70
    32
  0
VERTEX
  8
0
  5
1C55
 10
375.611
 20
9.80800
 30
-2.19402e-15
  70
    32
  0
VERTEX
  8
0
  5
1C56
 10
375.611
 20
9.79828
 30
-2.19243e-15
  70
    32
  0
VERTEX
  8
0
  5
1C57
 10
375.611
 20
9.78856
 30
-2.19080e-15
  70
    32
  0
VERTEX
  8
0
  5
1C58
 10
375.611
 20
9.77883
 30
-2.18915e-15
  70
    32
  0
VERTEX
  8
0
  5
1C59
 10
375.611
 20
9.76909
 30
-2.18745e-15
  70
    32
  0
VERTEX
  8
0
  5
1C5A
 10
375.611
 20
9.75935
 30
-2.18572e-15
  70
    32
  0
VERTEX
  8
0
  5
1C5B
 10
375.610
 20
9.74961
 30
-2.18394e-15
  70
    32
  0
VERTEX
  8
0
  5
1C5C
 10
375.610
 20
9.73986
 30
-2.18212e-15
  70
    32
  0
VERTEX
  8
0
  5
1C5D
 10
375.610
 20
9.73010
 30
-2.18025e-15
  70
    32
  0
VERTEX
  8
0
  5
1C5E
 10
375.610
 20
9.72034
 30
-2.17833e-15
  70
    32
  0
VERTEX
  8
0
  5
1C5F
 10
375.610
 20
9.71058
 30
-2.17636e-15
  70
    32
  0
VERTEX
  8
0
  5
1C60
 10
375.610
 20
9.70081
 30
-2.17434e-15
  70
    32
  0
VERTEX
  8
0
  5
1C61
 10
375.610
 20
9.69104
 30
-2.17226e-15
  70
    32
  0
VERTEX
  8
0
  5
1C62
 10
375.610
 20
9.68127
 30
-2.17012e-15
  70
    32
  0
VERTEX
  8
0
  5
1C63
 10
375.610
 20
9.67149
 30
-2.16792e-15
  70
    32
  0
VERTEX
  8
0
  5
1C64
 10
375.610
 20
9.66170
 30
-2.16565e-15
  70
    32
  0
VERTEX
  8
0
  5
1C65
 10
375.610
 20
9.65192
 30
-2.16332e-15
  70
    32
  0
VERTEX
  8
0
  5
1C66
 10
375.610
 20
9.64213
 30
-2.16092e-15
  70
    32
  0
VERTEX
  8
0
  5
1C67
 10
375.610
 20
9.63234
 30
-2.15844e-15
  70
    32
  0
VERTEX
  8
0
  5
1C68
 10
375.610
 20
9.62255
 30
-2.15589e-15
  70
    32
  0
VERTEX
  8
0
  5
1C69
 10
375.610
 20
9.61275
 30
-2.15327e-15
  70
    32
  0
VERTEX
  8
0
  5
1C6A
 10
375.610
 20
9.60296
 30
-2.15056e-15
  70
    32
  0
VERTEX
  8
0
  5
1C6B
 10
375.610
 20
9.59316
 30
-2.14777e-15
  70
    32
  0
VERTEX
  8
0
  5
1C6C
 10
375.609
 20
9.58336
 30
-2.14490e-15
  70
    32
  0
VERTEX
  8
0
  5
1C6D
 10
375.609
 20
9.57355
 30
-2.14194e-15
  70
    32
  0
VERTEX
  8
0
  5
1C6E
 10
375.609
 20
9.56375
 30
-2.13890e-15
  70
    32
  0
VERTEX
  8
0
  5
1C6F
 10
375.609
 20
9.55394
 30
-2.13575e-15
  70
    32
  0
VERTEX
  8
0
  5
1C70
 10
375.609
 20
9.54414
 30
-2.13252e-15
  70
    32
  0
VERTEX
  8
0
  5
1C71
 10
375.609
 20
9.53433
 30
-2.12919e-15
  70
    32
  0
VERTEX
  8
0
  5
1C72
 10
375.609
 20
9.52452
 30
-2.12576e-15
  70
    32
  0
VERTEX
  8
0
  5
1C73
 10
375.609
 20
9.51471
 30
-2.12222e-15
  70
    32
  0
VERTEX
  8
0
  5
1C74
 10
375.609
 20
9.50490
 30
-2.11858e-15
  70
    32
  0
VERTEX
  8
0
  5
1C75
 10
375.609
 20
9.49509
 30
-2.11484e-15
  70
    32
  0
VERTEX
  8
0
  5
1C76
 10
375.609
 20
9.48529
 30
-2.11098e-15
  70
    32
  0
VERTEX
  8
0
  5
1C77
 10
375.609
 20
9.47548
 30
-2.10702e-15
  70
    32
  0
VERTEX
  8
0
  5
1C78
 10
375.609
 20
9.46567
 30
-2.10294e-15
  70
    32
  0
VERTEX
  8
0
  5
1C79
 10
375.609
 20
9.45586
 30
-2.09875e-15
  70
    32
  0
VERTEX
  8
0
  5
1C7A
 10
375.609
 20
9.44605
 30
-2.09461e-15
  70
    32
  0
VERTEX
  8
0
  5
1C7B
 10
375.609
 20
9.43625
 30
-2.09060e-15
  70
    32
  0
VERTEX
  8
0
  5
1C7C
 10
375.609
 20
9.42644
 30
-2.08669e-15
  70
    32
  0
VERTEX
  8
0
  5
1C7D
 10
375.609
 20
9.41664
 30
-2.08290e-15
  70
    32
  0
VERTEX
  8
0
  5
1C7E
 10
375.610
 20
9.40684
 30
-2.07921e-15
  70
    32
  0
VERTEX
  8
0
  5
1C7F
 10
375.610
 20
9.39704
 30
-2.07563e-15
  70
    32
  0
VERTEX
  8
0
  5
1C80
 10
375.610
 20
9.38724
 30
-2.07216e-15
  70
    32
  0
VERTEX
  8
0
  5
1C81
 10
375.610
 20
9.37745
 30
-2.06878e-15
  70
    32
  0
VERTEX
  8
0
  5
1C82
 10
375.610
 20
9.36765
 30
-2.06551e-15
  70
    32
  0
VERTEX
  8
0
  5
1C83
 10
375.610
 20
9.35786
 30
-2.06233e-15
  70
    32
  0
VERTEX
  8
0
  5
1C84
 10
375.610
 20
9.34807
 30
-2.05924e-15
  70
    32
  0
VERTEX
  8
0
  5
1C85
 10
375.610
 20
9.33829
 30
-2.05624e-15
  70
    32
  0
VERTEX
  8
0
  5
1C86
 10
375.610
 20
9.32851
 30
-2.05333e-15
  70
    32
  0
VERTEX
  8
0
  5
1C87
 10
375.610
 20
9.31873
 30
-2.05051e-15
  70
    32
  0
VERTEX
  8
0
  5
1C88
 10
375.610
 20
9.30895
 30
-2.04777e-15
  70
    32
  0
VERTEX
  8
0
  5
1C89
 10
375.610
 20
9.29918
 30
-2.04511e-15
  70
    32
  0
VERTEX
  8
0
  5
1C8A
 10
375.610
 20
9.28942
 30
-2.04253e-15
  70
    32
  0
VERTEX
  8
0
  5
1C8B
 10
375.610
 20
9.27965
 30
-2.04002e-15
  70
    32
  0
VERTEX
  8
0
  5
1C8C
 10
375.610
 20
9.26989
 30
-2.03759e-15
  70
    32
  0
VERTEX
  8
0
  5
1C8D
 10
375.610
 20
9.26014
 30
-2.03523e-15
  70
    32
  0
VERTEX
  8
0
  5
1C8E
 10
375.610
 20
9.25039
 30
-2.03293e-15
  70
    32
  0
VERTEX
  8
0
  5
1C8F
 10
375.611
 20
9.24064
 30
-2.03070e-15
  70
    32
  0
VERTEX
  8
0
  5
1C90
 10
375.611
 20
9.23090
 30
-2.02854e-15
  70
    32
  0
VERTEX
  8
0
  5
1C91
 10
375.611
 20
9.22116
 30
-2.02643e-15
  70
    32
  0
VERTEX
  8
0
  5
1C92
 10
375.611
 20
9.21143
 30
-2.02439e-15
  70
    32
  0
VERTEX
  8
0
  5
1C93
 10
375.611
 20
9.20171
 30
-2.02240e-15
  70
    32
  0
VERTEX
  8
0
  5
1C94
 10
375.611
 20
9.19199
 30
-2.02046e-15
  70
    32
  0
VERTEX
  8
0
  5
1C95
 10
375.611
 20
9.18228
 30
-2.01857e-15
  70
    32
  0
VERTEX
  8
0
  5
1C96
 10
375.611
 20
9.17257
 30
-2.01673e-15
  70
    32
  0
VERTEX
  8
0
  5
1C97
 10
375.611
 20
9.16287
 30
-2.01493e-15
  70
    32
  0
VERTEX
  8
0
  5
1C98
 10
375.611
 20
9.15317
 30
-2.01318e-15
  70
    32
  0
VERTEX
  8
0
  5
1C99
 10
375.612
 20
9.14349
 30
-2.01147e-15
  70
    32
  0
VERTEX
  8
0
  5
1C9A
 10
375.612
 20
9.13381
 30
-2.00980e-15
  70
    32
  0
VERTEX
  8
0
  5
1C9B
 10
375.612
 20
9.12413
 30
-2.00816e-15
  70
    32
  0
VERTEX
  8
0
  5
1C9C
 10
375.612
 20
9.11446
 30
-2.00655e-15
  70
    32
  0
VERTEX
  8
0
  5
1C9D
 10
375.612
 20
9.10480
 30
-2.00498e-15
  70
    32
  0
VERTEX
  8
0
  5
1C9E
 10
375.612
 20
9.09515
 30
-2.00343e-15
  70
    32
  0
VERTEX
  8
0
  5
1C9F
 10
375.612
 20
9.08551
 30
-2.00191e-15
  70
    32
  0
VERTEX
  8
0
  5
1CA0
 10
375.613
 20
9.07587
 30
-2.00041e-15
  70
    32
  0
VERTEX
  8
0
  5
1CA1
 10
375.613
 20
9.06624
 30
-1.99893e-15
  70
    32
  0
VERTEX
  8
0
  5
1CA2
 10
375.613
 20
9.05662
 30
-1.99747e-15
  70
    32
  0
VERTEX
  8
0
  5
1CA3
 10
375.613
 20
9.04701
 30
-1.99602e-15
  70
    32
  0
VERTEX
  8
0
  5
1CA4
 10
375.613
 20
9.03740
 30
-1.99459e-15
  70
    32
  0
VERTEX
  8
0
  5
1CA5
 10
375.613
 20
9.02781
 30
-1.99316e-15
  70
    32
  0
VERTEX
  8
0
  5
1CA6
 10
375.613
 20
9.01822
 30
-1.99175e-15
  70
    32
  0
VERTEX
  8
0
  5
1CA7
 10
375.614
 20
9.00865
 30
-1.99034e-15
  70
    32
  0
VERTEX
  8
0
  5
1CA8
 10
375.614
 20
8.99908
 30
-1.98893e-15
  70
    32
  0
VERTEX
  8
0
  5
1CA9
 10
375.614
 20
8.98952
 30
-1.98752e-15
  70
    32
  0
VERTEX
  8
0
  5
1CAA
 10
375.614
 20
8.97997
 30
-1.98611e-15
  70
    32
  0
VERTEX
  8
0
  5
1CAB
 10
375.614
 20
8.97044
 30
-1.98469e-15
  70
    32
  0
VERTEX
  8
0
  5
1CAC
 10
375.614
 20
8.96091
 30
-1.98327e-15
  70
    32
  0
VERTEX
  8
0
  5
1CAD
 10
375.615
 20
8.95139
 30
-1.98183e-15
  70
    32
  0
VERTEX
  8
0
  5
1CAE
 10
375.615
 20
8.94188
 30
-1.98039e-15
  70
    32
  0
VERTEX
  8
0
  5
1CAF
 10
375.615
 20
8.93239
 30
-1.97893e-15
  70
    32
  0
VERTEX
  8
0
  5
1CB0
 10
375.615
 20
8.92290
 30
-1.97745e-15
  70
    32
  0
VERTEX
  8
0
  5
1CB1
 10
375.615
 20
8.91343
 30
-1.97595e-15
  70
    32
  0
VERTEX
  8
0
  5
1CB2
 10
375.616
 20
8.90396
 30
-1.97443e-15
  70
    32
  0
VERTEX
  8
0
  5
1CB3
 10
375.616
 20
8.89451
 30
-1.97288e-15
  70
    32
  0
VERTEX
  8
0
  5
1CB4
 10
375.616
 20
8.88507
 30
-1.97131e-15
  70
    32
  0
VERTEX
  8
0
  5
1CB5
 10
375.616
 20
8.87564
 30
-1.96970e-15
  70
    32
  0
VERTEX
  8
0
  5
1CB6
 10
375.616
 20
8.86622
 30
-1.96807e-15
  70
    32
  0
VERTEX
  8
0
  5
1CB7
 10
375.617
 20
8.85682
 30
-1.96639e-15
  70
    32
  0
VERTEX
  8
0
  5
1CB8
 10
375.617
 20
8.84742
 30
-1.96468e-15
  70
    32
  0
VERTEX
  8
0
  5
1CB9
 10
375.617
 20
8.83804
 30
-1.96293e-15
  70
    32
  0
VERTEX
  8
0
  5
1CBA
 10
375.617
 20
8.82868
 30
-1.96114e-15
  70
    32
  0
VERTEX
  8
0
  5
1CBB
 10
375.617
 20
8.81932
 30
-1.95930e-15
  70
    32
  0
VERTEX
  8
0
  5
1CBC
 10
375.618
 20
8.80998
 30
-1.95742e-15
  70
    32
  0
VERTEX
  8
0
  5
1CBD
 10
375.618
 20
8.80065
 30
-1.95548e-15
  70
    32
  0
VERTEX
  8
0
  5
1CBE
 10
375.618
 20
8.79133
 30
-1.95349e-15
  70
    32
  0
VERTEX
  8
0
  5
1CBF
 10
375.618
 20
8.78203
 30
-1.95145e-15
  70
    32
  0
VERTEX
  8
0
  5
1CC0
 10
375.619
 20
8.77274
 30
-1.94935e-15
  70
    32
  0
VERTEX
  8
0
  5
1CC1
 10
375.619
 20
8.76347
 30
-1.94729e-15
  70
    32
  0
VERTEX
  8
0
  5
1CC2
 10
375.619
 20
8.75421
 30
-1.94528e-15
  70
    32
  0
VERTEX
  8
0
  5
1CC3
 10
375.619
 20
8.74496
 30
-1.94333e-15
  70
    32
  0
VERTEX
  8
0
  5
1CC4
 10
375.620
 20
8.73573
 30
-1.94144e-15
  70
    32
  0
VERTEX
  8
0
  5
1CC5
 10
375.620
 20
8.72652
 30
-1.93959e-15
  70
    32
  0
VERTEX
  8
0
  5
1CC6
 10
375.620
 20
8.71732
 30
-1.93780e-15
  70
    32
  0
VERTEX
  8
0
  5
1CC7
 10
375.620
 20
8.70813
 30
-1.93605e-15
  70
    32
  0
VERTEX
  8
0
  5
1CC8
 10
375.621
 20
8.69896
 30
-1.93435e-15
  70
    32
  0
VERTEX
  8
0
  5
1CC9
 10
375.621
 20
8.68980
 30
-1.93270e-15
  70
    32
  0
VERTEX
  8
0
  5
1CCA
 10
375.621
 20
8.68066
 30
-1.93109e-15
  70
    32
  0
VERTEX
  8
0
  5
1CCB
 10
375.621
 20
8.67154
 30
-1.92953e-15
  70
    32
  0
VERTEX
  8
0
  5
1CCC
 10
375.622
 20
8.66243
 30
-1.92800e-15
  70
    32
  0
VERTEX
  8
0
  5
1CCD
 10
375.622
 20
8.65334
 30
-1.92651e-15
  70
    32
  0
VERTEX
  8
0
  5
1CCE
 10
375.622
 20
8.64426
 30
-1.92507e-15
  70
    32
  0
VERTEX
  8
0
  5
1CCF
 10
375.622
 20
8.63520
 30
-1.92365e-15
  70
    32
  0
VERTEX
  8
0
  5
1CD0
 10
375.623
 20
8.62616
 30
-1.92227e-15
  70
    32
  0
VERTEX
  8
0
  5
1CD1
 10
375.623
 20
8.61713
 30
-1.92092e-15
  70
    32
  0
VERTEX
  8
0
  5
1CD2
 10
375.623
 20
8.60812
 30
-1.91960e-15
  70
    32
  0
VERTEX
  8
0
  5
1CD3
 10
375.624
 20
8.59913
 30
-1.91832e-15
  70
    32
  0
VERTEX
  8
0
  5
1CD4
 10
375.624
 20
8.59015
 30
-1.91705e-15
  70
    32
  0
VERTEX
  8
0
  5
1CD5
 10
375.624
 20
8.58119
 30
-1.91582e-15
  70
    32
  0
VERTEX
  8
0
  5
1CD6
 10
375.624
 20
8.57225
 30
-1.91460e-15
  70
    32
  0
VERTEX
  8
0
  5
1CD7
 10
375.625
 20
8.56333
 30
-1.91341e-15
  70
    32
  0
VERTEX
  8
0
  5
1CD8
 10
375.625
 20
8.55442
 30
-1.91224e-15
  70
    32
  0
VERTEX
  8
0
  5
1CD9
 10
375.625
 20
8.54554
 30
-1.91109e-15
  70
    32
  0
VERTEX
  8
0
  5
1CDA
 10
375.626
 20
8.53667
 30
-1.90996e-15
  70
    32
  0
VERTEX
  8
0
  5
1CDB
 10
375.626
 20
8.52782
 30
-1.90884e-15
  70
    32
  0
VERTEX
  8
0
  5
1CDC
 10
375.626
 20
8.51899
 30
-1.90774e-15
  70
    32
  0
VERTEX
  8
0
  5
1CDD
 10
375.627
 20
8.51018
 30
-1.90664e-15
  70
    32
  0
VERTEX
  8
0
  5
1CDE
 10
375.627
 20
8.50138
 30
-1.90556e-15
  70
    32
  0
VERTEX
  8
0
  5
1CDF
 10
375.627
 20
8.49261
 30
-1.90449e-15
  70
    32
  0
VERTEX
  8
0
  5
1CE0
 10
375.627
 20
8.48385
 30
-1.90342e-15
  70
    32
  0
VERTEX
  8
0
  5
1CE1
 10
375.628
 20
8.47512
 30
-1.90236e-15
  70
    32
  0
VERTEX
  8
0
  5
1CE2
 10
375.628
 20
8.46640
 30
-1.90131e-15
  70
    32
  0
VERTEX
  8
0
  5
1CE3
 10
375.628
 20
8.45771
 30
-1.90025e-15
  70
    32
  0
VERTEX
  8
0
  5
1CE4
 10
375.629
 20
8.44903
 30
-1.89920e-15
  70
    32
  0
VERTEX
  8
0
  5
1CE5
 10
375.629
 20
8.44038
 30
-1.89814e-15
  70
    32
  0
VERTEX
  8
0
  5
1CE6
 10
375.629
 20
8.43174
 30
-1.89708e-15
  70
    32
  0
VERTEX
  8
0
  5
1CE7
 10
375.630
 20
8.42313
 30
-1.89602e-15
  70
    32
  0
VERTEX
  8
0
  5
1CE8
 10
375.630
 20
8.41453
 30
-1.89495e-15
  70
    32
  0
VERTEX
  8
0
  5
1CE9
 10
375.630
 20
8.40596
 30
-1.89387e-15
  70
    32
  0
VERTEX
  8
0
  5
1CEA
 10
375.631
 20
8.39741
 30
-1.89279e-15
  70
    32
  0
VERTEX
  8
0
  5
1CEB
 10
375.631
 20
8.38888
 30
-1.89169e-15
  70
    32
  0
VERTEX
  8
0
  5
1CEC
 10
375.631
 20
8.38037
 30
-1.89058e-15
  70
    32
  0
VERTEX
  8
0
  5
1CED
 10
375.632
 20
8.37188
 30
-1.88945e-15
  70
    32
  0
VERTEX
  8
0
  5
1CEE
 10
375.632
 20
8.36341
 30
-1.88831e-15
  70
    32
  0
VERTEX
  8
0
  5
1CEF
 10
375.632
 20
8.35497
 30
-1.88715e-15
  70
    32
  0
VERTEX
  8
0
  5
1CF0
 10
375.633
 20
8.34655
 30
-1.88598e-15
  70
    32
  0
VERTEX
  8
0
  5
1CF1
 10
375.633
 20
8.33815
 30
-1.88478e-15
  70
    32
  0
VERTEX
  8
0
  5
1CF2
 10
375.633
 20
8.32977
 30
-1.88355e-15
  70
    32
  0
VERTEX
  8
0
  5
1CF3
 10
375.634
 20
8.32142
 30
-1.88231e-15
  70
    32
  0
VERTEX
  8
0
  5
1CF4
 10
375.634
 20
8.31308
 30
-1.88103e-15
  70
    32
  0
VERTEX
  8
0
  5
1CF5
 10
375.634
 20
8.30477
 30
-1.87973e-15
  70
    32
  0
VERTEX
  8
0
  5
1CF6
 10
375.635
 20
8.29649
 30
-1.87840e-15
  70
    32
  0
VERTEX
  8
0
  5
1CF7
 10
375.635
 20
8.28823
 30
-1.87704e-15
  70
    32
  0
VERTEX
  8
0
  5
1CF8
 10
375.635
 20
8.27999
 30
-1.87564e-15
  70
    32
  0
VERTEX
  8
0
  5
1CF9
 10
375.636
 20
8.27177
 30
-1.87421e-15
  70
    32
  0
VERTEX
  8
0
  5
1CFA
 10
375.636
 20
8.26358
 30
-1.87275e-15
  70
    32
  0
VERTEX
  8
0
  5
1CFB
 10
375.637
 20
8.25541
 30
-1.87124e-15
  70
    32
  0
VERTEX
  8
0
  5
1CFC
 10
375.637
 20
8.24727
 30
-1.86970e-15
  70
    32
  0
VERTEX
  8
0
  5
1CFD
 10
375.637
 20
8.23915
 30
-1.86812e-15
  70
    32
  0
VERTEX
  8
0
  5
1CFE
 10
375.638
 20
8.23105
 30
-1.86649e-15
  70
    32
  0
VERTEX
  8
0
  5
1CFF
 10
375.638
 20
8.22298
 30
-1.86482e-15
  70
    32
  0
VERTEX
  8
0
  5
1D00
 10
375.638
 20
8.21494
 30
-1.86310e-15
  70
    32
  0
VERTEX
  8
0
  5
1D01
 10
375.639
 20
8.20692
 30
-1.86133e-15
  70
    32
  0
VERTEX
  8
0
  5
1D02
 10
375.639
 20
8.19892
 30
-1.85952e-15
  70
    32
  0
VERTEX
  8
0
  5
1D03
 10
375.639
 20
8.19095
 30
-1.85765e-15
  70
    32
  0
VERTEX
  8
0
  5
1D04
 10
375.640
 20
8.18301
 30
-1.85573e-15
  70
    32
  0
VERTEX
  8
0
  5
1D05
 10
375.640
 20
8.17509
 30
-1.85375e-15
  70
    32
  0
VERTEX
  8
0
  5
1D06
 10
375.641
 20
8.16720
 30
-1.85172e-15
  70
    32
  0
VERTEX
  8
0
  5
1D07
 10
375.641
 20
8.15933
 30
-1.84964e-15
  70
    32
  0
VERTEX
  8
0
  5
1D08
 10
375.641
 20
8.15149
 30
-1.84749e-15
  70
    32
  0
VERTEX
  8
0
  5
1D09
 10
375.642
 20
8.14368
 30
-1.84529e-15
  70
    32
  0
VERTEX
  8
0
  5
1D0A
 10
375.642
 20
8.13589
 30
-1.84303e-15
  70
    32
  0
VERTEX
  8
0
  5
1D0B
 10
375.642
 20
8.12813
 30
-1.84073e-15
  70
    32
  0
VERTEX
  8
0
  5
1D0C
 10
375.643
 20
8.12039
 30
-1.83837e-15
  70
    32
  0
VERTEX
  8
0
  5
1D0D
 10
375.643
 20
8.11269
 30
-1.83597e-15
  70
    32
  0
VERTEX
  8
0
  5
1D0E
 10
375.643
 20
8.10501
 30
-1.83353e-15
  70
    32
  0
VERTEX
  8
0
  5
1D0F
 10
375.644
 20
8.09735
 30
-1.83105e-15
  70
    32
  0
VERTEX
  8
0
  5
1D10
 10
375.644
 20
8.08973
 30
-1.82852e-15
  70
    32
  0
VERTEX
  8
0
  5
1D11
 10
375.645
 20
8.08213
 30
-1.82597e-15
  70
    32
  0
VERTEX
  8
0
  5
1D12
 10
375.645
 20
8.07456
 30
-1.82337e-15
  70
    32
  0
VERTEX
  8
0
  5
1D13
 10
375.645
 20
8.06702
 30
-1.82075e-15
  70
    32
  0
VERTEX
  8
0
  5
1D14
 10
375.646
 20
8.05950
 30
-1.81810e-15
  70
    32
  0
VERTEX
  8
0
  5
1D15
 10
375.646
 20
8.05202
 30
-1.81543e-15
  70
    32
  0
VERTEX
  8
0
  5
1D16
 10
375.647
 20
8.04456
 30
-1.81273e-15
  70
    32
  0
VERTEX
  8
0
  5
1D17
 10
375.647
 20
8.03713
 30
-1.81000e-15
  70
    32
  0
VERTEX
  8
0
  5
1D18
 10
375.647
 20
8.02973
 30
-1.80726e-15
  70
    32
  0
VERTEX
  8
0
  5
1D19
 10
375.648
 20
8.02236
 30
-1.80451e-15
  70
    32
  0
VERTEX
  8
0
  5
1D1A
 10
375.648
 20
8.01501
 30
-1.80174e-15
  70
    32
  0
VERTEX
  8
0
  5
1D1B
 10
375.648
 20
8.00770
 30
-1.79896e-15
  70
    32
  0
VERTEX
  8
0
  5
1D1C
 10
375.649
 20
8.00042
 30
-1.79617e-15
  70
    32
  0
VERTEX
  8
0
  5
1D1D
 10
375.649
 20
7.99316
 30
-1.79337e-15
  70
    32
  0
VERTEX
  8
0
  5
1D1E
 10
375.650
 20
7.98593
 30
-1.79057e-15
  70
    32
  0
VERTEX
  8
0
  5
1D1F
 10
375.650
 20
7.97874
 30
-1.78777e-15
  70
    32
  0
VERTEX
  8
0
  5
1D20
 10
375.650
 20
7.97157
 30
-1.78497e-15
  70
    32
  0
VERTEX
  8
0
  5
1D21
 10
375.651
 20
7.96443
 30
-1.78217e-15
  70
    32
  0
VERTEX
  8
0
  5
1D22
 10
375.651
 20
7.95732
 30
-1.77938e-15
  70
    32
  0
VERTEX
  8
0
  5
1D23
 10
375.651
 20
7.95025
 30
-1.77660e-15
  70
    32
  0
VERTEX
  8
0
  5
1D24
 10
375.652
 20
7.94320
 30
-1.77383e-15
  70
    32
  0
VERTEX
  8
0
  5
1D25
 10
375.652
 20
7.93618
 30
-1.77107e-15
  70
    32
  0
VERTEX
  8
0
  5
1D26
 10
375.653
 20
7.92920
 30
-1.76833e-15
  70
    32
  0
VERTEX
  8
0
  5
1D27
 10
375.653
 20
7.92224
 30
-1.76561e-15
  70
    32
  0
VERTEX
  8
0
  5
1D28
 10
375.653
 20
7.91532
 30
-1.76291e-15
  70
    32
  0
VERTEX
  8
0
  5
1D29
 10
375.654
 20
7.90842
 30
-1.76023e-15
  70
    32
  0
VERTEX
  8
0
  5
1D2A
 10
375.654
 20
7.90156
 30
-1.75758e-15
  70
    32
  0
VERTEX
  8
0
  5
1D2B
 10
375.655
 20
7.89473
 30
-1.75495e-15
  70
    32
  0
VERTEX
  8
0
  5
1D2C
 10
375.655
 20
7.88793
 30
-1.75236e-15
  70
    32
  0
VERTEX
  8
0
  5
1D2D
 10
375.655
 20
7.88116
 30
-1.74979e-15
  70
    32
  0
VERTEX
  8
0
  5
1D2E
 10
375.656
 20
7.87443
 30
-1.74727e-15
  70
    32
  0
VERTEX
  8
0
  5
1D2F
 10
375.656
 20
7.86772
 30
-1.74478e-15
  70
    32
  0
VERTEX
  8
0
  5
1D30
 10
375.656
 20
7.86105
 30
-1.74233e-15
  70
    32
  0
VERTEX
  8
0
  5
1D31
 10
375.657
 20
7.85441
 30
-1.73993e-15
  70
    32
  0
VERTEX
  8
0
  5
1D32
 10
375.657
 20
7.84780
 30
-1.73757e-15
  70
    32
  0
VERTEX
  8
0
  5
1D33
 10
375.658
 20
7.84123
 30
-1.73526e-15
  70
    32
  0
VERTEX
  8
0
  5
1D34
 10
375.658
 20
7.83468
 30
-1.73300e-15
  70
    32
  0
VERTEX
  8
0
  5
1D35
 10
375.658
 20
7.82817
 30
-1.73079e-15
  70
    32
  0
VERTEX
  8
0
  5
1D36
 10
375.659
 20
7.82170
 30
-1.72864e-15
  70
    32
  0
VERTEX
  8
0
  5
1D37
 10
375.659
 20
7.81525
 30
-1.72655e-15
  70
    32
  0
VERTEX
  8
0
  5
1D38
 10
375.660
 20
7.80884
 30
-1.72451e-15
  70
    32
  0
VERTEX
  8
0
  5
1D39
 10
375.660
 20
7.80246
 30
-1.72254e-15
  70
    32
  0
VERTEX
  8
0
  5
1D3A
 10
375.660
 20
7.79612
 30
-1.72064e-15
  70
    32
  0
VERTEX
  8
0
  5
1D3B
 10
375.661
 20
7.78981
 30
-1.71880e-15
  70
    32
  0
VERTEX
  8
0
  5
1D3C
 10
375.661
 20
7.78353
 30
-1.71703e-15
  70
    32
  0
VERTEX
  8
0
  5
1D3D
 10
375.661
 20
7.77729
 30
-1.71533e-15
  70
    32
  0
VERTEX
  8
0
  5
1D3E
 10
375.662
 20
7.77108
 30
-1.71371e-15
  70
    32
  0
VERTEX
  8
0
  5
1D3F
 10
375.662
 20
7.76491
 30
-1.71217e-15
  70
    32
  0
VERTEX
  8
0
  5
1D40
 10
375.663
 20
7.75876
 30
-1.71071e-15
  70
    32
  0
VERTEX
  8
0
  5
1D41
 10
375.663
 20
7.75266
 30
-1.70933e-15
  70
    32
  0
VERTEX
  8
0
  5
1D42
 10
375.663
 20
7.74659
 30
-1.70803e-15
  70
    32
  0
VERTEX
  8
0
  5
1D43
 10
375.664
 20
7.74055
 30
-1.70682e-15
  70
    32
  0
VERTEX
  8
0
  5
1D44
 10
375.664
 20
7.73455
 30
-1.70570e-15
  70
    32
  0
VERTEX
  8
0
  5
1D45
 10
375.664
 20
7.72858
 30
-1.70468e-15
  70
    32
  0
VERTEX
  8
0
  5
1D46
 10
375.665
 20
7.72265
 30
-1.70375e-15
  70
    32
  0
VERTEX
  8
0
  5
1D47
 10
375.665
 20
7.71675
 30
-1.70291e-15
  70
    32
  0
VERTEX
  8
0
  5
1D48
 10
375.666
 20
7.71089
 30
-1.70218e-15
  70
    32
  0
VERTEX
  8
0
  5
1D49
 10
375.666
 20
7.70507
 30
-1.70155e-15
  70
    32
  0
VERTEX
  8
0
  5
1D4A
 10
375.666
 20
7.69928
 30
-1.70102e-15
  70
    32
  0
VERTEX
  8
0
  5
1D4B
 10
375.667
 20
7.69352
 30
-1.70060e-15
  70
    32
  0
VERTEX
  8
0
  5
1D4C
 10
375.667
 20
7.68781
 30
-1.70029e-15
  70
    32
  0
VERTEX
  8
0
  5
1D4D
 10
375.667
 20
7.68213
 30
-1.70009e-15
  70
    32
  0
VERTEX
  8
0
  5
1D4E
 10
375.668
 20
7.67648
 30
-1.70000e-15
  70
    32
  0
VERTEX
  8
0
  5
1D4F
 10
375.668
 20
7.67087
 30
-1.70000e-15
  70
    32
  0
VERTEX
  8
0
  5
1D50
 10
375.668
 20
7.66530
 30
-1.70000e-15
  70
    32
  0
VERTEX
  8
0
  5
1D51
 10
375.669
 20
7.65976
 30
-1.70000e-15
  70
    32
  0
VERTEX
  8
0
  5
1D52
 10
375.669
 20
7.65427
 30
-1.69999e-15
  70
    32
  0
VERTEX
  8
0
  5
1D53
 10
375.669
 20
7.64881
 30
-1.69998e-15
  70
    32
  0
VERTEX
  8
0
  5
1D54
 10
375.670
 20
7.64338
 30
-1.69997e-15
  70
    32
  0
VERTEX
  8
0
  5
1D55
 10
375.670
 20
7.63799
 30
-1.69995e-15
  70
    32
  0
VERTEX
  8
0
  5
1D56
 10
375.671
 20
7.63264
 30
-1.69993e-15
  70
    32
  0
VERTEX
  8
0
  5
1D57
 10
375.671
 20
7.62733
 30
-1.69990e-15
  70
    32
  0
VERTEX
  8
0
  5
1D58
 10
375.671
 20
7.62206
 30
-1.69986e-15
  70
    32
  0
VERTEX
  8
0
  5
1D59
 10
375.672
 20
7.61682
 30
-1.69982e-15
  70
    32
  0
VERTEX
  8
0
  5
1D5A
 10
375.672
 20
7.61162
 30
-1.69976e-15
  70
    32
  0
VERTEX
  8
0
  5
1D5B
 10
375.672
 20
7.60645
 30
-1.69970e-15
  70
    32
  0
VERTEX
  8
0
  5
1D5C
 10
375.673
 20
7.60133
 30
-1.69962e-15
  70
    32
  0
VERTEX
  8
0
  5
1D5D
 10
375.673
 20
7.59624
 30
-1.69953e-15
  70
    32
  0
VERTEX
  8
0
  5
1D5E
 10
375.673
 20
7.59119
 30
-1.69943e-15
  70
    32
  0
VERTEX
  8
0
  5
1D5F
 10
375.674
 20
7.58618
 30
-1.69932e-15
  70
    32
  0
VERTEX
  8
0
  5
1D60
 10
375.674
 20
7.58121
 30
-1.69919e-15
  70
    32
  0
VERTEX
  8
0
  5
1D61
 10
375.674
 20
7.57628
 30
-1.69904e-15
  70
    32
  0
VERTEX
  8
0
  5
1D62
 10
375.675
 20
7.57138
 30
-1.69888e-15
  70
    32
  0
VERTEX
  8
0
  5
1D63
 10
375.675
 20
7.56652
 30
-1.69870e-15
  70
    32
  0
VERTEX
  8
0
  5
1D64
 10
375.675
 20
7.56170
 30
-1.69850e-15
  70
    32
  0
VERTEX
  8
0
  5
1D65
 10
375.676
 20
7.55692
 30
-1.69829e-15
  70
    32
  0
VERTEX
  8
0
  5
1D66
 10
375.676
 20
7.55218
 30
-1.69805e-15
  70
    32
  0
VERTEX
  8
0
  5
1D67
 10
375.676
 20
7.54748
 30
-1.69779e-15
  70
    32
  0
VERTEX
  8
0
  5
1D68
 10
375.677
 20
7.54282
 30
-1.69752e-15
  70
    32
  0
VERTEX
  8
0
  5
1D69
 10
375.677
 20
7.53819
 30
-1.69722e-15
  70
    32
  0
VERTEX
  8
0
  5
1D6A
 10
375.677
 20
7.53360
 30
-1.69689e-15
  70
    32
  0
VERTEX
  8
0
  5
1D6B
 10
375.677
 20
7.52906
 30
-1.69654e-15
  70
    32
  0
VERTEX
  8
0
  5
1D6C
 10
375.678
 20
7.52455
 30
-1.69617e-15
  70
    32
  0
VERTEX
  8
0
  5
1D6D
 10
375.678
 20
7.52008
 30
-1.69577e-15
  70
    32
  0
VERTEX
  8
0
  5
1D6E
 10
375.678
 20
7.51566
 30
-1.69535e-15
  70
    32
  0
VERTEX
  8
0
  5
1D6F
 10
375.679
 20
7.51127
 30
-1.69489e-15
  70
    32
  0
VERTEX
  8
0
  5
1D70
 10
375.679
 20
7.50692
 30
-1.69441e-15
  70
    32
  0
VERTEX
  8
0
  5
1D71
 10
375.679
 20
7.50261
 30
-1.69390e-15
  70
    32
  0
VERTEX
  8
0
  5
1D72
 10
375.680
 20
7.49834
 30
-1.69336e-15
  70
    32
  0
VERTEX
  8
0
  5
1D73
 10
375.680
 20
7.49411
 30
-1.69278e-15
  70
    32
  0
VERTEX
  8
0
  5
1D74
 10
375.680
 20
7.48992
 30
-1.69218e-15
  70
    32
  0
VERTEX
  8
0
  5
1D75
 10
375.681
 20
7.48577
 30
-1.69154e-15
  70
    32
  0
VERTEX
  8
0
  5
1D76
 10
375.681
 20
7.48166
 30
-1.69087e-15
  70
    32
  0
VERTEX
  8
0
  5
1D77
 10
375.681
 20
7.47759
 30
-1.69016e-15
  70
    32
  0
VERTEX
  8
0
  5
1D78
 10
375.681
 20
7.47357
 30
-1.68942e-15
  70
    32
  0
VERTEX
  8
0
  5
1D79
 10
375.682
 20
7.46958
 30
-1.68864e-15
  70
    32
  0
VERTEX
  8
0
  5
1D7A
 10
375.682
 20
7.46563
 30
-1.68783e-15
  70
    32
  0
VERTEX
  8
0
  5
1D7B
 10
375.682
 20
7.46172
 30
-1.68698e-15
  70
    32
  0
VERTEX
  8
0
  5
1D7C
 10
375.683
 20
7.45786
 30
-1.68608e-15
  70
    32
  0
VERTEX
  8
0
  5
1D7D
 10
375.683
 20
7.45403
 30
-1.68515e-15
  70
    32
  0
VERTEX
  8
0
  5
1D7E
 10
375.683
 20
7.45025
 30
-1.68418e-15
  70
    32
  0
VERTEX
  8
0
  5
1D7F
 10
375.683
 20
7.44651
 30
-1.68316e-15
  70
    32
  0
VERTEX
  8
0
  5
1D80
 10
375.684
 20
7.44281
 30
-1.68211e-15
  70
    32
  0
VERTEX
  8
0
  5
1D81
 10
375.684
 20
7.43915
 30
-1.68101e-15
  70
    32
  0
VERTEX
  8
0
  5
1D82
 10
375.684
 20
7.43553
 30
-1.67986e-15
  70
    32
  0
VERTEX
  8
0
  5
1D83
 10
375.684
 20
7.43195
 30
-1.67867e-15
  70
    32
  0
VERTEX
  8
0
  5
1D84
 10
375.685
 20
7.42842
 30
-1.67744e-15
  70
    32
  0
VERTEX
  8
0
  5
1D85
 10
375.685
 20
7.42492
 30
-1.67615e-15
  70
    32
  0
VERTEX
  8
0
  5
1D86
 10
375.685
 20
7.42147
 30
-1.67482e-15
  70
    32
  0
VERTEX
  8
0
  5
1D87
 10
375.685
 20
7.41806
 30
-1.67345e-15
  70
    32
  0
VERTEX
  8
0
  5
1D88
 10
375.686
 20
7.41469
 30
-1.67202e-15
  70
    32
  0
VERTEX
  8
0
  5
1D89
 10
375.686
 20
7.41137
 30
-1.67054e-15
  70
    32
  0
VERTEX
  8
0
  5
1D8A
 10
375.686
 20
7.40808
 30
-1.66901e-15
  70
    32
  0
VERTEX
  8
0
  5
1D8B
 10
375.686
 20
7.40484
 30
-1.66743e-15
  70
    32
  0
VERTEX
  8
0
  5
1D8C
 10
375.687
 20
7.40164
 30
-1.66579e-15
  70
    32
  0
VERTEX
  8
0
  5
1D8D
 10
375.687
 20
7.39849
 30
-1.66411e-15
  70
    32
  0
VERTEX
  8
0
  5
1D8E
 10
375.687
 20
7.39537
 30
-1.66236e-15
  70
    32
  0
VERTEX
  8
0
  5
1D8F
 10
375.687
 20
7.39230
 30
-1.66056e-15
  70
    32
  0
VERTEX
  8
0
  5
1D90
 10
375.688
 20
7.38927
 30
-1.65871e-15
  70
    32
  0
VERTEX
  8
0
  5
1D91
 10
375.688
 20
7.38629
 30
-1.65680e-15
  70
    32
  0
VERTEX
  8
0
  5
1D92
 10
375.688
 20
7.38334
 30
-1.65483e-15
  70
    32
  0
VERTEX
  8
0
  5
1D93
 10
375.688
 20
7.38044
 30
-1.65280e-15
  70
    32
  0
VERTEX
  8
0
  5
1D94
 10
375.688
 20
7.37759
 30
-1.65071e-15
  70
    32
  0
VERTEX
  8
0
  5
1D95
 10
375.689
 20
7.37477
 30
-1.64856e-15
  70
    32
  0
VERTEX
  8
0
  5
1D96
 10
375.689
 20
7.37200
 30
-1.64635e-15
  70
    32
  0
VERTEX
  8
0
  5
1D97
 10
375.689
 20
7.36928
 30
-1.64414e-15
  70
    32
  0
VERTEX
  8
0
  5
1D98
 10
375.689
 20
7.36659
 30
-1.64201e-15
  70
    32
  0
VERTEX
  8
0
  5
1D99
 10
375.689
 20
7.36395
 30
-1.63994e-15
  70
    32
  0
VERTEX
  8
0
  5
1D9A
 10
375.690
 20
7.36135
 30
-1.63794e-15
  70
    32
  0
VERTEX
  8
0
  5
1D9B
 10
375.690
 20
7.35880
 30
-1.63602e-15
  70
    32
  0
VERTEX
  8
0
  5
1D9C
 10
375.690
 20
7.35629
 30
-1.63415e-15
  70
    32
  0
VERTEX
  8
0
  5
1D9D
 10
375.690
 20
7.35382
 30
-1.63236e-15
  70
    32
  0
VERTEX
  8
0
  5
1D9E
 10
375.690
 20
7.35140
 30
-1.63062e-15
  70
    32
  0
VERTEX
  8
0
  5
1D9F
 10
375.691
 20
7.34902
 30
-1.62895e-15
  70
    32
  0
VERTEX
  8
0
  5
1DA0
 10
375.691
 20
7.34669
 30
-1.62734e-15
  70
    32
  0
VERTEX
  8
0
  5
1DA1
 10
375.691
 20
7.34439
 30
-1.62580e-15
  70
    32
  0
VERTEX
  8
0
  5
1DA2
 10
375.691
 20
7.34215
 30
-1.62431e-15
  70
    32
  0
VERTEX
  8
0
  5
1DA3
 10
375.691
 20
7.33994
 30
-1.62288e-15
  70
    32
  0
VERTEX
  8
0
  5
1DA4
 10
375.691
 20
7.33778
 30
-1.62151e-15
  70
    32
  0
VERTEX
  8
0
  5
1DA5
 10
375.692
 20
7.33566
 30
-1.62019e-15
  70
    32
  0
VERTEX
  8
0
  5
1DA6
 10
375.692
 20
7.33359
 30
-1.61893e-15
  70
    32
  0
VERTEX
  8
0
  5
1DA7
 10
375.692
 20
7.33156
 30
-1.61772e-15
  70
    32
  0
VERTEX
  8
0
  5
1DA8
 10
375.692
 20
7.32958
 30
-1.61657e-15
  70
    32
  0
VERTEX
  8
0
  5
1DA9
 10
375.692
 20
7.32763
 30
-1.61546e-15
  70
    32
  0
VERTEX
  8
0
  5
1DAA
 10
375.692
 20
7.32574
 30
-1.61441e-15
  70
    32
  0
VERTEX
  8
0
  5
1DAB
 10
375.692
 20
7.32388
 30
-1.61340e-15
  70
    32
  0
VERTEX
  8
0
  5
1DAC
 10
375.693
 20
7.32207
 30
-1.61245e-15
  70
    32
  0
VERTEX
  8
0
  5
1DAD
 10
375.693
 20
7.32031
 30
-1.61154e-15
  70
    32
  0
VERTEX
  8
0
  5
1DAE
 10
375.693
 20
7.31859
 30
-1.61067e-15
  70
    32
  0
VERTEX
  8
0
  5
1DAF
 10
375.693
 20
7.31691
 30
-1.60985e-15
  70
    32
  0
VERTEX
  8
0
  5
1DB0
 10
375.693
 20
7.31528
 30
-1.60907e-15
  70
    32
  0
VERTEX
  8
0
  5
1DB1
 10
375.693
 20
7.31369
 30
-1.60834e-15
  70
    32
  0
VERTEX
  8
0
  5
1DB2
 10
375.693
 20
7.31214
 30
-1.60764e-15
  70
    32
  0
VERTEX
  8
0
  5
1DB3
 10
375.693
 20
7.31064
 30
-1.60699e-15
  70
    32
  0
VERTEX
  8
0
  5
1DB4
 10
375.694
 20
7.30918
 30
-1.60637e-15
  70
    32
  0
VERTEX
  8
0
  5
1DB5
 10
375.694
 20
7.30777
 30
-1.60579e-15
  70
    32
  0
VERTEX
  8
0
  5
1DB6
 10
375.694
 20
7.30641
 30
-1.60525e-15
  70
    32
  0
VERTEX
  8
0
  5
1DB7
 10
375.694
 20
7.30508
 30
-1.60474e-15
  70
    32
  0
VERTEX
  8
0
  5
1DB8
 10
375.694
 20
7.30380
 30
-1.60427e-15
  70
    32
  0
VERTEX
  8
0
  5
1DB9
 10
375.694
 20
7.30257
 30
-1.60383e-15
  70
    32
  0
VERTEX
  8
0
  5
1DBA
 10
375.694
 20
7.30138
 30
-1.60342e-15
  70
    32
  0
VERTEX
  8
0
  5
1DBB
 10
375.694
 20
7.30023
 30
-1.60304e-15
  70
    32
  0
VERTEX
  8
0
  5
1DBC
 10
375.694
 20
7.29913
 30
-1.60269e-15
  70
    32
  0
VERTEX
  8
0
  5
1DBD
 10
375.694
 20
7.29808
 30
-1.60237e-15
  70
    32
  0
VERTEX
  8
0
  5
1DBE
 10
375.694
 20
7.29706
 30
-1.60207e-15
  70
    32
  0
VERTEX
  8
0
  5
1DBF
 10
375.695
 20
7.29610
 30
-1.60180e-15
  70
    32
  0
VERTEX
  8
0
  5
1DC0
 10
375.695
 20
7.29517
 30
-1.60156e-15
  70
    32
  0
VERTEX
  8
0
  5
1DC1
 10
375.695
 20
7.29430
 30
-1.60133e-15
  70
    32
  0
VERTEX
  8
0
  5
1DC2
 10
375.695
 20
7.29346
 30
-1.60113e-15
  70
    32
  0
VERTEX
  8
0
  5
1DC3
 10
375.695
 20
7.29267
 30
-1.60096e-15
  70
    32
  0
VERTEX
  8
0
  5
1DC4
 10
375.695
 20
7.29193
 30
-1.60080e-15
  70
    32
  0
VERTEX
  8
0
  5
1DC5
 10
375.695
 20
7.29123
 30
-1.60066e-15
  70
    32
  0
VERTEX
  8
0
  5
1DC6
 10
375.695
 20
7.29058
 30
-1.60053e-15
  70
    32
  0
VERTEX
  8
0
  5
1DC7
 10
375.695
 20
7.28997
 30
-1.60043e-15
  70
    32
  0
VERTEX
  8
0
  5
1DC8
 10
375.695
 20
7.28940
 30
-1.60034e-15
  70
    32
  0
VERTEX
  8
0
  5
1DC9
 10
375.695
 20
7.28889
 30
-1.60026e-15
  70
    32
  0
VERTEX
  8
0
  5
1DCA
 10
375.695
 20
7.28841
 30
-1.60019e-15
  70
    32
  0
VERTEX
  8
0
  5
1DCB
 10
375.695
 20
7.28798
 30
-1.60014e-15
  70
    32
  0
VERTEX
  8
0
  5
1DCC
 10
375.695
 20
7.28760
 30
-1.60010e-15
  70
    32
  0
VERTEX
  8
0
  5
1DCD
 10
375.695
 20
7.28726
 30
-1.60007e-15
  70
    32
  0
VERTEX
  8
0
  5
1DCE
 10
375.695
 20
7.28696
 30
-1.60004e-15
  70
    32
  0
VERTEX
  8
0
  5
1DCF
 10
375.695
 20
7.28672
 30
-1.60002e-15
  70
    32
  0
VERTEX
  8
0
  5
1DD0
 10
375.695
 20
7.28651
 30
-1.60001e-15
  70
    32
  0
VERTEX
  8
0
  5
1DD1
 10
375.695
 20
7.28635
 30
-1.60001e-15
  70
    32
  0
VERTEX
  8
0
  5
1DD2
 10
375.695
 20
7.28624
 30
-1.60000e-15
  70
    32
  0
VERTEX
  8
0
  5
1DD3
 10
375.695
 20
7.28617
 30
-1.60000e-15
  70
    32
  0
VERTEX
  8
0
  5
1DD4
 10
375.695
 20
7.28615
 30
-1.60000e-15
  70
    32
  0
SEQEND
  8
0
  5
1DD5
  0
ARC
  5
17A5
  8
0
  6
CONTINUOUS
 62
     3
 10
-374.6983395871317271
 20
11.7912878474776104
 30
0.0
 40
0.999999999999943
210
0.0
220
-0.0000000000000002
230
-1.0
 50
179.9999999999955094
 51
184.4412908277263057
  0
ARC
  5
17A6
  8
0
  6
CONTINUOUS
 62
     3
 10
374.6983395871316134
 20
7.208712152521878
 30
-0.0000000000000016
 40
1.0
 50
359.9999999999956231
 51
4.4412908277262551
  0
LINE
  5
17A7
  8
0
  6
CONTINUOUS
 62
     3
 10
375.6983395871316134
 20
24.4057801536556305
 30
-0.0000000000000054
 11
375.6983395871316134
 21
11.7912878474776903
 31
-0.0000000000000026
210
0.0
220
1.0
230
-0.0000000000000002
  0
LINE
  5
17A8
  8
0
  6
CONTINUOUS
 62
     3
 10
375.6983395871316134
 20
7.2087121525218008
 30
-0.0000000000000016
 11
375.6983395871316134
 21
-28.4999999999997193
 31
0.0000000000000063
210
0.0
220
1.0
230
-0.0000000000000002
  0
LINE
  5
17A9
  8
0
  6
CONTINUOUS
 62
     3
 10
316.6983395871314997
 20
24.4057801536556305
 30
-0.0000000000000054
 11
316.6983395871314997
 21
-28.4999999999997193
 31
0.0000000000000063
210
0.0
220
1.0
230
-0.0000000000000002
  0
ARC
  5
17AA
  8
0
  6
CONTINUOUS
 62
     3
 10
-334.1982460408955262
 20
44.1175181372115475
 30
0.0
 40
20.999906453772951
210
0.0
220
-0.0000000000000002
230
-1.0
 50
359.9999468514558885
 51
23.5261502634435509
  0
ARC
  5
17AB
  8
0
  6
CONTINUOUS
 62
     3
 10
-358.1984331333677005
 20
44.1175181372115475
 30
0.0
 40
20.9999064537728906
210
0.0
220
-0.0000000000000002
230
-1.0
 50
156.4738497365563887
 51
180.0000531485439978
  0
LINE
  5
17AC
  8
0
  6
CONTINUOUS
 62
     3
 10
379.1983375409346877
 20
44.1174986573395032
 30
-0.0000000000000098
 11
379.1983375409346877
 21
39.7057712882502827
 31
-0.0000000000000088
210
0.0
220
1.0
230
-0.0000000000000002
  0
LINE
  5
17AD
  8
0
  6
CONTINUOUS
 62
     3
 10
313.1983416333284254
 20
44.1174986573395032
 30
-0.0000000000000098
 11
313.1983416333284254
 21
39.7057712882502827
 31
-0.0000000000000088
210
0.0
220
1.0
230
-0.0000000000000002
  0
ARC
  5
17AE
  8
0
  6
CONTINUOUS
 62
     3
 10
-339.6983395870216782
 20
39.6619999999752935
 30
0.0
 40
26.5000320570183909
210
0.0
220
-0.0000000000000002
230
-1.0
 50
334.1579588831115188
 51
0.09463804485161
  0
ARC
  5
17AF
  8
0
  6
CONTINUOUS
 62
     3
 10
-352.6983395872414917
 20
39.6619999999752793
 30
0.0
 40
26.5000320570183412
210
0.0
220
-0.0000000000000002
230
-1.0
 50
179.9053619551482939
 51
205.8420411168885096
  0
ARC
  5
17B0
  8
0
  6
CONTINUOUS
 62
     3
 10
-308.1983395871314997
 20
24.4057801536556411
 30
0.0
 40
8.5
210
0.0
220
-0.0000000000000002
230
-1.0
 50
154.1579588831114052
 51
180.0
  0
ARC
  5
17B1
  8
0
  6
CONTINUOUS
 62
     3
 10
-384.1983395871316134
 20
24.4057801536556411
 30
0.0
 40
8.5
210
0.0
220
-0.0000000000000002
230
-1.0
 50
360.0
 51
25.8420411168886197
  0
LINE
  5
17B2
  8
0
  6
CONTINUOUS
 62
     3
 10
374.5283395871314838
 20
-28.49999999999973
 30
0.0000000000000063
 11
375.6983395871316134
 21
-29.4999999999997016
 31
0.0000000000000066
210
0.0
220
1.0
230
-0.0000000000000002
  0
LINE
  5
17B3
  8
0
  6
CONTINUOUS
 62
     3
 10
317.8683395871315724
 20
-28.49999999999973
 30
0.0000000000000063
 11
316.6983395871314997
 21
-29.4999999999997016
 31
0.0000000000000066
210
0.0
220
1.0
230
-0.0000000000000002
  0
LINE
  5
17B4
  8
0
  6
CONTINUOUS
 62
     3
 10
317.8683395871315724
 20
-30.49999999999973
 30
0.0000000000000068
 11
316.6983395871314997
 21
-29.4999999999997016
 31
0.0000000000000066
210
0.0
220
1.0
230
-0.0000000000000002
  0
LINE
  5
17B5
  8
0
  6
CONTINUOUS
 62
     3
 10
374.5283395871314838
 20
-30.49999999999973
 30
0.0000000000000068
 11
375.6983395871316134
 21
-29.4999999999997016
 31
0.0000000000000066
210
0.0
220
1.0
230
-0.0000000000000002
  0
LINE
  5
17B6
  8
0
  6
CONTINUOUS
 62
     3
 10
374.5283395871314838
 20
-30.49999999999973
 30
0.0000000000000068
 11
375.6983395871316134
 21
-31.4999999999997016
 31
0.000000000000007
210
0.0
220
1.0
230
-0.0000000000000002
  0
LINE
  5
17B7
  8
0
  6
CONTINUOUS
 62
     3
 10
317.8683395871315724
 20
-30.49999999999973
 30
0.0000000000000068
 11
316.6983395871314997
 21
-31.4999999999997016
 31
0.000000000000007
210
0.0
220
1.0
230
-0.0000000000000002
  0
LINE
  5
17B8
  8
0
  6
CONTINUOUS
 62
     3
 10
317.8683395871315724
 20
-32.49999999999973
 30
0.0000000000000072
 11
316.6983395871314997
 21
-31.4999999999997016
 31
0.000000000000007
210
0.0
220
1.0
230
-0.0000000000000002
  0
LINE
  5
17B9
  8
0
  6
CONTINUOUS
 62
     3
 10
374.5283395871314838
 20
-32.49999999999973
 30
0.0000000000000072
 11
375.6983395871316134
 21
-31.4999999999997016
 31
0.000000000000007
210
0.0
220
1.0
230
-0.0000000000000002
  0
LINE
  5
17BA
  8
0
  6
CONTINUOUS
 62
     3
 10
374.5283395871314838
 20
-32.49999999999973
 30
0.0000000000000072
 11
375.6983395871316134
 21
-33.4999999999997016
 31
0.0000000000000074
210
0.0
220
1.0
230
-0.0000000000000002
  0
LINE
  5
17BB
  8
0
  6
CONTINUOUS
 62
     3
 10
317.8683395871315724
 20
-32.49999999999973
 30
0.0000000000000072
 11
316.6983395871314997
 21
-33.4999999999997016
 31
0.0000000000000074
210
0.0
220
1.0
230
-0.0000000000000002
  0
LINE
  5
17BC
  8
0
  6
CONTINUOUS
 62
     3
 10
317.8683395871315724
 20
-34.49999999999973
 30
0.0000000000000077
 11
316.6983395871314997
 21
-33.4999999999997016
 31
0.0000000000000074
210
0.0
220
1.0
230
-0.0000000000000002
  0
LINE
  5
17BD
  8
0
  6
CONTINUOUS
 62
     3
 10
374.5283395871314838
 20
-34.49999999999973
 30
0.0000000000000077
 11
375.6983395871316134
 21
-33.4999999999997016
 31
0.0000000000000074
210
0.0
220
1.0
230
-0.0000000000000002
  0
LINE
  5
17BE
  8
0
  6
CONTINUOUS
 62
     3
 10
374.5283395871314838
 20
-34.49999999999973
 30
0.0000000000000077
 11
375.6983395871316134
 21
-35.4999999999997016
 31
0.0000000000000079
210
0.0
220
1.0
230
-0.0000000000000002
  0
LINE
  5
17BF
  8
0
  6
CONTINUOUS
 62
     3
 10
317.8683395871315724
 20
-34.49999999999973
 30
0.0000000000000077
 11
316.6983395871314997
 21
-35.4999999999997016
 31
0.0000000000000079
210
0.0
220
1.0
230
-0.0000000000000002
  0
LINE
  5
17C0
  8
0
  6
CONTINUOUS
 62
     3
 10
317.8683395871315724
 20
-36.49999999999973
 30
0.0000000000000081
 11
316.6983395871314997
 21
-35.4999999999997016
 31
0.0000000000000079
210
0.0
220
1.0
230
-0.0000000000000002
  0
LINE
  5
17C1
  8
0
  6
CONTINUOUS
 62
     3
 10
374.5283395871314838
 20
-36.49999999999973
 30
0.0000000000000081
 11
375.6983395871316134
 21
-35.4999999999997016
 31
0.0000000000000079
210
0.0
220
1.0
230
-0.0000000000000002
  0
LINE
  5
17C2
  8
0
  6
CONTINUOUS
 62
     3
 10
374.5283395871314838
 20
-36.49999999999973
 30
0.0000000000000081
 11
375.6983395871316134
 21
-37.4999999999997016
 31
0.0000000000000083
210
0.0
220
1.0
230
-0.0000000000000002
  0
LINE
  5
17C3
  8
0
  6
CONTINUOUS
 62
     3
 10
317.8683395871315724
 20
-36.49999999999973
 30
0.0000000000000081
 11
316.6983395871314997
 21
-37.4999999999997016
 31
0.0000000000000083
210
0.0
220
1.0
230
-0.0000000000000002
  0
LINE
  5
17C4
  8
0
  6
CONTINUOUS
 62
     3
 10
317.8683395871315724
 20
-38.49999999999973
 30
0.0000000000000085
 11
316.6983395871314997
 21
-37.4999999999997016
 31
0.0000000000000083
210
0.0
220
1.0
230
-0.0000000000000002
  0
LINE
  5
17C5
  8
0
  6
CONTINUOUS
 62
     3
 10
374.5283395871314838
 20
-38.49999999999973
 30
0.0000000000000085
 11
375.6983395871316134
 21
-37.4999999999997016
 31
0.0000000000000083
210
0.0
220
1.0
230
-0.0000000000000002
  0
LINE
  5
17C6
  8
0
  6
CONTINUOUS
 62
     3
 10
374.5283395871314838
 20
-38.49999999999973
 30
0.0000000000000085
 11
375.6983395871316134
 21
-39.4999999999997016
 31
0.0000000000000088
210
0.0
220
1.0
230
-0.0000000000000002
  0
LINE
  5
17C7
  8
0
  6
CONTINUOUS
 62
     3
 10
317.8683395871315724
 20
-38.49999999999973
 30
0.0000000000000085
 11
316.6983395871314997
 21
-39.4999999999997016
 31
0.0000000000000088
210
0.0
220
1.0
230
-0.0000000000000002
  0
LINE
  5
17C8
  8
0
  6
CONTINUOUS
 62
     3
 10
317.8683395871315724
 20
-40.49999999999973
 30
0.000000000000009
 11
316.6983395871314997
 21
-39.4999999999997016
 31
0.0000000000000088
210
0.0
220
1.0
230
-0.0000000000000002
  0
LINE
  5
17C9
  8
0
  6
CONTINUOUS
 62
     3
 10
374.5283395871314838
 20
-40.49999999999973
 30
0.000000000000009
 11
375.6983395871316134
 21
-39.4999999999997016
 31
0.0000000000000088
210
0.0
220
1.0
230
-0.0000000000000002
  0
LINE
  5
17CA
  8
0
  6
CONTINUOUS
 62
     3
 10
374.5283395871314838
 20
-40.49999999999973
 30
0.000000000000009
 11
375.6983395871316134
 21
-41.4999999999997016
 31
0.0000000000000092
210
0.0
220
1.0
230
-0.0000000000000002
  0
LINE
  5
17CB
  8
0
  6
CONTINUOUS
 62
     3
 10
317.8683395871315724
 20
-40.49999999999973
 30
0.000000000000009
 11
316.6983395871314997
 21
-41.4999999999997016
 31
0.0000000000000092
210
0.0
220
1.0
230
-0.0000000000000002
  0
LINE
  5
17CC
  8
0
  6
CONTINUOUS
 62
     3
 10
317.8683395871312882
 20
-42.4999999999997087
 30
0.0000000000000094
 11
316.6983395871314997
 21
-41.4999999999996874
 31
0.0000000000000092
210
0.0
220
1.0
230
-0.0000000000000002
  0
LINE
  5
17CD
  8
0
  6
CONTINUOUS
 62
     3
 10
374.5283395871318248
 20
-42.4999999999997087
 30
0.0000000000000094
 11
375.6983395871316134
 21
-41.4999999999996874
 31
0.0000000000000092
210
0.0
220
1.0
230
-0.0000000000000002
  0
LINE
  5
17CE
  8
0
  6
CONTINUOUS
 62
     3
 10
374.5283395871318248
 20
-42.4999999999997371
 30
0.0000000000000094
 11
375.6983395871316134
 21
-43.4999999999997229
 31
0.0000000000000097
210
0.0
220
1.0
230
-0.0000000000000002
  0
LINE
  5
17CF
  8
0
  6
CONTINUOUS
 62
     3
 10
317.8683395871312882
 20
-42.4999999999997371
 30
0.0000000000000094
 11
316.6983395871314997
 21
-43.4999999999997229
 31
0.0000000000000097
210
0.0
220
1.0
230
-0.0000000000000002
  0
LINE
  5
17D0
  8
0
  6
CONTINUOUS
 62
     3
 10
317.8683395871315156
 20
-44.4999999999997087
 30
0.0000000000000099
 11
316.6983395871314997
 21
-43.4999999999996803
 31
0.0000000000000097
210
0.0
220
1.0
230
-0.0000000000000002
  0
LINE
  5
17D1
  8
0
  6
CONTINUOUS
 62
     3
 10
374.5283395871315975
 20
-44.4999999999997087
 30
0.0000000000000099
 11
375.6983395871316134
 21
-43.4999999999996803
 31
0.0000000000000097
210
0.0
220
1.0
230
-0.0000000000000002
  0
LINE
  5
17D2
  8
0
  6
CONTINUOUS
 62
     3
 10
374.5283395871315975
 20
-44.4999999999997371
 30
0.0000000000000099
 11
375.6983395871316134
 21
-45.4999999999997087
 31
0.0000000000000101
210
0.0
220
1.0
230
-0.0000000000000002
  0
LINE
  5
17D3
  8
0
  6
CONTINUOUS
 62
     3
 10
317.8683395871315156
 20
-44.4999999999997371
 30
0.0000000000000099
 11
316.6983395871314997
 21
-45.4999999999997087
 31
0.0000000000000101
210
0.0
220
1.0
230
-0.0000000000000002
  0
LINE
  5
17D4
  8
0
  6
CONTINUOUS
 62
     3
 10
317.8683395871311745
 20
-46.4999999999997371
 30
0.0000000000000103
 11
316.6983395871314997
 21
-45.4999999999997087
 31
0.0000000000000101
210
0.0
220
1.0
230
-0.0000000000000002
  0
LINE
  5
17D5
  8
0
  6
CONTINUOUS
 62
     3
 10
374.5283395871318817
 20
-46.4999999999997371
 30
0.0000000000000103
 11
375.6983395871316134
 21
-45.4999999999997087
 31
0.0000000000000101
210
0.0
220
1.0
230
-0.0000000000000002
  0
LINE
  5
17D6
  8
0
  6
CONTINUOUS
 62
     3
 10
374.5283395871318817
 20
-46.4999999999997087
 30
0.0000000000000103
 11
375.6983395871316134
 21
-47.4999999999996803
 31
0.0000000000000105
210
0.0
220
1.0
230
-0.0000000000000002
  0
LINE
  5
17D7
  8
0
  6
CONTINUOUS
 62
     3
 10
317.8683395871311745
 20
-46.4999999999997087
 30
0.0000000000000103
 11
316.6983395871314997
 21
-47.4999999999996803
 31
0.0000000000000105
210
0.0
220
1.0
230
-0.0000000000000002
  0
LINE
  5
17D8
  8
0
  6
CONTINUOUS
 62
     3
 10
317.8683395871311745
 20
-48.4999999999997513
 30
0.0000000000000108
 11
316.6983395871314997
 21
-47.4999999999997087
 31
0.0000000000000105
210
0.0
220
1.0
230
-0.0000000000000002
  0
LINE
  5
17D9
  8
0
  6
CONTINUOUS
 62
     3
 10
374.5283395871318817
 20
-48.4999999999997513
 30
0.0000000000000108
 11
375.6983395871316134
 21
-47.4999999999997087
 31
0.0000000000000105
210
0.0
220
1.0
230
-0.0000000000000002
  0
LINE
  5
17DA
  8
0
  6
CONTINUOUS
 62
     3
 10
374.5283395871318817
 20
-48.4999999999997229
 30
0.0000000000000108
 11
375.6983395871316134
 21
-49.4999999999996874
 31
0.000000000000011
210
0.0
220
1.0
230
-0.0000000000000002
  0
LINE
  5
17DB
  8
0
  6
CONTINUOUS
 62
     3
 10
317.8683395871311745
 20
-48.4999999999997229
 30
0.0000000000000108
 11
316.6983395871314997
 21
-49.4999999999996874
 31
0.000000000000011
210
0.0
220
1.0
230
-0.0000000000000002
  0
LINE
  5
17DC
  8
0
  6
CONTINUOUS
 62
     3
 10
317.8683395871311177
 20
-50.4999999999997229
 30
0.0000000000000112
 11
316.6983395871314997
 21
-49.4999999999996874
 31
0.000000000000011
210
0.0
220
1.0
230
-0.0000000000000002
  0
LINE
  5
17DD
  8
0
  6
CONTINUOUS
 62
     3
 10
374.528339587132109
 20
-50.4999999999997229
 30
0.0000000000000112
 11
375.6983395871316134
 21
-49.4999999999996874
 31
0.000000000000011
210
0.0
220
1.0
230
-0.0000000000000002
  0
LINE
  5
17DE
  8
0
  6
CONTINUOUS
 62
     3
 10
374.528339587132109
 20
-50.4999999999997513
 30
0.0000000000000112
 11
375.6983395871316134
 21
-51.4999999999997229
 31
0.0000000000000114
210
0.0
220
1.0
230
-0.0000000000000002
  0
LINE
  5
17DF
  8
0
  6
CONTINUOUS
 62
     3
 10
317.8683395871311177
 20
-50.4999999999997513
 30
0.0000000000000112
 11
316.6983395871314997
 21
-51.4999999999997229
 31
0.0000000000000114
210
0.0
220
1.0
230
-0.0000000000000002
  0
LINE
  5
17E0
  8
0
  6
CONTINUOUS
 62
     3
 10
317.8683395871315156
 20
-52.4999999999997229
 30
0.0000000000000117
 11
316.6983395871314997
 21
-51.4999999999997016
 31
0.0000000000000114
210
0.0
220
1.0
230
-0.0000000000000002
  0
LINE
  5
17E1
  8
0
  6
CONTINUOUS
 62
     3
 10
374.5283395871315975
 20
-52.4999999999997229
 30
0.0000000000000117
 11
375.6983395871316134
 21
-51.4999999999997016
 31
0.0000000000000114
210
0.0
220
1.0
230
-0.0000000000000002
  0
LINE
  5
17E2
  8
0
  6
VERDECKT
 62
     1
 10
317.6945291646181886
 20
51.3024998081911434
 30
-0.0000000000000114
 11
374.7021500096449245
 21
51.3024998081911434
 31
-0.0000000000000114
210
0.0
220
1.0
230
-0.0000000000000002
  0
ARC
  5
17E3
  8
0
  6
VERDECKT
 62
     1
 10
-374.6983395871314997
 20
11.7912878474777205
 30
0.0
 40
1.0000000000000639
210
0.0
220
-0.0000000000000002
230
-1.0
 50
184.4412908277317911
 51
246.4218215217971988
  0
ARC
  5
17E4
  8
0
  6
VERDECKT
 62
     1
 10
374.6983395871314997
 20
7.208712152521775
 30
-0.0000000000000016
 40
1.0000000000000639
 50
4.4412908277318399
 51
66.4218215217972272
  0
ARC
  5
17E5
  8
0
  6
VERDECKT
 62
     1
 10
-375.6983395871314997
 20
9.4999999999997442
 30
0.0
 40
1.499999999999976
210
0.0
220
-0.0000000000000002
230
-1.0
 50
293.5781784781984243
 51
66.4218215218015899
  0
POLYLINE
  8
0
  5
1DD6
  62
1
  66
     1
 10
0.000000
 20
0.000000
 30
0.000000
  70
     8
  0
VERTEX
  8
0
  5
1DD7
 10
372.695
 20
5.98937
 30
-1.30000e-15
  70
    32
  0
VERTEX
  8
0
  5
1DD8
 10
372.695
 20
5.98941
 30
-1.30000e-15
  70
    32
  0
VERTEX
  8
0
  5
1DD9
 10
372.695
 20
5.98952
 30
-1.30000e-15
  70
    32
  0
VERTEX
  8
0
  5
1DDA
 10
372.695
 20
5.98971
 30
-1.30000e-15
  70
    32
  0
VERTEX
  8
0
  5
1DDB
 10
372.695
 20
5.98997
 30
-1.30001e-15
  70
    32
  0
VERTEX
  8
0
  5
1DDC
 10
372.695
 20
5.99031
 30
-1.30002e-15
  70
    32
  0
VERTEX
  8
0
  5
1DDD
 10
372.695
 20
5.99073
 30
-1.30004e-15
  70
    32
  0
VERTEX
  8
0
  5
1DDE
 10
372.694
 20
5.99122
 30
-1.30006e-15
  70
    32
  0
VERTEX
  8
0
  5
1DDF
 10
372.694
 20
5.99178
 30
-1.30009e-15
  70
    32
  0
VERTEX
  8
0
  5
1DE0
 10
372.694
 20
5.99242
 30
-1.30013e-15
  70
    32
  0
VERTEX
  8
0
  5
1DE1
 10
372.694
 20
5.99314
 30
-1.30018e-15
  70
    32
  0
VERTEX
  8
0
  5
1DE2
 10
372.694
 20
5.99393
 30
-1.30024e-15
  70
    32
  0
VERTEX
  8
0
  5
1DE3
 10
372.694
 20
5.99479
 30
-1.30032e-15
  70
    32
  0
VERTEX
  8
0
  5
1DE4
 10
372.694
 20
5.99573
 30
-1.30040e-15
  70
    32
  0
VERTEX
  8
0
  5
1DE5
 10
372.694
 20
5.99675
 30
-1.30050e-15
  70
    32
  0
VERTEX
  8
0
  5
1DE6
 10
372.694
 20
5.99784
 30
-1.30062e-15
  70
    32
  0
VERTEX
  8
0
  5
1DE7
 10
372.694
 20
5.99900
 30
-1.30075e-15
  70
    32
  0
VERTEX
  8
0
  5
1DE8
 10
372.693
 20
6.00024
 30
-1.30090e-15
  70
    32
  0
VERTEX
  8
0
  5
1DE9
 10
372.693
 20
6.00155
 30
-1.30106e-15
  70
    32
  0
VERTEX
  8
0
  5
1DEA
 10
372.693
 20
6.00294
 30
-1.30125e-15
  70
    32
  0
VERTEX
  8
0
  5
1DEB
 10
372.693
 20
6.00440
 30
-1.30146e-15
  70
    32
  0
VERTEX
  8
0
  5
1DEC
 10
372.693
 20
6.00593
 30
-1.30169e-15
  70
    32
  0
VERTEX
  8
0
  5
1DED
 10
372.693
 20
6.00754
 30
-1.30194e-15
  70
    32
  0
VERTEX
  8
0
  5
1DEE
 10
372.692
 20
6.00922
 30
-1.30222e-15
  70
    32
  0
VERTEX
  8
0
  5
1DEF
 10
372.692
 20
6.01098
 30
-1.30252e-15
  70
    32
  0
VERTEX
  8
0
  5
1DF0
 10
372.692
 20
6.01281
 30
-1.30285e-15
  70
    32
  0
VERTEX
  8
0
  5
1DF1
 10
372.692
 20
6.01472
 30
-1.30321e-15
  70
    32
  0
VERTEX
  8
0
  5
1DF2
 10
372.691
 20
6.01669
 30
-1.30359e-15
  70
    32
  0
VERTEX
  8
0
  5
1DF3
 10
372.691
 20
6.01875
 30
-1.30401e-15
  70
    32
  0
VERTEX
  8
0
  5
1DF4
 10
372.691
 20
6.02087
 30
-1.30445e-15
  70
    32
  0
VERTEX
  8
0
  5
1DF5
 10
372.691
 20
6.02307
 30
-1.30493e-15
  70
    32
  0
VERTEX
  8
0
  5
1DF6
 10
372.690
 20
6.02534
 30
-1.30544e-15
  70
    32
  0
VERTEX
  8
0
  5
1DF7
 10
372.690
 20
6.02769
 30
-1.30598e-15
  70
    32
  0
VERTEX
  8
0
  5
1DF8
 10
372.690
 20
6.03010
 30
-1.30656e-15
  70
    32
  0
VERTEX
  8
0
  5
1DF9
 10
372.689
 20
6.03260
 30
-1.30717e-15
  70
    32
  0
VERTEX
  8
0
  5
1DFA
 10
372.689
 20
6.03516
 30
-1.30782e-15
  70
    32
  0
VERTEX
  8
0
  5
1DFB
 10
372.689
 20
6.03780
 30
-1.30851e-15
  70
    32
  0
VERTEX
  8
0
  5
1DFC
 10
372.689
 20
6.04051
 30
-1.30924e-15
  70
    32
  0
VERTEX
  8
0
  5
1DFD
 10
372.688
 20
6.04329
 30
-1.31001e-15
  70
    32
  0
VERTEX
  8
0
  5
1DFE
 10
372.688
 20
6.04615
 30
-1.31082e-15
  70
    32
  0
VERTEX
  8
0
  5
1DFF
 10
372.688
 20
6.04908
 30
-1.31168e-15
  70
    32
  0
VERTEX
  8
0
  5
1E00
 10
372.687
 20
6.05208
 30
-1.31258e-15
  70
    32
  0
VERTEX
  8
0
  5
1E01
 10
372.687
 20
6.05515
 30
-1.31352e-15
  70
    32
  0
VERTEX
  8
0
  5
1E02
 10
372.686
 20
6.05830
 30
-1.31451e-15
  70
    32
  0
VERTEX
  8
0
  5
1E03
 10
372.686
 20
6.06151
 30
-1.31554e-15
  70
    32
  0
VERTEX
  8
0
  5
1E04
 10
372.686
 20
6.06480
 30
-1.31663e-15
  70
    32
  0
VERTEX
  8
0
  5
1E05
 10
372.685
 20
6.06817
 30
-1.31776e-15
  70
    32
  0
VERTEX
  8
0
  5
1E06
 10
372.685
 20
6.07160
 30
-1.31894e-15
  70
    32
  0
VERTEX
  8
0
  5
1E07
 10
372.684
 20
6.07511
 30
-1.32018e-15
  70
    32
  0
VERTEX
  8
0
  5
1E08
 10
372.684
 20
6.07869
 30
-1.32147e-15
  70
    32
  0
VERTEX
  8
0
  5
1E09
 10
372.684
 20
6.08234
 30
-1.32281e-15
  70
    32
  0
VERTEX
  8
0
  5
1E0A
 10
372.683
 20
6.08606
 30
-1.32420e-15
  70
    32
  0
VERTEX
  8
0
  5
1E0B
 10
372.683
 20
6.08985
 30
-1.32566e-15
  70
    32
  0
VERTEX
  8
0
  5
1E0C
 10
372.682
 20
6.09372
 30
-1.32716e-15
  70
    32
  0
VERTEX
  8
0
  5
1E0D
 10
372.682
 20
6.09766
 30
-1.32873e-15
  70
    32
  0
VERTEX
  8
0
  5
1E0E
 10
372.681
 20
6.10166
 30
-1.33036e-15
  70
    32
  0
VERTEX
  8
0
  5
1E0F
 10
372.681
 20
6.10574
 30
-1.33204e-15
  70
    32
  0
VERTEX
  8
0
  5
1E10
 10
372.680
 20
6.10990
 30
-1.33379e-15
  70
    32
  0
VERTEX
  8
0
  5
1E11
 10
372.680
 20
6.11412
 30
-1.33560e-15
  70
    32
  0
VERTEX
  8
0
  5
1E12
 10
372.679
 20
6.11841
 30
-1.33747e-15
  70
    32
  0
VERTEX
  8
0
  5
1E13
 10
372.679
 20
6.12278
 30
-1.33941e-15
  70
    32
  0
VERTEX
  8
0
  5
1E14
 10
372.678
 20
6.12721
 30
-1.34142e-15
  70
    32
  0
VERTEX
  8
0
  5
1E15
 10
372.678
 20
6.13172
 30
-1.34349e-15
  70
    32
  0
VERTEX
  8
0
  5
1E16
 10
372.677
 20
6.13630
 30
-1.34562e-15
  70
    32
  0
VERTEX
  8
0
  5
1E17
 10
372.677
 20
6.14095
 30
-1.34783e-15
  70
    32
  0
VERTEX
  8
0
  5
1E18
 10
372.676
 20
6.14566
 30
-1.35010e-15
  70
    32
  0
VERTEX
  8
0
  5
1E19
 10
372.676
 20
6.15045
 30
-1.35232e-15
  70
    32
  0
VERTEX
  8
0
  5
1E1A
 10
372.675
 20
6.15531
 30
-1.35448e-15
  70
    32
  0
VERTEX
  8
0
  5
1E1B
 10
372.675
 20
6.16024
 30
-1.35657e-15
  70
    32
  0
VERTEX
  8
0
  5
1E1C
 10
372.674
 20
6.16524
 30
-1.35861e-15
  70
    32
  0
VERTEX
  8
0
  5
1E1D
 10
372.673
 20
6.17031
 30
-1.36058e-15
  70
    32
  0
VERTEX
  8
0
  5
1E1E
 10
372.673
 20
6.17545
 30
-1.36249e-15
  70
    32
  0
VERTEX
  8
0
  5
1E1F
 10
372.672
 20
6.18066
 30
-1.36435e-15
  70
    32
  0
VERTEX
  8
0
  5
1E20
 10
372.672
 20
6.18593
 30
-1.36616e-15
  70
    32
  0
VERTEX
  8
0
  5
1E21
 10
372.671
 20
6.19128
 30
-1.36791e-15
  70
    32
  0
VERTEX
  8
0
  5
1E22
 10
372.670
 20
6.19669
 30
-1.36962e-15
  70
    32
  0
VERTEX
  8
0
  5
1E23
 10
372.670
 20
6.20218
 30
-1.37128e-15
  70
    32
  0
VERTEX
  8
0
  5
1E24
 10
372.669
 20
6.20773
 30
-1.37289e-15
  70
    32
  0
VERTEX
  8
0
  5
1E25
 10
372.668
 20
6.21334
 30
-1.37446e-15
  70
    32
  0
VERTEX
  8
0
  5
1E26
 10
372.668
 20
6.21903
 30
-1.37599e-15
  70
    32
  0
VERTEX
  8
0
  5
1E27
 10
372.667
 20
6.22478
 30
-1.37747e-15
  70
    32
  0
VERTEX
  8
0
  5
1E28
 10
372.667
 20
6.23060
 30
-1.37892e-15
  70
    32
  0
VERTEX
  8
0
  5
1E29
 10
372.666
 20
6.23649
 30
-1.38034e-15
  70
    32
  0
VERTEX
  8
0
  5
1E2A
 10
372.665
 20
6.24245
 30
-1.38172e-15
  70
    32
  0
VERTEX
  8
0
  5
1E2B
 10
372.665
 20
6.24847
 30
-1.38307e-15
  70
    32
  0
VERTEX
  8
0
  5
1E2C
 10
372.664
 20
6.25456
 30
-1.38439e-15
  70
    32
  0
VERTEX
  8
0
  5
1E2D
 10
372.663
 20
6.26071
 30
-1.38568e-15
  70
    32
  0
VERTEX
  8
0
  5
1E2E
 10
372.662
 20
6.26693
 30
-1.38695e-15
  70
    32
  0
VERTEX
  8
0
  5
1E2F
 10
372.662
 20
6.27322
 30
-1.38820e-15
  70
    32
  0
VERTEX
  8
0
  5
1E30
 10
372.661
 20
6.27957
 30
-1.38942e-15
  70
    32
  0
VERTEX
  8
0
  5
1E31
 10
372.660
 20
6.28599
 30
-1.39062e-15
  70
    32
  0
VERTEX
  8
0
  5
1E32
 10
372.660
 20
6.29247
 30
-1.39181e-15
  70
    32
  0
VERTEX
  8
0
  5
1E33
 10
372.659
 20
6.29902
 30
-1.39298e-15
  70
    32
  0
VERTEX
  8
0
  5
1E34
 10
372.658
 20
6.30563
 30
-1.39414e-15
  70
    32
  0
VERTEX
  8
0
  5
1E35
 10
372.657
 20
6.31231
 30
-1.39529e-15
  70
    32
  0
VERTEX
  8
0
  5
1E36
 10
372.657
 20
6.31905
 30
-1.39643e-15
  70
    32
  0
VERTEX
  8
0
  5
1E37
 10
372.656
 20
6.32586
 30
-1.39756e-15
  70
    32
  0
VERTEX
  8
0
  5
1E38
 10
372.655
 20
6.33273
 30
-1.39868e-15
  70
    32
  0
VERTEX
  8
0
  5
1E39
 10
372.654
 20
6.33967
 30
-1.39980e-15
  70
    32
  0
VERTEX
  8
0
  5
1E3A
 10
372.654
 20
6.34667
 30
-1.40093e-15
  70
    32
  0
VERTEX
  8
0
  5
1E3B
 10
372.653
 20
6.35373
 30
-1.40205e-15
  70
    32
  0
VERTEX
  8
0
  5
1E3C
 10
372.652
 20
6.36085
 30
-1.40317e-15
  70
    32
  0
VERTEX
  8
0
  5
1E3D
 10
372.651
 20
6.36804
 30
-1.40430e-15
  70
    32
  0
VERTEX
  8
0
  5
1E3E
 10
372.651
 20
6.37530
 30
-1.40544e-15
  70
    32
  0
VERTEX
  8
0
  5
1E3F
 10
372.650
 20
6.38261
 30
-1.40658e-15
  70
    32
  0
VERTEX
  8
0
  5
1E40
 10
372.649
 20
6.38999
 30
-1.40774e-15
  70
    32
  0
VERTEX
  8
0
  5
1E41
 10
372.648
 20
6.39743
 30
-1.40891e-15
  70
    32
  0
VERTEX
  8
0
  5
1E42
 10
372.647
 20
6.40493
 30
-1.41009e-15
  70
    32
  0
VERTEX
  8
0
  5
1E43
 10
372.647
 20
6.41249
 30
-1.41129e-15
  70
    32
  0
VERTEX
  8
0
  5
1E44
 10
372.646
 20
6.42012
 30
-1.41251e-15
  70
    32
  0
VERTEX
  8
0
  5
1E45
 10
372.645
 20
6.42780
 30
-1.41375e-15
  70
    32
  0
VERTEX
  8
0
  5
1E46
 10
372.644
 20
6.43555
 30
-1.41502e-15
  70
    32
  0
VERTEX
  8
0
  5
1E47
 10
372.643
 20
6.44336
 30
-1.41631e-15
  70
    32
  0
VERTEX
  8
0
  5
1E48
 10
372.642
 20
6.45123
 30
-1.41762e-15
  70
    32
  0
VERTEX
  8
0
  5
1E49
 10
372.642
 20
6.45916
 30
-1.41897e-15
  70
    32
  0
VERTEX
  8
0
  5
1E4A
 10
372.641
 20
6.46715
 30
-1.42034e-15
  70
    32
  0
VERTEX
  8
0
  5
1E4B
 10
372.640
 20
6.47520
 30
-1.42175e-15
  70
    32
  0
VERTEX
  8
0
  5
1E4C
 10
372.639
 20
6.48331
 30
-1.42320e-15
  70
    32
  0
VERTEX
  8
0
  5
1E4D
 10
372.638
 20
6.49149
 30
-1.42468e-15
  70
    32
  0
VERTEX
  8
0
  5
1E4E
 10
372.637
 20
6.49972
 30
-1.42620e-15
  70
    32
  0
VERTEX
  8
0
  5
1E4F
 10
372.637
 20
6.50801
 30
-1.42776e-15
  70
    32
  0
VERTEX
  8
0
  5
1E50
 10
372.636
 20
6.51636
 30
-1.42936e-15
  70
    32
  0
VERTEX
  8
0
  5
1E51
 10
372.635
 20
6.52477
 30
-1.43101e-15
  70
    32
  0
VERTEX
  8
0
  5
1E52
 10
372.634
 20
6.53323
 30
-1.43271e-15
  70
    32
  0
VERTEX
  8
0
  5
1E53
 10
372.633
 20
6.54176
 30
-1.43446e-15
  70
    32
  0
VERTEX
  8
0
  5
1E54
 10
372.632
 20
6.55035
 30
-1.43625e-15
  70
    32
  0
VERTEX
  8
0
  5
1E55
 10
372.631
 20
6.55899
 30
-1.43810e-15
  70
    32
  0
VERTEX
  8
0
  5
1E56
 10
372.630
 20
6.56769
 30
-1.44001e-15
  70
    32
  0
VERTEX
  8
0
  5
1E57
 10
372.630
 20
6.57645
 30
-1.44197e-15
  70
    32
  0
VERTEX
  8
0
  5
1E58
 10
372.629
 20
6.58527
 30
-1.44399e-15
  70
    32
  0
VERTEX
  8
0
  5
1E59
 10
372.628
 20
6.59414
 30
-1.44608e-15
  70
    32
  0
VERTEX
  8
0
  5
1E5A
 10
372.627
 20
6.60308
 30
-1.44822e-15
  70
    32
  0
VERTEX
  8
0
  5
1E5B
 10
372.626
 20
6.61206
 30
-1.45044e-15
  70
    32
  0
VERTEX
  8
0
  5
1E5C
 10
372.625
 20
6.62111
 30
-1.45271e-15
  70
    32
  0
VERTEX
  8
0
  5
1E5D
 10
372.624
 20
6.63021
 30
-1.45503e-15
  70
    32
  0
VERTEX
  8
0
  5
1E5E
 10
372.623
 20
6.63937
 30
-1.45742e-15
  70
    32
  0
VERTEX
  8
0
  5
1E5F
 10
372.622
 20
6.64858
 30
-1.45986e-15
  70
    32
  0
VERTEX
  8
0
  5
1E60
 10
372.622
 20
6.65785
 30
-1.46235e-15
  70
    32
  0
VERTEX
  8
0
  5
1E61
 10
372.621
 20
6.66718
 30
-1.46489e-15
  70
    32
  0
VERTEX
  8
0
  5
1E62
 10
372.620
 20
6.67656
 30
-1.46748e-15
  70
    32
  0
VERTEX
  8
0
  5
1E63
 10
372.619
 20
6.68600
 30
-1.47011e-15
  70
    32
  0
VERTEX
  8
0
  5
1E64
 10
372.618
 20
6.69548
 30
-1.47280e-15
  70
    32
  0
VERTEX
  8
0
  5
1E65
 10
372.617
 20
6.70503
 30
-1.47552e-15
  70
    32
  0
VERTEX
  8
0
  5
1E66
 10
372.616
 20
6.71463
 30
-1.47829e-15
  70
    32
  0
VERTEX
  8
0
  5
1E67
 10
372.615
 20
6.72428
 30
-1.48110e-15
  70
    32
  0
VERTEX
  8
0
  5
1E68
 10
372.614
 20
6.73398
 30
-1.48394e-15
  70
    32
  0
VERTEX
  8
0
  5
1E69
 10
372.613
 20
6.74374
 30
-1.48682e-15
  70
    32
  0
VERTEX
  8
0
  5
1E6A
 10
372.612
 20
6.75356
 30
-1.48974e-15
  70
    32
  0
VERTEX
  8
0
  5
1E6B
 10
372.611
 20
6.76342
 30
-1.49269e-15
  70
    32
  0
VERTEX
  8
0
  5
1E6C
 10
372.610
 20
6.77334
 30
-1.49567e-15
  70
    32
  0
VERTEX
  8
0
  5
1E6D
 10
372.609
 20
6.78331
 30
-1.49868e-15
  70
    32
  0
VERTEX
  8
0
  5
1E6E
 10
372.609
 20
6.79333
 30
-1.50171e-15
  70
    32
  0
VERTEX
  8
0
  5
1E6F
 10
372.608
 20
6.80340
 30
-1.50478e-15
  70
    32
  0
VERTEX
  8
0
  5
1E70
 10
372.607
 20
6.81353
 30
-1.50786e-15
  70
    32
  0
VERTEX
  8
0
  5
1E71
 10
372.606
 20
6.82370
 30
-1.51097e-15
  70
    32
  0
VERTEX
  8
0
  5
1E72
 10
372.605
 20
6.83393
 30
-1.51410e-15
  70
    32
  0
VERTEX
  8
0
  5
1E73
 10
372.604
 20
6.84421
 30
-1.51725e-15
  70
    32
  0
VERTEX
  8
0
  5
1E74
 10
372.603
 20
6.85454
 30
-1.52041e-15
  70
    32
  0
VERTEX
  8
0
  5
1E75
 10
372.602
 20
6.86492
 30
-1.52359e-15
  70
    32
  0
VERTEX
  8
0
  5
1E76
 10
372.601
 20
6.87534
 30
-1.52678e-15
  70
    32
  0
VERTEX
  8
0
  5
1E77
 10
372.600
 20
6.88582
 30
-1.52998e-15
  70
    32
  0
VERTEX
  8
0
  5
1E78
 10
372.599
 20
6.89635
 30
-1.53319e-15
  70
    32
  0
VERTEX
  8
0
  5
1E79
 10
372.598
 20
6.90693
 30
-1.53641e-15
  70
    32
  0
VERTEX
  8
0
  5
1E7A
 10
372.597
 20
6.91755
 30
-1.53964e-15
  70
    32
  0
VERTEX
  8
0
  5
1E7B
 10
372.596
 20
6.92823
 30
-1.54287e-15
  70
    32
  0
VERTEX
  8
0
  5
1E7C
 10
372.595
 20
6.93895
 30
-1.54610e-15
  70
    32
  0
VERTEX
  8
0
  5
1E7D
 10
372.594
 20
6.94972
 30
-1.54933e-15
  70
    32
  0
VERTEX
  8
0
  5
1E7E
 10
372.593
 20
6.96054
 30
-1.55257e-15
  70
    32
  0
VERTEX
  8
0
  5
1E7F
 10
372.592
 20
6.97141
 30
-1.55579e-15
  70
    32
  0
VERTEX
  8
0
  5
1E80
 10
372.592
 20
6.98232
 30
-1.55902e-15
  70
    32
  0
VERTEX
  8
0
  5
1E81
 10
372.591
 20
6.99328
 30
-1.56224e-15
  70
    32
  0
VERTEX
  8
0
  5
1E82
 10
372.590
 20
7.00429
 30
-1.56544e-15
  70
    32
  0
VERTEX
  8
0
  5
1E83
 10
372.589
 20
7.01535
 30
-1.56864e-15
  70
    32
  0
VERTEX
  8
0
  5
1E84
 10
372.588
 20
7.02645
 30
-1.57183e-15
  70
    32
  0
VERTEX
  8
0
  5
1E85
 10
372.587
 20
7.03760
 30
-1.57500e-15
  70
    32
  0
VERTEX
  8
0
  5
1E86
 10
372.586
 20
7.04879
 30
-1.57816e-15
  70
    32
  0
VERTEX
  8
0
  5
1E87
 10
372.585
 20
7.06003
 30
-1.58130e-15
  70
    32
  0
VERTEX
  8
0
  5
1E88
 10
372.584
 20
7.07131
 30
-1.58442e-15
  70
    32
  0
VERTEX
  8
0
  5
1E89
 10
372.583
 20
7.08264
 30
-1.58752e-15
  70
    32
  0
VERTEX
  8
0
  5
1E8A
 10
372.582
 20
7.09402
 30
-1.59060e-15
  70
    32
  0
VERTEX
  8
0
  5
1E8B
 10
372.581
 20
7.10544
 30
-1.59366e-15
  70
    32
  0
VERTEX
  8
0
  5
1E8C
 10
372.580
 20
7.11690
 30
-1.59668e-15
  70
    32
  0
VERTEX
  8
0
  5
1E8D
 10
372.579
 20
7.12841
 30
-1.59968e-15
  70
    32
  0
VERTEX
  8
0
  5
1E8E
 10
372.578
 20
7.13996
 30
-1.60265e-15
  70
    32
  0
VERTEX
  8
0
  5
1E8F
 10
372.577
 20
7.15155
 30
-1.60559e-15
  70
    32
  0
VERTEX
  8
0
  5
1E90
 10
372.576
 20
7.16319
 30
-1.60849e-15
  70
    32
  0
VERTEX
  8
0
  5
1E91
 10
372.575
 20
7.17487
 30
-1.61136e-15
  70
    32
  0
VERTEX
  8
0
  5
1E92
 10
372.575
 20
7.18660
 30
-1.61420e-15
  70
    32
  0
VERTEX
  8
0
  5
1E93
 10
372.574
 20
7.19836
 30
-1.61699e-15
  70
    32
  0
VERTEX
  8
0
  5
1E94
 10
372.573
 20
7.21017
 30
-1.61974e-15
  70
    32
  0
VERTEX
  8
0
  5
1E95
 10
372.572
 20
7.22202
 30
-1.62245e-15
  70
    32
  0
VERTEX
  8
0
  5
1E96
 10
372.571
 20
7.23392
 30
-1.62512e-15
  70
    32
  0
VERTEX
  8
0
  5
1E97
 10
372.570
 20
7.24585
 30
-1.62774e-15
  70
    32
  0
VERTEX
  8
0
  5
1E98
 10
372.569
 20
7.25783
 30
-1.63032e-15
  70
    32
  0
VERTEX
  8
0
  5
1E99
 10
372.568
 20
7.26984
 30
-1.63284e-15
  70
    32
  0
VERTEX
  8
0
  5
1E9A
 10
372.567
 20
7.28190
 30
-1.63531e-15
  70
    32
  0
VERTEX
  8
0
  5
1E9B
 10
372.566
 20
7.29400
 30
-1.63773e-15
  70
    32
  0
VERTEX
  8
0
  5
1E9C
 10
372.565
 20
7.30613
 30
-1.64010e-15
  70
    32
  0
VERTEX
  8
0
  5
1E9D
 10
372.564
 20
7.31831
 30
-1.64241e-15
  70
    32
  0
VERTEX
  8
0
  5
1E9E
 10
372.563
 20
7.33053
 30
-1.64466e-15
  70
    32
  0
VERTEX
  8
0
  5
1E9F
 10
372.562
 20
7.34279
 30
-1.64685e-15
  70
    32
  0
VERTEX
  8
0
  5
1EA0
 10
372.562
 20
7.35508
 30
-1.64898e-15
  70
    32
  0
VERTEX
  8
0
  5
1EA1
 10
372.561
 20
7.36742
 30
-1.65111e-15
  70
    32
  0
VERTEX
  8
0
  5
1EA2
 10
372.560
 20
7.37979
 30
-1.65330e-15
  70
    32
  0
VERTEX
  8
0
  5
1EA3
 10
372.559
 20
7.39220
 30
-1.65554e-15
  70
    32
  0
VERTEX
  8
0
  5
1EA4
 10
372.558
 20
7.40465
 30
-1.65783e-15
  70
    32
  0
VERTEX
  8
0
  5
1EA5
 10
372.557
 20
7.41714
 30
-1.66017e-15
  70
    32
  0
VERTEX
  8
0
  5
1EA6
 10
372.556
 20
7.42967
 30
-1.66255e-15
  70
    32
  0
VERTEX
  8
0
  5
1EA7
 10
372.555
 20
7.44223
 30
-1.66499e-15
  70
    32
  0
VERTEX
  8
0
  5
1EA8
 10
372.554
 20
7.45483
 30
-1.66746e-15
  70
    32
  0
VERTEX
  8
0
  5
1EA9
 10
372.553
 20
7.46747
 30
-1.66998e-15
  70
    32
  0
VERTEX
  8
0
  5
1EAA
 10
372.553
 20
7.48014
 30
-1.67254e-15
  70
    32
  0
VERTEX
  8
0
  5
1EAB
 10
372.552
 20
7.49285
 30
-1.67513e-15
  70
    32
  0
VERTEX
  8
0
  5
1EAC
 10
372.551
 20
7.50559
 30
-1.67777e-15
  70
    32
  0
VERTEX
  8
0
  5
1EAD
 10
372.550
 20
7.51837
 30
-1.68044e-15
  70
    32
  0
VERTEX
  8
0
  5
1EAE
 10
372.549
 20
7.53119
 30
-1.68314e-15
  70
    32
  0
VERTEX
  8
0
  5
1EAF
 10
372.548
 20
7.54404
 30
-1.68588e-15
  70
    32
  0
VERTEX
  8
0
  5
1EB0
 10
372.547
 20
7.55692
 30
-1.68865e-15
  70
    32
  0
VERTEX
  8
0
  5
1EB1
 10
372.546
 20
7.56985
 30
-1.69146e-15
  70
    32
  0
VERTEX
  8
0
  5
1EB2
 10
372.546
 20
7.58280
 30
-1.69428e-15
  70
    32
  0
VERTEX
  8
0
  5
1EB3
 10
372.545
 20
7.59579
 30
-1.69714e-15
  70
    32
  0
VERTEX
  8
0
  5
1EB4
 10
372.544
 20
7.60881
 30
-1.70002e-15
  70
    32
  0
VERTEX
  8
0
  5
1EB5
 10
372.543
 20
7.62187
 30
-1.70293e-15
  70
    32
  0
VERTEX
  8
0
  5
1EB6
 10
372.542
 20
7.63496
 30
-1.70586e-15
  70
    32
  0
VERTEX
  8
0
  5
1EB7
 10
372.541
 20
7.64808
 30
-1.70881e-15
  70
    32
  0
VERTEX
  8
0
  5
1EB8
 10
372.541
 20
7.66124
 30
-1.71177e-15
  70
    32
  0
VERTEX
  8
0
  5
1EB9
 10
372.540
 20
7.67442
 30
-1.71476e-15
  70
    32
  0
VERTEX
  8
0
  5
1EBA
 10
372.539
 20
7.68765
 30
-1.71776e-15
  70
    32
  0
VERTEX
  8
0
  5
1EBB
 10
372.538
 20
7.70090
 30
-1.72078e-15
  70
    32
  0
VERTEX
  8
0
  5
1EBC
 10
372.537
 20
7.71418
 30
-1.72381e-15
  70
    32
  0
VERTEX
  8
0
  5
1EBD
 10
372.536
 20
7.72750
 30
-1.72685e-15
  70
    32
  0
VERTEX
  8
0
  5
1EBE
 10
372.536
 20
7.74084
 30
-1.72991e-15
  70
    32
  0
VERTEX
  8
0
  5
1EBF
 10
372.535
 20
7.75422
 30
-1.73297e-15
  70
    32
  0
VERTEX
  8
0
  5
1EC0
 10
372.534
 20
7.76763
 30
-1.73604e-15
  70
    32
  0
VERTEX
  8
0
  5
1EC1
 10
372.533
 20
7.78107
 30
-1.73911e-15
  70
    32
  0
VERTEX
  8
0
  5
1EC2
 10
372.532
 20
7.79454
 30
-1.74219e-15
  70
    32
  0
VERTEX
  8
0
  5
1EC3
 10
372.532
 20
7.80804
 30
-1.74527e-15
  70
    32
  0
VERTEX
  8
0
  5
1EC4
 10
372.531
 20
7.82157
 30
-1.74835e-15
  70
    32
  0
VERTEX
  8
0
  5
1EC5
 10
372.530
 20
7.83513
 30
-1.75143e-15
  70
    32
  0
VERTEX
  8
0
  5
1EC6
 10
372.529
 20
7.84871
 30
-1.75451e-15
  70
    32
  0
VERTEX
  8
0
  5
1EC7
 10
372.529
 20
7.86233
 30
-1.75758e-15
  70
    32
  0
VERTEX
  8
0
  5
1EC8
 10
372.528
 20
7.87597
 30
-1.76065e-15
  70
    32
  0
VERTEX
  8
0
  5
1EC9
 10
372.527
 20
7.88965
 30
-1.76371e-15
  70
    32
  0
VERTEX
  8
0
  5
1ECA
 10
372.526
 20
7.90335
 30
-1.76677e-15
  70
    32
  0
VERTEX
  8
0
  5
1ECB
 10
372.525
 20
7.91708
 30
-1.76981e-15
  70
    32
  0
VERTEX
  8
0
  5
1ECC
 10
372.525
 20
7.93083
 30
-1.77285e-15
  70
    32
  0
VERTEX
  8
0
  5
1ECD
 10
372.524
 20
7.94462
 30
-1.77587e-15
  70
    32
  0
VERTEX
  8
0
  5
1ECE
 10
372.523
 20
7.95843
 30
-1.77888e-15
  70
    32
  0
VERTEX
  8
0
  5
1ECF
 10
372.523
 20
7.97227
 30
-1.78187e-15
  70
    32
  0
VERTEX
  8
0
  5
1ED0
 10
372.522
 20
7.98613
 30
-1.78484e-15
  70
    32
  0
VERTEX
  8
0
  5
1ED1
 10
372.521
 20
8.00002
 30
-1.78779e-15
  70
    32
  0
VERTEX
  8
0
  5
1ED2
 10
372.520
 20
8.01394
 30
-1.79073e-15
  70
    32
  0
VERTEX
  8
0
  5
1ED3
 10
372.520
 20
8.02788
 30
-1.79364e-15
  70
    32
  0
VERTEX
  8
0
  5
1ED4
 10
372.519
 20
8.04185
 30
-1.79653e-15
  70
    32
  0
VERTEX
  8
0
  5
1ED5
 10
372.518
 20
8.05584
 30
-1.79939e-15
  70
    32
  0
VERTEX
  8
0
  5
1ED6
 10
372.518
 20
8.06986
 30
-1.80223e-15
  70
    32
  0
VERTEX
  8
0
  5
1ED7
 10
372.517
 20
8.08390
 30
-1.80504e-15
  70
    32
  0
VERTEX
  8
0
  5
1ED8
 10
372.516
 20
8.09797
 30
-1.80782e-15
  70
    32
  0
VERTEX
  8
0
  5
1ED9
 10
372.515
 20
8.11206
 30
-1.81056e-15
  70
    32
  0
VERTEX
  8
0
  5
1EDA
 10
372.515
 20
8.12618
 30
-1.81328e-15
  70
    32
  0
VERTEX
  8
0
  5
1EDB
 10
372.514
 20
8.14031
 30
-1.81596e-15
  70
    32
  0
VERTEX
  8
0
  5
1EDC
 10
372.513
 20
8.15448
 30
-1.81860e-15
  70
    32
  0
VERTEX
  8
0
  5
1EDD
 10
372.513
 20
8.16866
 30
-1.82121e-15
  70
    32
  0
VERTEX
  8
0
  5
1EDE
 10
372.512
 20
8.18287
 30
-1.82378e-15
  70
    32
  0
VERTEX
  8
0
  5
1EDF
 10
372.512
 20
8.19710
 30
-1.82631e-15
  70
    32
  0
VERTEX
  8
0
  5
1EE0
 10
372.511
 20
8.21135
 30
-1.82880e-15
  70
    32
  0
VERTEX
  8
0
  5
1EE1
 10
372.510
 20
8.22563
 30
-1.83124e-15
  70
    32
  0
VERTEX
  8
0
  5
1EE2
 10
372.510
 20
8.23993
 30
-1.83364e-15
  70
    32
  0
VERTEX
  8
0
  5
1EE3
 10
372.509
 20
8.25424
 30
-1.83599e-15
  70
    32
  0
VERTEX
  8
0
  5
1EE4
 10
372.508
 20
8.26858
 30
-1.83829e-15
  70
    32
  0
VERTEX
  8
0
  5
1EE5
 10
372.508
 20
8.28294
 30
-1.84054e-15
  70
    32
  0
VERTEX
  8
0
  5
1EE6
 10
372.507
 20
8.29733
 30
-1.84275e-15
  70
    32
  0
VERTEX
  8
0
  5
1EE7
 10
372.507
 20
8.31173
 30
-1.84490e-15
  70
    32
  0
VERTEX
  8
0
  5
1EE8
 10
372.506
 20
8.32615
 30
-1.84699e-15
  70
    32
  0
VERTEX
  8
0
  5
1EE9
 10
372.505
 20
8.34059
 30
-1.84903e-15
  70
    32
  0
VERTEX
  8
0
  5
1EEA
 10
372.505
 20
8.35506
 30
-1.85107e-15
  70
    32
  0
VERTEX
  8
0
  5
1EEB
 10
372.504
 20
8.36954
 30
-1.85316e-15
  70
    32
  0
VERTEX
  8
0
  5
1EEC
 10
372.504
 20
8.38404
 30
-1.85530e-15
  70
    32
  0
VERTEX
  8
0
  5
1EED
 10
372.503
 20
8.39856
 30
-1.85748e-15
  70
    32
  0
VERTEX
  8
0
  5
1EEE
 10
372.503
 20
8.41310
 30
-1.85972e-15
  70
    32
  0
VERTEX
  8
0
  5
1EEF
 10
372.502
 20
8.42765
 30
-1.86200e-15
  70
    32
  0
VERTEX
  8
0
  5
1EF0
 10
372.502
 20
8.44223
 30
-1.86433e-15
  70
    32
  0
VERTEX
  8
0
  5
1EF1
 10
372.501
 20
8.45682
 30
-1.86670e-15
  70
    32
  0
VERTEX
  8
0
  5
1EF2
 10
372.500
 20
8.47143
 30
-1.86912e-15
  70
    32
  0
VERTEX
  8
0
  5
1EF3
 10
372.500
 20
8.48606
 30
-1.87159e-15
  70
    32
  0
VERTEX
  8
0
  5
1EF4
 10
372.499
 20
8.50070
 30
-1.87410e-15
  70
    32
  0
VERTEX
  8
0
  5
1EF5
 10
372.499
 20
8.51536
 30
-1.87665e-15
  70
    32
  0
VERTEX
  8
0
  5
1EF6
 10
372.498
 20
8.53004
 30
-1.87924e-15
  70
    32
  0
VERTEX
  8
0
  5
1EF7
 10
372.498
 20
8.54474
 30
-1.88188e-15
  70
    32
  0
VERTEX
  8
0
  5
1EF8
 10
372.498
 20
8.55945
 30
-1.88456e-15
  70
    32
  0
VERTEX
  8
0
  5
1EF9
 10
372.497
 20
8.57417
 30
-1.88728e-15
  70
    32
  0
VERTEX
  8
0
  5
1EFA
 10
372.497
 20
8.58892
 30
-1.89004e-15
  70
    32
  0
VERTEX
  8
0
  5
1EFB
 10
372.496
 20
8.60367
 30
-1.89284e-15
  70
    32
  0
VERTEX
  8
0
  5
1EFC
 10
372.496
 20
8.61845
 30
-1.89568e-15
  70
    32
  0
VERTEX
  8
0
  5
1EFD
 10
372.495
 20
8.63323
 30
-1.89855e-15
  70
    32
  0
VERTEX
  8
0
  5
1EFE
 10
372.495
 20
8.64804
 30
-1.90146e-15
  70
    32
  0
VERTEX
  8
0
  5
1EFF
 10
372.494
 20
8.66285
 30
-1.90441e-15
  70
    32
  0
VERTEX
  8
0
  5
1F00
 10
372.494
 20
8.67768
 30
-1.90740e-15
  70
    32
  0
VERTEX
  8
0
  5
1F01
 10
372.494
 20
8.69253
 30
-1.91042e-15
  70
    32
  0
VERTEX
  8
0
  5
1F02
 10
372.493
 20
8.70738
 30
-1.91347e-15
  70
    32
  0
VERTEX
  8
0
  5
1F03
 10
372.493
 20
8.72226
 30
-1.91656e-15
  70
    32
  0
VERTEX
  8
0
  5
1F04
 10
372.492
 20
8.73714
 30
-1.91969e-15
  70
    32
  0
VERTEX
  8
0
  5
1F05
 10
372.492
 20
8.75204
 30
-1.92284e-15
  70
    32
  0
VERTEX
  8
0
  5
1F06
 10
372.492
 20
8.76695
 30
-1.92603e-15
  70
    32
  0
VERTEX
  8
0
  5
1F07
 10
372.491
 20
8.78187
 30
-1.92924e-15
  70
    32
  0
VERTEX
  8
0
  5
1F08
 10
372.491
 20
8.79680
 30
-1.93249e-15
  70
    32
  0
VERTEX
  8
0
  5
1F09
 10
372.490
 20
8.81175
 30
-1.93577e-15
  70
    32
  0
VERTEX
  8
0
  5
1F0A
 10
372.490
 20
8.82671
 30
-1.93908e-15
  70
    32
  0
VERTEX
  8
0
  5
1F0B
 10
372.490
 20
8.84167
 30
-1.94241e-15
  70
    32
  0
VERTEX
  8
0
  5
1F0C
 10
372.489
 20
8.85665
 30
-1.94578e-15
  70
    32
  0
VERTEX
  8
0
  5
1F0D
 10
372.489
 20
8.87164
 30
-1.94917e-15
  70
    32
  0
VERTEX
  8
0
  5
1F0E
 10
372.489
 20
8.88664
 30
-1.95259e-15
  70
    32
  0
VERTEX
  8
0
  5
1F0F
 10
372.488
 20
8.90166
 30
-1.95603e-15
  70
    32
  0
VERTEX
  8
0
  5
1F10
 10
372.488
 20
8.91668
 30
-1.95950e-15
  70
    32
  0
VERTEX
  8
0
  5
1F11
 10
372.488
 20
8.93171
 30
-1.96299e-15
  70
    32
  0
VERTEX
  8
0
  5
1F12
 10
372.488
 20
8.94675
 30
-1.96650e-15
  70
    32
  0
VERTEX
  8
0
  5
1F13
 10
372.487
 20
8.96180
 30
-1.97004e-15
  70
    32
  0
VERTEX
  8
0
  5
1F14
 10
372.487
 20
8.97686
 30
-1.97361e-15
  70
    32
  0
VERTEX
  8
0
  5
1F15
 10
372.487
 20
8.99192
 30
-1.97719e-15
  70
    32
  0
VERTEX
  8
0
  5
1F16
 10
372.486
 20
9.00700
 30
-1.98079e-15
  70
    32
  0
VERTEX
  8
0
  5
1F17
 10
372.486
 20
9.02208
 30
-1.98442e-15
  70
    32
  0
VERTEX
  8
0
  5
1F18
 10
372.486
 20
9.03718
 30
-1.98806e-15
  70
    32
  0
VERTEX
  8
0
  5
1F19
 10
372.486
 20
9.05228
 30
-1.99172e-15
  70
    32
  0
VERTEX
  8
0
  5
1F1A
 10
372.486
 20
9.06738
 30
-1.99540e-15
  70
    32
  0
VERTEX
  8
0
  5
1F1B
 10
372.485
 20
9.08250
 30
-1.99910e-15
  70
    32
  0
VERTEX
  8
0
  5
1F1C
 10
372.485
 20
9.09762
 30
-2.00282e-15
  70
    32
  0
VERTEX
  8
0
  5
1F1D
 10
372.485
 20
9.11275
 30
-2.00655e-15
  70
    32
  0
VERTEX
  8
0
  5
1F1E
 10
372.485
 20
9.12788
 30
-2.01030e-15
  70
    32
  0
VERTEX
  8
0
  5
1F1F
 10
372.484
 20
9.14302
 30
-2.01406e-15
  70
    32
  0
VERTEX
  8
0
  5
1F20
 10
372.484
 20
9.15817
 30
-2.01784e-15
  70
    32
  0
VERTEX
  8
0
  5
1F21
 10
372.484
 20
9.17332
 30
-2.02163e-15
  70
    32
  0
VERTEX
  8
0
  5
1F22
 10
372.484
 20
9.18848
 30
-2.02543e-15
  70
    32
  0
VERTEX
  8
0
  5
1F23
 10
372.484
 20
9.20364
 30
-2.02924e-15
  70
    32
  0
VERTEX
  8
0
  5
1F24
 10
372.484
 20
9.21881
 30
-2.03307e-15
  70
    32
  0
VERTEX
  8
0
  5
1F25
 10
372.483
 20
9.23398
 30
-2.03691e-15
  70
    32
  0
VERTEX
  8
0
  5
1F26
 10
372.483
 20
9.24916
 30
-2.04075e-15
  70
    32
  0
VERTEX
  8
0
  5
1F27
 10
372.483
 20
9.26434
 30
-2.04461e-15
  70
    32
  0
VERTEX
  8
0
  5
1F28
 10
372.483
 20
9.27953
 30
-2.04848e-15
  70
    32
  0
VERTEX
  8
0
  5
1F29
 10
372.483
 20
9.29472
 30
-2.05235e-15
  70
    32
  0
VERTEX
  8
0
  5
1F2A
 10
372.483
 20
9.30991
 30
-2.05623e-15
  70
    32
  0
VERTEX
  8
0
  5
1F2B
 10
372.483
 20
9.32510
 30
-2.06012e-15
  70
    32
  0
VERTEX
  8
0
  5
1F2C
 10
372.483
 20
9.34030
 30
-2.06401e-15
  70
    32
  0
VERTEX
  8
0
  5
1F2D
 10
372.483
 20
9.35550
 30
-2.06791e-15
  70
    32
  0
VERTEX
  8
0
  5
1F2E
 10
372.483
 20
9.37071
 30
-2.07181e-15
  70
    32
  0
VERTEX
  8
0
  5
1F2F
 10
372.482
 20
9.38591
 30
-2.07572e-15
  70
    32
  0
VERTEX
  8
0
  5
1F30
 10
372.482
 20
9.40112
 30
-2.07963e-15
  70
    32
  0
VERTEX
  8
0
  5
1F31
 10
372.482
 20
9.41633
 30
-2.08355e-15
  70
    32
  0
VERTEX
  8
0
  5
1F32
 10
372.482
 20
9.43154
 30
-2.08746e-15
  70
    32
  0
VERTEX
  8
0
  5
1F33
 10
372.482
 20
9.44675
 30
-2.09138e-15
  70
    32
  0
VERTEX
  8
0
  5
1F34
 10
372.482
 20
9.46196
 30
-2.09529e-15
  70
    32
  0
VERTEX
  8
0
  5
1F35
 10
372.482
 20
9.47717
 30
-2.09921e-15
  70
    32
  0
VERTEX
  8
0
  5
1F36
 10
372.482
 20
9.49239
 30
-2.10313e-15
  70
    32
  0
VERTEX
  8
0
  5
1F37
 10
372.482
 20
9.50760
 30
-2.10704e-15
  70
    32
  0
VERTEX
  8
0
  5
1F38
 10
372.482
 20
9.52281
 30
-2.11096e-15
  70
    32
  0
VERTEX
  8
0
  5
1F39
 10
372.482
 20
9.53803
 30
-2.11487e-15
  70
    32
  0
VERTEX
  8
0
  5
1F3A
 10
372.482
 20
9.55324
 30
-2.11877e-15
  70
    32
  0
VERTEX
  8
0
  5
1F3B
 10
372.482
 20
9.56845
 30
-2.12268e-15
  70
    32
  0
VERTEX
  8
0
  5
1F3C
 10
372.482
 20
9.58366
 30
-2.12657e-15
  70
    32
  0
VERTEX
  8
0
  5
1F3D
 10
372.482
 20
9.59887
 30
-2.13047e-15
  70
    32
  0
VERTEX
  8
0
  5
1F3E
 10
372.482
 20
9.61408
 30
-2.13435e-15
  70
    32
  0
VERTEX
  8
0
  5
1F3F
 10
372.483
 20
9.62929
 30
-2.13824e-15
  70
    32
  0
VERTEX
  8
0
  5
1F40
 10
372.483
 20
9.64449
 30
-2.14211e-15
  70
    32
  0
VERTEX
  8
0
  5
1F41
 10
372.483
 20
9.65969
 30
-2.14597e-15
  70
    32
  0
VERTEX
  8
0
  5
1F42
 10
372.483
 20
9.67489
 30
-2.14983e-15
  70
    32
  0
VERTEX
  8
0
  5
1F43
 10
372.483
 20
9.69009
 30
-2.15368e-15
  70
    32
  0
VERTEX
  8
0
  5
1F44
 10
372.483
 20
9.70528
 30
-2.15752e-15
  70
    32
  0
VERTEX
  8
0
  5
1F45
 10
372.483
 20
9.72047
 30
-2.16135e-15
  70
    32
  0
VERTEX
  8
0
  5
1F46
 10
372.483
 20
9.73565
 30
-2.16517e-15
  70
    32
  0
VERTEX
  8
0
  5
1F47
 10
372.483
 20
9.75084
 30
-2.16897e-15
  70
    32
  0
VERTEX
  8
0
  5
1F48
 10
372.483
 20
9.76601
 30
-2.17276e-15
  70
    32
  0
VERTEX
  8
0
  5
1F49
 10
372.484
 20
9.78119
 30
-2.17655e-15
  70
    32
  0
VERTEX
  8
0
  5
1F4A
 10
372.484
 20
9.79636
 30
-2.18031e-15
  70
    32
  0
VERTEX
  8
0
  5
1F4B
 10
372.484
 20
9.81152
 30
-2.18407e-15
  70
    32
  0
VERTEX
  8
0
  5
1F4C
 10
372.484
 20
9.82668
 30
-2.18780e-15
  70
    32
  0
VERTEX
  8
0
  5
1F4D
 10
372.484
 20
9.84183
 30
-2.19153e-15
  70
    32
  0
VERTEX
  8
0
  5
1F4E
 10
372.484
 20
9.85698
 30
-2.19523e-15
  70
    32
  0
VERTEX
  8
0
  5
1F4F
 10
372.485
 20
9.87212
 30
-2.19892e-15
  70
    32
  0
VERTEX
  8
0
  5
1F50
 10
372.485
 20
9.88726
 30
-2.20260e-15
  70
    32
  0
VERTEX
  8
0
  5
1F51
 10
372.485
 20
9.90238
 30
-2.20625e-15
  70
    32
  0
VERTEX
  8
0
  5
1F52
 10
372.485
 20
9.91751
 30
-2.20989e-15
  70
    32
  0
VERTEX
  8
0
  5
1F53
 10
372.486
 20
9.93262
 30
-2.21350e-15
  70
    32
  0
VERTEX
  8
0
  5
1F54
 10
372.486
 20
9.94773
 30
-2.21710e-15
  70
    32
  0
VERTEX
  8
0
  5
1F55
 10
372.486
 20
9.96283
 30
-2.22068e-15
  70
    32
  0
VERTEX
  8
0
  5
1F56
 10
372.486
 20
9.97792
 30
-2.22423e-15
  70
    32
  0
VERTEX
  8
0
  5
1F57
 10
372.486
 20
9.99301
 30
-2.22776e-15
  70
    32
  0
VERTEX
  8
0
  5
1F58
 10
372.487
 20
10.0081
 30
-2.23128e-15
  70
    32
  0
VERTEX
  8
0
  5
1F59
 10
372.487
 20
10.0232
 30
-2.23476e-15
  70
    32
  0
VERTEX
  8
0
  5
1F5A
 10
372.487
 20
10.0382
 30
-2.23823e-15
  70
    32
  0
VERTEX
  8
0
  5
1F5B
 10
372.488
 20
10.0533
 30
-2.24167e-15
  70
    32
  0
VERTEX
  8
0
  5
1F5C
 10
372.488
 20
10.0683
 30
-2.24508e-15
  70
    32
  0
VERTEX
  8
0
  5
1F5D
 10
372.488
 20
10.0833
 30
-2.24847e-15
  70
    32
  0
VERTEX
  8
0
  5
1F5E
 10
372.488
 20
10.0984
 30
-2.25183e-15
  70
    32
  0
VERTEX
  8
0
  5
1F5F
 10
372.489
 20
10.1134
 30
-2.25517e-15
  70
    32
  0
VERTEX
  8
0
  5
1F60
 10
372.489
 20
10.1284
 30
-2.25848e-15
  70
    32
  0
VERTEX
  8
0
  5
1F61
 10
372.489
 20
10.1434
 30
-2.26176e-15
  70
    32
  0
VERTEX
  8
0
  5
1F62
 10
372.490
 20
10.1583
 30
-2.26501e-15
  70
    32
  0
VERTEX
  8
0
  5
1F63
 10
372.490
 20
10.1733
 30
-2.26823e-15
  70
    32
  0
VERTEX
  8
0
  5
1F64
 10
372.490
 20
10.1883
 30
-2.27142e-15
  70
    32
  0
VERTEX
  8
0
  5
1F65
 10
372.491
 20
10.2032
 30
-2.27458e-15
  70
    32
  0
VERTEX
  8
0
  5
1F66
 10
372.491
 20
10.2182
 30
-2.27771e-15
  70
    32
  0
VERTEX
  8
0
  5
1F67
 10
372.492
 20
10.2331
 30
-2.28081e-15
  70
    32
  0
VERTEX
  8
0
  5
1F68
 10
372.492
 20
10.2480
 30
-2.28387e-15
  70
    32
  0
VERTEX
  8
0
  5
1F69
 10
372.492
 20
10.2629
 30
-2.28691e-15
  70
    32
  0
VERTEX
  8
0
  5
1F6A
 10
372.493
 20
10.2778
 30
-2.28990e-15
  70
    32
  0
VERTEX
  8
0
  5
1F6B
 10
372.493
 20
10.2926
 30
-2.29287e-15
  70
    32
  0
VERTEX
  8
0
  5
1F6C
 10
372.494
 20
10.3075
 30
-2.29579e-15
  70
    32
  0
VERTEX
  8
0
  5
1F6D
 10
372.494
 20
10.3223
 30
-2.29869e-15
  70
    32
  0
VERTEX
  8
0
  5
1F6E
 10
372.494
 20
10.3372
 30
-2.30154e-15
  70
    32
  0
VERTEX
  8
0
  5
1F6F
 10
372.495
 20
10.3520
 30
-2.30436e-15
  70
    32
  0
VERTEX
  8
0
  5
1F70
 10
372.495
 20
10.3668
 30
-2.30714e-15
  70
    32
  0
VERTEX
  8
0
  5
1F71
 10
372.496
 20
10.3816
 30
-2.30988e-15
  70
    32
  0
VERTEX
  8
0
  5
1F72
 10
372.496
 20
10.3964
 30
-2.31259e-15
  70
    32
  0
VERTEX
  8
0
  5
1F73
 10
372.497
 20
10.4111
 30
-2.31525e-15
  70
    32
  0
VERTEX
  8
0
  5
1F74
 10
372.497
 20
10.4259
 30
-2.31787e-15
  70
    32
  0
VERTEX
  8
0
  5
1F75
 10
372.498
 20
10.4406
 30
-2.32045e-15
  70
    32
  0
VERTEX
  8
0
  5
1F76
 10
372.498
 20
10.4553
 30
-2.32299e-15
  70
    32
  0
VERTEX
  8
0
  5
1F77
 10
372.498
 20
10.4700
 30
-2.32549e-15
  70
    32
  0
VERTEX
  8
0
  5
1F78
 10
372.499
 20
10.4847
 30
-2.32795e-15
  70
    32
  0
VERTEX
  8
0
  5
1F79
 10
372.499
 20
10.4993
 30
-2.33036e-15
  70
    32
  0
VERTEX
  8
0
  5
1F7A
 10
372.500
 20
10.5140
 30
-2.33273e-15
  70
    32
  0
VERTEX
  8
0
  5
1F7B
 10
372.500
 20
10.5286
 30
-2.33505e-15
  70
    32
  0
VERTEX
  8
0
  5
1F7C
 10
372.501
 20
10.5432
 30
-2.33733e-15
  70
    32
  0
VERTEX
  8
0
  5
1F7D
 10
372.502
 20
10.5578
 30
-2.33956e-15
  70
    32
  0
VERTEX
  8
0
  5
1F7E
 10
372.502
 20
10.5724
 30
-2.34175e-15
  70
    32
  0
VERTEX
  8
0
  5
1F7F
 10
372.503
 20
10.5869
 30
-2.34388e-15
  70
    32
  0
VERTEX
  8
0
  5
1F80
 10
372.503
 20
10.6015
 30
-2.34597e-15
  70
    32
  0
VERTEX
  8
0
  5
1F81
 10
372.504
 20
10.6160
 30
-2.34801e-15
  70
    32
  0
VERTEX
  8
0
  5
1F82
 10
372.504
 20
10.6305
 30
-2.35000e-15
  70
    32
  0
VERTEX
  8
0
  5
1F83
 10
372.505
 20
10.6450
 30
-2.35198e-15
  70
    32
  0
VERTEX
  8
0
  5
1F84
 10
372.505
 20
10.6594
 30
-2.35401e-15
  70
    32
  0
VERTEX
  8
0
  5
1F85
 10
372.506
 20
10.6739
 30
-2.35608e-15
  70
    32
  0
VERTEX
  8
0
  5
1F86
 10
372.507
 20
10.6883
 30
-2.35821e-15
  70
    32
  0
VERTEX
  8
0
  5
1F87
 10
372.507
 20
10.7027
 30
-2.36039e-15
  70
    32
  0
VERTEX
  8
0
  5
1F88
 10
372.508
 20
10.7171
 30
-2.36261e-15
  70
    32
  0
VERTEX
  8
0
  5
1F89
 10
372.508
 20
10.7314
 30
-2.36489e-15
  70
    32
  0
VERTEX
  8
0
  5
1F8A
 10
372.509
 20
10.7458
 30
-2.36721e-15
  70
    32
  0
VERTEX
  8
0
  5
1F8B
 10
372.510
 20
10.7601
 30
-2.36958e-15
  70
    32
  0
VERTEX
  8
0
  5
1F8C
 10
372.510
 20
10.7744
 30
-2.37200e-15
  70
    32
  0
VERTEX
  8
0
  5
1F8D
 10
372.511
 20
10.7887
 30
-2.37446e-15
  70
    32
  0
VERTEX
  8
0
  5
1F8E
 10
372.512
 20
10.8029
 30
-2.37696e-15
  70
    32
  0
VERTEX
  8
0
  5
1F8F
 10
372.512
 20
10.8172
 30
-2.37951e-15
  70
    32
  0
VERTEX
  8
0
  5
1F90
 10
372.513
 20
10.8314
 30
-2.38211e-15
  70
    32
  0
VERTEX
  8
0
  5
1F91
 10
372.513
 20
10.8455
 30
-2.38475e-15
  70
    32
  0
VERTEX
  8
0
  5
1F92
 10
372.514
 20
10.8597
 30
-2.38743e-15
  70
    32
  0
VERTEX
  8
0
  5
1F93
 10
372.515
 20
10.8738
 30
-2.39015e-15
  70
    32
  0
VERTEX
  8
0
  5
1F94
 10
372.515
 20
10.8880
 30
-2.39291e-15
  70
    32
  0
VERTEX
  8
0
  5
1F95
 10
372.516
 20
10.9021
 30
-2.39572e-15
  70
    32
  0
VERTEX
  8
0
  5
1F96
 10
372.517
 20
10.9161
 30
-2.39856e-15
  70
    32
  0
VERTEX
  8
0
  5
1F97
 10
372.518
 20
10.9302
 30
-2.40144e-15
  70
    32
  0
VERTEX
  8
0
  5
1F98
 10
372.518
 20
10.9442
 30
-2.40436e-15
  70
    32
  0
VERTEX
  8
0
  5
1F99
 10
372.519
 20
10.9582
 30
-2.40732e-15
  70
    32
  0
VERTEX
  8
0
  5
1F9A
 10
372.520
 20
10.9721
 30
-2.41032e-15
  70
    32
  0
VERTEX
  8
0
  5
1F9B
 10
372.520
 20
10.9861
 30
-2.41335e-15
  70
    32
  0
VERTEX
  8
0
  5
1F9C
 10
372.521
 20
11.0000
 30
-2.41642e-15
  70
    32
  0
VERTEX
  8
0
  5
1F9D
 10
372.522
 20
11.0139
 30
-2.41952e-15
  70
    32
  0
VERTEX
  8
0
  5
1F9E
 10
372.523
 20
11.0278
 30
-2.42266e-15
  70
    32
  0
VERTEX
  8
0
  5
1F9F
 10
372.523
 20
11.0416
 30
-2.42583e-15
  70
    32
  0
VERTEX
  8
0
  5
1FA0
 10
372.524
 20
11.0554
 30
-2.42904e-15
  70
    32
  0
VERTEX
  8
0
  5
1FA1
 10
372.525
 20
11.0692
 30
-2.43228e-15
  70
    32
  0
VERTEX
  8
0
  5
1FA2
 10
372.525
 20
11.0829
 30
-2.43555e-15
  70
    32
  0
VERTEX
  8
0
  5
1FA3
 10
372.526
 20
11.0967
 30
-2.43885e-15
  70
    32
  0
VERTEX
  8
0
  5
1FA4
 10
372.527
 20
11.1104
 30
-2.44218e-15
  70
    32
  0
VERTEX
  8
0
  5
1FA5
 10
372.528
 20
11.1240
 30
-2.44554e-15
  70
    32
  0
VERTEX
  8
0
  5
1FA6
 10
372.529
 20
11.1377
 30
-2.44893e-15
  70
    32
  0
VERTEX
  8
0
  5
1FA7
 10
372.529
 20
11.1513
 30
-2.45235e-15
  70
    32
  0
VERTEX
  8
0
  5
1FA8
 10
372.530
 20
11.1649
 30
-2.45580e-15
  70
    32
  0
VERTEX
  8
0
  5
1FA9
 10
372.531
 20
11.1785
 30
-2.45928e-15
  70
    32
  0
VERTEX
  8
0
  5
1FAA
 10
372.532
 20
11.1920
 30
-2.46278e-15
  70
    32
  0
VERTEX
  8
0
  5
1FAB
 10
372.532
 20
11.2055
 30
-2.46631e-15
  70
    32
  0
VERTEX
  8
0
  5
1FAC
 10
372.533
 20
11.2190
 30
-2.46986e-15
  70
    32
  0
VERTEX
  8
0
  5
1FAD
 10
372.534
 20
11.2324
 30
-2.47344e-15
  70
    32
  0
VERTEX
  8
0
  5
1FAE
 10
372.535
 20
11.2458
 30
-2.47704e-15
  70
    32
  0
VERTEX
  8
0
  5
1FAF
 10
372.536
 20
11.2592
 30
-2.48066e-15
  70
    32
  0
VERTEX
  8
0
  5
1FB0
 10
372.536
 20
11.2725
 30
-2.48431e-15
  70
    32
  0
VERTEX
  8
0
  5
1FB1
 10
372.537
 20
11.2858
 30
-2.48798e-15
  70
    32
  0
VERTEX
  8
0
  5
1FB2
 10
372.538
 20
11.2991
 30
-2.49167e-15
  70
    32
  0
VERTEX
  8
0
  5
1FB3
 10
372.539
 20
11.3124
 30
-2.49538e-15
  70
    32
  0
VERTEX
  8
0
  5
1FB4
 10
372.540
 20
11.3256
 30
-2.49912e-15
  70
    32
  0
VERTEX
  8
0
  5
1FB5
 10
372.541
 20
11.3388
 30
-2.50287e-15
  70
    32
  0
VERTEX
  8
0
  5
1FB6
 10
372.541
 20
11.3519
 30
-2.50664e-15
  70
    32
  0
VERTEX
  8
0
  5
1FB7
 10
372.542
 20
11.3651
 30
-2.51042e-15
  70
    32
  0
VERTEX
  8
0
  5
1FB8
 10
372.543
 20
11.3782
 30
-2.51423e-15
  70
    32
  0
VERTEX
  8
0
  5
1FB9
 10
372.544
 20
11.3912
 30
-2.51805e-15
  70
    32
  0
VERTEX
  8
0
  5
1FBA
 10
372.545
 20
11.4042
 30
-2.52189e-15
  70
    32
  0
VERTEX
  8
0
  5
1FBB
 10
372.546
 20
11.4172
 30
-2.52574e-15
  70
    32
  0
VERTEX
  8
0
  5
1FBC
 10
372.546
 20
11.4302
 30
-2.52961e-15
  70
    32
  0
VERTEX
  8
0
  5
1FBD
 10
372.547
 20
11.4431
 30
-2.53350e-15
  70
    32
  0
VERTEX
  8
0
  5
1FBE
 10
372.548
 20
11.4560
 30
-2.53739e-15
  70
    32
  0
VERTEX
  8
0
  5
1FBF
 10
372.549
 20
11.4688
 30
-2.54130e-15
  70
    32
  0
VERTEX
  8
0
  5
1FC0
 10
372.550
 20
11.4817
 30
-2.54522e-15
  70
    32
  0
VERTEX
  8
0
  5
1FC1
 10
372.551
 20
11.4944
 30
-2.54916e-15
  70
    32
  0
VERTEX
  8
0
  5
1FC2
 10
372.552
 20
11.5072
 30
-2.55310e-15
  70
    32
  0
VERTEX
  8
0
  5
1FC3
 10
372.553
 20
11.5199
 30
-2.55705e-15
  70
    32
  0
VERTEX
  8
0
  5
1FC4
 10
372.553
 20
11.5326
 30
-2.56102e-15
  70
    32
  0
VERTEX
  8
0
  5
1FC5
 10
372.554
 20
11.5452
 30
-2.56499e-15
  70
    32
  0
VERTEX
  8
0
  5
1FC6
 10
372.555
 20
11.5578
 30
-2.56897e-15
  70
    32
  0
VERTEX
  8
0
  5
1FC7
 10
372.556
 20
11.5704
 30
-2.57296e-15
  70
    32
  0
VERTEX
  8
0
  5
1FC8
 10
372.557
 20
11.5829
 30
-2.57695e-15
  70
    32
  0
VERTEX
  8
0
  5
1FC9
 10
372.558
 20
11.5954
 30
-2.58095e-15
  70
    32
  0
VERTEX
  8
0
  5
1FCA
 10
372.559
 20
11.6078
 30
-2.58496e-15
  70
    32
  0
VERTEX
  8
0
  5
1FCB
 10
372.560
 20
11.6202
 30
-2.58897e-15
  70
    32
  0
VERTEX
  8
0
  5
1FCC
 10
372.561
 20
11.6326
 30
-2.59298e-15
  70
    32
  0
VERTEX
  8
0
  5
1FCD
 10
372.562
 20
11.6449
 30
-2.59700e-15
  70
    32
  0
VERTEX
  8
0
  5
1FCE
 10
372.562
 20
11.6572
 30
-2.60103e-15
  70
    32
  0
VERTEX
  8
0
  5
1FCF
 10
372.563
 20
11.6695
 30
-2.60502e-15
  70
    32
  0
VERTEX
  8
0
  5
1FD0
 10
372.564
 20
11.6817
 30
-2.60891e-15
  70
    32
  0
VERTEX
  8
0
  5
1FD1
 10
372.565
 20
11.6939
 30
-2.61269e-15
  70
    32
  0
VERTEX
  8
0
  5
1FD2
 10
372.566
 20
11.7060
 30
-2.61637e-15
  70
    32
  0
VERTEX
  8
0
  5
1FD3
 10
372.567
 20
11.7181
 30
-2.61994e-15
  70
    32
  0
VERTEX
  8
0
  5
1FD4
 10
372.568
 20
11.7302
 30
-2.62342e-15
  70
    32
  0
VERTEX
  8
0
  5
1FD5
 10
372.569
 20
11.7422
 30
-2.62680e-15
  70
    32
  0
VERTEX
  8
0
  5
1FD6
 10
372.570
 20
11.7542
 30
-2.63009e-15
  70
    32
  0
VERTEX
  8
0
  5
1FD7
 10
372.571
 20
11.7661
 30
-2.63328e-15
  70
    32
  0
VERTEX
  8
0
  5
1FD8
 10
372.572
 20
11.7780
 30
-2.63638e-15
  70
    32
  0
VERTEX
  8
0
  5
1FD9
 10
372.573
 20
11.7899
 30
-2.63940e-15
  70
    32
  0
VERTEX
  8
0
  5
1FDA
 10
372.574
 20
11.8017
 30
-2.64233e-15
  70
    32
  0
VERTEX
  8
0
  5
1FDB
 10
372.575
 20
11.8134
 30
-2.64518e-15
  70
    32
  0
VERTEX
  8
0
  5
1FDC
 10
372.575
 20
11.8252
 30
-2.64794e-15
  70
    32
  0
VERTEX
  8
0
  5
1FDD
 10
372.576
 20
11.8368
 30
-2.65063e-15
  70
    32
  0
VERTEX
  8
0
  5
1FDE
 10
372.577
 20
11.8485
 30
-2.65324e-15
  70
    32
  0
VERTEX
  8
0
  5
1FDF
 10
372.578
 20
11.8601
 30
-2.65578e-15
  70
    32
  0
VERTEX
  8
0
  5
1FE0
 10
372.579
 20
11.8716
 30
-2.65824e-15
  70
    32
  0
VERTEX
  8
0
  5
1FE1
 10
372.580
 20
11.8831
 30
-2.66064e-15
  70
    32
  0
VERTEX
  8
0
  5
1FE2
 10
372.581
 20
11.8946
 30
-2.66297e-15
  70
    32
  0
VERTEX
  8
0
  5
1FE3
 10
372.582
 20
11.9060
 30
-2.66523e-15
  70
    32
  0
VERTEX
  8
0
  5
1FE4
 10
372.583
 20
11.9174
 30
-2.66743e-15
  70
    32
  0
VERTEX
  8
0
  5
1FE5
 10
372.584
 20
11.9287
 30
-2.66957e-15
  70
    32
  0
VERTEX
  8
0
  5
1FE6
 10
372.585
 20
11.9400
 30
-2.67166e-15
  70
    32
  0
VERTEX
  8
0
  5
1FE7
 10
372.586
 20
11.9512
 30
-2.67368e-15
  70
    32
  0
VERTEX
  8
0
  5
1FE8
 10
372.587
 20
11.9624
 30
-2.67566e-15
  70
    32
  0
VERTEX
  8
0
  5
1FE9
 10
372.588
 20
11.9736
 30
-2.67758e-15
  70
    32
  0
VERTEX
  8
0
  5
1FEA
 10
372.589
 20
11.9847
 30
-2.67946e-15
  70
    32
  0
VERTEX
  8
0
  5
1FEB
 10
372.590
 20
11.9957
 30
-2.68129e-15
  70
    32
  0
VERTEX
  8
0
  5
1FEC
 10
372.591
 20
12.0067
 30
-2.68307e-15
  70
    32
  0
VERTEX
  8
0
  5
1FED
 10
372.592
 20
12.0177
 30
-2.68481e-15
  70
    32
  0
VERTEX
  8
0
  5
1FEE
 10
372.592
 20
12.0286
 30
-2.68652e-15
  70
    32
  0
VERTEX
  8
0
  5
1FEF
 10
372.593
 20
12.0395
 30
-2.68818e-15
  70
    32
  0
VERTEX
  8
0
  5
1FF0
 10
372.594
 20
12.0503
 30
-2.68981e-15
  70
    32
  0
VERTEX
  8
0
  5
1FF1
 10
372.595
 20
12.0611
 30
-2.69141e-15
  70
    32
  0
VERTEX
  8
0
  5
1FF2
 10
372.596
 20
12.0718
 30
-2.69298e-15
  70
    32
  0
VERTEX
  8
0
  5
1FF3
 10
372.597
 20
12.0825
 30
-2.69452e-15
  70
    32
  0
VERTEX
  8
0
  5
1FF4
 10
372.598
 20
12.0931
 30
-2.69603e-15
  70
    32
  0
VERTEX
  8
0
  5
1FF5
 10
372.599
 20
12.1037
 30
-2.69752e-15
  70
    32
  0
VERTEX
  8
0
  5
1FF6
 10
372.600
 20
12.1142
 30
-2.69899e-15
  70
    32
  0
VERTEX
  8
0
  5
1FF7
 10
372.601
 20
12.1247
 30
-2.70045e-15
  70
    32
  0
VERTEX
  8
0
  5
1FF8
 10
372.602
 20
12.1351
 30
-2.70188e-15
  70
    32
  0
VERTEX
  8
0
  5
1FF9
 10
372.603
 20
12.1455
 30
-2.70330e-15
  70
    32
  0
VERTEX
  8
0
  5
1FFA
 10
372.604
 20
12.1558
 30
-2.70471e-15
  70
    32
  0
VERTEX
  8
0
  5
1FFB
 10
372.605
 20
12.1661
 30
-2.70611e-15
  70
    32
  0
VERTEX
  8
0
  5
1FFC
 10
372.606
 20
12.1763
 30
-2.70750e-15
  70
    32
  0
VERTEX
  8
0
  5
1FFD
 10
372.607
 20
12.1865
 30
-2.70889e-15
  70
    32
  0
VERTEX
  8
0
  5
1FFE
 10
372.608
 20
12.1966
 30
-2.71027e-15
  70
    32
  0
VERTEX
  8
0
  5
1FFF
 10
372.609
 20
12.2067
 30
-2.71165e-15
  70
    32
  0
VERTEX
  8
0
  5
2000
 10
372.609
 20
12.2167
 30
-2.71304e-15
  70
    32
  0
VERTEX
  8
0
  5
2001
 10
372.610
 20
12.2267
 30
-2.71443e-15
  70
    32
  0
VERTEX
  8
0
  5
2002
 10
372.611
 20
12.2366
 30
-2.71582e-15
  70
    32
  0
VERTEX
  8
0
  5
2003
 10
372.612
 20
12.2464
 30
-2.71723e-15
  70
    32
  0
VERTEX
  8
0
  5
2004
 10
372.613
 20
12.2563
 30
-2.71864e-15
  70
    32
  0
VERTEX
  8
0
  5
2005
 10
372.614
 20
12.2660
 30
-2.72007e-15
  70
    32
  0
VERTEX
  8
0
  5
2006
 10
372.615
 20
12.2757
 30
-2.72152e-15
  70
    32
  0
VERTEX
  8
0
  5
2007
 10
372.616
 20
12.2854
 30
-2.72298e-15
  70
    32
  0
VERTEX
  8
0
  5
2008
 10
372.617
 20
12.2950
 30
-2.72446e-15
  70
    32
  0
VERTEX
  8
0
  5
2009
 10
372.618
 20
12.3045
 30
-2.72597e-15
  70
    32
  0
VERTEX
  8
0
  5
200A
 10
372.619
 20
12.3140
 30
-2.72750e-15
  70
    32
  0
VERTEX
  8
0
  5
200B
 10
372.620
 20
12.3234
 30
-2.72905e-15
  70
    32
  0
VERTEX
  8
0
  5
200C
 10
372.621
 20
12.3328
 30
-2.73064e-15
  70
    32
  0
VERTEX
  8
0
  5
200D
 10
372.622
 20
12.3421
 30
-2.73226e-15
  70
    32
  0
VERTEX
  8
0
  5
200E
 10
372.622
 20
12.3514
 30
-2.73391e-15
  70
    32
  0
VERTEX
  8
0
  5
200F
 10
372.623
 20
12.3606
 30
-2.73560e-15
  70
    32
  0
VERTEX
  8
0
  5
2010
 10
372.624
 20
12.3698
 30
-2.73733e-15
  70
    32
  0
VERTEX
  8
0
  5
2011
 10
372.625
 20
12.3789
 30
-2.73910e-15
  70
    32
  0
VERTEX
  8
0
  5
2012
 10
372.626
 20
12.3879
 30
-2.74091e-15
  70
    32
  0
VERTEX
  8
0
  5
2013
 10
372.627
 20
12.3969
 30
-2.74277e-15
  70
    32
  0
VERTEX
  8
0
  5
2014
 10
372.628
 20
12.4059
 30
-2.74467e-15
  70
    32
  0
VERTEX
  8
0
  5
2015
 10
372.629
 20
12.4147
 30
-2.74663e-15
  70
    32
  0
VERTEX
  8
0
  5
2016
 10
372.630
 20
12.4236
 30
-2.74864e-15
  70
    32
  0
VERTEX
  8
0
  5
2017
 10
372.630
 20
12.4323
 30
-2.75070e-15
  70
    32
  0
VERTEX
  8
0
  5
2018
 10
372.631
 20
12.4410
 30
-2.75279e-15
  70
    32
  0
VERTEX
  8
0
  5
2019
 10
372.632
 20
12.4497
 30
-2.75482e-15
  70
    32
  0
VERTEX
  8
0
  5
201A
 10
372.633
 20
12.4583
 30
-2.75680e-15
  70
    32
  0
VERTEX
  8
0
  5
201B
 10
372.634
 20
12.4668
 30
-2.75872e-15
  70
    32
  0
VERTEX
  8
0
  5
201C
 10
372.635
 20
12.4753
 30
-2.76059e-15
  70
    32
  0
VERTEX
  8
0
  5
201D
 10
372.636
 20
12.4837
 30
-2.76241e-15
  70
    32
  0
VERTEX
  8
0
  5
201E
 10
372.637
 20
12.4920
 30
-2.76417e-15
  70
    32
  0
VERTEX
  8
0
  5
201F
 10
372.637
 20
12.5003
 30
-2.76589e-15
  70
    32
  0
VERTEX
  8
0
  5
2020
 10
372.638
 20
12.5085
 30
-2.76756e-15
  70
    32
  0
VERTEX
  8
0
  5
2021
 10
372.639
 20
12.5167
 30
-2.76919e-15
  70
    32
  0
VERTEX
  8
0
  5
2022
 10
372.640
 20
12.5248
 30
-2.77077e-15
  70
    32
  0
VERTEX
  8
0
  5
2023
 10
372.641
 20
12.5329
 30
-2.77231e-15
  70
    32
  0
VERTEX
  8
0
  5
2024
 10
372.642
 20
12.5409
 30
-2.77382e-15
  70
    32
  0
VERTEX
  8
0
  5
2025
 10
372.642
 20
12.5488
 30
-2.77528e-15
  70
    32
  0
VERTEX
  8
0
  5
2026
 10
372.643
 20
12.5567
 30
-2.77671e-15
  70
    32
  0
VERTEX
  8
0
  5
2027
 10
372.644
 20
12.5645
 30
-2.77811e-15
  70
    32
  0
VERTEX
  8
0
  5
2028
 10
372.645
 20
12.5722
 30
-2.77948e-15
  70
    32
  0
VERTEX
  8
0
  5
2029
 10
372.646
 20
12.5799
 30
-2.78082e-15
  70
    32
  0
VERTEX
  8
0
  5
202A
 10
372.647
 20
12.5875
 30
-2.78213e-15
  70
    32
  0
VERTEX
  8
0
  5
202B
 10
372.647
 20
12.5951
 30
-2.78341e-15
  70
    32
  0
VERTEX
  8
0
  5
202C
 10
372.648
 20
12.6026
 30
-2.78467e-15
  70
    32
  0
VERTEX
  8
0
  5
202D
 10
372.649
 20
12.6100
 30
-2.78590e-15
  70
    32
  0
VERTEX
  8
0
  5
202E
 10
372.650
 20
12.6174
 30
-2.78712e-15
  70
    32
  0
VERTEX
  8
0
  5
202F
 10
372.651
 20
12.6247
 30
-2.78832e-15
  70
    32
  0
VERTEX
  8
0
  5
2030
 10
372.651
 20
12.6320
 30
-2.78950e-15
  70
    32
  0
VERTEX
  8
0
  5
2031
 10
372.652
 20
12.6392
 30
-2.79067e-15
  70
    32
  0
VERTEX
  8
0
  5
2032
 10
372.653
 20
12.6463
 30
-2.79182e-15
  70
    32
  0
VERTEX
  8
0
  5
2033
 10
372.654
 20
12.6533
 30
-2.79296e-15
  70
    32
  0
VERTEX
  8
0
  5
2034
 10
372.654
 20
12.6603
 30
-2.79410e-15
  70
    32
  0
VERTEX
  8
0
  5
2035
 10
372.655
 20
12.6673
 30
-2.79522e-15
  70
    32
  0
VERTEX
  8
0
  5
2036
 10
372.656
 20
12.6741
 30
-2.79634e-15
  70
    32
  0
VERTEX
  8
0
  5
2037
 10
372.657
 20
12.6809
 30
-2.79746e-15
  70
    32
  0
VERTEX
  8
0
  5
2038
 10
372.657
 20
12.6877
 30
-2.79857e-15
  70
    32
  0
VERTEX
  8
0
  5
2039
 10
372.658
 20
12.6944
 30
-2.79969e-15
  70
    32
  0
VERTEX
  8
0
  5
203A
 10
372.659
 20
12.7010
 30
-2.80081e-15
  70
    32
  0
VERTEX
  8
0
  5
203B
 10
372.660
 20
12.7075
 30
-2.80193e-15
  70
    32
  0
VERTEX
  8
0
  5
203C
 10
372.660
 20
12.7140
 30
-2.80305e-15
  70
    32
  0
VERTEX
  8
0
  5
203D
 10
372.661
 20
12.7204
 30
-2.80419e-15
  70
    32
  0
VERTEX
  8
0
  5
203E
 10
372.662
 20
12.7268
 30
-2.80533e-15
  70
    32
  0
VERTEX
  8
0
  5
203F
 10
372.662
 20
12.7330
 30
-2.80649e-15
  70
    32
  0
VERTEX
  8
0
  5
2040
 10
372.663
 20
12.7393
 30
-2.80766e-15
  70
    32
  0
VERTEX
  8
0
  5
2041
 10
372.664
 20
12.7454
 30
-2.80884e-15
  70
    32
  0
VERTEX
  8
0
  5
2042
 10
372.664
 20
12.7515
 30
-2.81004e-15
  70
    32
  0
VERTEX
  8
0
  5
2043
 10
372.665
 20
12.7575
 30
-2.81126e-15
  70
    32
  0
VERTEX
  8
0
  5
2044
 10
372.666
 20
12.7635
 30
-2.81250e-15
  70
    32
  0
VERTEX
  8
0
  5
2045
 10
372.667
 20
12.7694
 30
-2.81376e-15
  70
    32
  0
VERTEX
  8
0
  5
2046
 10
372.667
 20
12.7752
 30
-2.81505e-15
  70
    32
  0
VERTEX
  8
0
  5
2047
 10
372.668
 20
12.7809
 30
-2.81636e-15
  70
    32
  0
VERTEX
  8
0
  5
2048
 10
372.668
 20
12.7866
 30
-2.81770e-15
  70
    32
  0
VERTEX
  8
0
  5
2049
 10
372.669
 20
12.7922
 30
-2.81907e-15
  70
    32
  0
VERTEX
  8
0
  5
204A
 10
372.670
 20
12.7978
 30
-2.82047e-15
  70
    32
  0
VERTEX
  8
0
  5
204B
 10
372.670
 20
12.8033
 30
-2.82191e-15
  70
    32
  0
VERTEX
  8
0
  5
204C
 10
372.671
 20
12.8087
 30
-2.82338e-15
  70
    32
  0
VERTEX
  8
0
  5
204D
 10
372.672
 20
12.8140
 30
-2.82489e-15
  70
    32
  0
VERTEX
  8
0
  5
204E
 10
372.672
 20
12.8193
 30
-2.82644e-15
  70
    32
  0
VERTEX
  8
0
  5
204F
 10
372.673
 20
12.8245
 30
-2.82803e-15
  70
    32
  0
VERTEX
  8
0
  5
2050
 10
372.673
 20
12.8297
 30
-2.82966e-15
  70
    32
  0
VERTEX
  8
0
  5
2051
 10
372.674
 20
12.8347
 30
-2.83134e-15
  70
    32
  0
VERTEX
  8
0
  5
2052
 10
372.675
 20
12.8397
 30
-2.83306e-15
  70
    32
  0
VERTEX
  8
0
  5
2053
 10
372.675
 20
12.8447
 30
-2.83483e-15
  70
    32
  0
VERTEX
  8
0
  5
2054
 10
372.676
 20
12.8495
 30
-2.83665e-15
  70
    32
  0
VERTEX
  8
0
  5
2055
 10
372.676
 20
12.8543
 30
-2.83853e-15
  70
    32
  0
VERTEX
  8
0
  5
2056
 10
372.677
 20
12.8590
 30
-2.84046e-15
  70
    32
  0
VERTEX
  8
0
  5
2057
 10
372.677
 20
12.8637
 30
-2.84244e-15
  70
    32
  0
VERTEX
  8
0
  5
2058
 10
372.678
 20
12.8683
 30
-2.84448e-15
  70
    32
  0
VERTEX
  8
0
  5
2059
 10
372.678
 20
12.8728
 30
-2.84659e-15
  70
    32
  0
VERTEX
  8
0
  5
205A
 10
372.679
 20
12.8772
 30
-2.84875e-15
  70
    32
  0
VERTEX
  8
0
  5
205B
 10
372.679
 20
12.8816
 30
-2.85098e-15
  70
    32
  0
VERTEX
  8
0
  5
205C
 10
372.680
 20
12.8859
 30
-2.85327e-15
  70
    32
  0
VERTEX
  8
0
  5
205D
 10
372.680
 20
12.8901
 30
-2.85562e-15
  70
    32
  0
VERTEX
  8
0
  5
205E
 10
372.681
 20
12.8943
 30
-2.85792e-15
  70
    32
  0
VERTEX
  8
0
  5
205F
 10
372.681
 20
12.8984
 30
-2.86013e-15
  70
    32
  0
VERTEX
  8
0
  5
2060
 10
372.682
 20
12.9024
 30
-2.86227e-15
  70
    32
  0
VERTEX
  8
0
  5
2061
 10
372.682
 20
12.9063
 30
-2.86432e-15
  70
    32
  0
VERTEX
  8
0
  5
2062
 10
372.683
 20
12.9102
 30
-2.86630e-15
  70
    32
  0
VERTEX
  8
0
  5
2063
 10
372.683
 20
12.9140
 30
-2.86821e-15
  70
    32
  0
VERTEX
  8
0
  5
2064
 10
372.684
 20
12.9177
 30
-2.87004e-15
  70
    32
  0
VERTEX
  8
0
  5
2065
 10
372.684
 20
12.9214
 30
-2.87181e-15
  70
    32
  0
VERTEX
  8
0
  5
2066
 10
372.684
 20
12.9249
 30
-2.87350e-15
  70
    32
  0
VERTEX
  8
0
  5
2067
 10
372.685
 20
12.9284
 30
-2.87512e-15
  70
    32
  0
VERTEX
  8
0
  5
2068
 10
372.685
 20
12.9319
 30
-2.87667e-15
  70
    32
  0
VERTEX
  8
0
  5
2069
 10
372.686
 20
12.9352
 30
-2.87816e-15
  70
    32
  0
VERTEX
  8
0
  5
206A
 10
372.686
 20
12.9385
 30
-2.87959e-15
  70
    32
  0
VERTEX
  8
0
  5
206B
 10
372.686
 20
12.9418
 30
-2.88095e-15
  70
    32
  0
VERTEX
  8
0
  5
206C
 10
372.687
 20
12.9449
 30
-2.88225e-15
  70
    32
  0
VERTEX
  8
0
  5
206D
 10
372.687
 20
12.9480
 30
-2.88348e-15
  70
    32
  0
VERTEX
  8
0
  5
206E
 10
372.688
 20
12.9510
 30
-2.88466e-15
  70
    32
  0
VERTEX
  8
0
  5
206F
 10
372.688
 20
12.9539
 30
-2.88578e-15
  70
    32
  0
VERTEX
  8
0
  5
2070
 10
372.688
 20
12.9568
 30
-2.88685e-15
  70
    32
  0
VERTEX
  8
0
  5
2071
 10
372.689
 20
12.9595
 30
-2.88786e-15
  70
    32
  0
VERTEX
  8
0
  5
2072
 10
372.689
 20
12.9622
 30
-2.88882e-15
  70
    32
  0
VERTEX
  8
0
  5
2073
 10
372.689
 20
12.9649
 30
-2.88973e-15
  70
    32
  0
VERTEX
  8
0
  5
2074
 10
372.690
 20
12.9674
 30
-2.89058e-15
  70
    32
  0
VERTEX
  8
0
  5
2075
 10
372.690
 20
12.9699
 30
-2.89139e-15
  70
    32
  0
VERTEX
  8
0
  5
2076
 10
372.690
 20
12.9724
 30
-2.89215e-15
  70
    32
  0
VERTEX
  8
0
  5
2077
 10
372.690
 20
12.9747
 30
-2.89286e-15
  70
    32
  0
VERTEX
  8
0
  5
2078
 10
372.691
 20
12.9770
 30
-2.89353e-15
  70
    32
  0
VERTEX
  8
0
  5
2079
 10
372.691
 20
12.9792
 30
-2.89416e-15
  70
    32
  0
VERTEX
  8
0
  5
207A
 10
372.691
 20
12.9813
 30
-2.89474e-15
  70
    32
  0
VERTEX
  8
0
  5
207B
 10
372.691
 20
12.9833
 30
-2.89528e-15
  70
    32
  0
VERTEX
  8
0
  5
207C
 10
372.692
 20
12.9853
 30
-2.89579e-15
  70
    32
  0
VERTEX
  8
0
  5
207D
 10
372.692
 20
12.9872
 30
-2.89626e-15
  70
    32
  0
VERTEX
  8
0
  5
207E
 10
372.692
 20
12.9890
 30
-2.89669e-15
  70
    32
  0
VERTEX
  8
0
  5
207F
 10
372.692
 20
12.9908
 30
-2.89708e-15
  70
    32
  0
VERTEX
  8
0
  5
2080
 10
372.693
 20
12.9925
 30
-2.89745e-15
  70
    32
  0
VERTEX
  8
0
  5
2081
 10
372.693
 20
12.9941
 30
-2.89778e-15
  70
    32
  0
VERTEX
  8
0
  5
2082
 10
372.693
 20
12.9956
 30
-2.89808e-15
  70
    32
  0
VERTEX
  8
0
  5
2083
 10
372.693
 20
12.9971
 30
-2.89836e-15
  70
    32
  0
VERTEX
  8
0
  5
2084
 10
372.693
 20
12.9985
 30
-2.89860e-15
  70
    32
  0
VERTEX
  8
0
  5
2085
 10
372.693
 20
12.9998
 30
-2.89882e-15
  70
    32
  0
VERTEX
  8
0
  5
2086
 10
372.694
 20
13.0010
 30
-2.89902e-15
  70
    32
  0
VERTEX
  8
0
  5
2087
 10
372.694
 20
13.0022
 30
-2.89919e-15
  70
    32
  0
VERTEX
  8
0
  5
2088
 10
372.694
 20
13.0033
 30
-2.89934e-15
  70
    32
  0
VERTEX
  8
0
  5
2089
 10
372.694
 20
13.0043
 30
-2.89947e-15
  70
    32
  0
VERTEX
  8
0
  5
208A
 10
372.694
 20
13.0052
 30
-2.89959e-15
  70
    32
  0
VERTEX
  8
0
  5
208B
 10
372.694
 20
13.0061
 30
-2.89968e-15
  70
    32
  0
VERTEX
  8
0
  5
208C
 10
372.694
 20
13.0069
 30
-2.89976e-15
  70
    32
  0
VERTEX
  8
0
  5
208D
 10
372.694
 20
13.0076
 30
-2.89983e-15
  70
    32
  0
VERTEX
  8
0
  5
208E
 10
372.694
 20
13.0082
 30
-2.89988e-15
  70
    32
  0
VERTEX
  8
0
  5
208F
 10
372.694
 20
13.0088
 30
-2.89992e-15
  70
    32
  0
VERTEX
  8
0
  5
2090
 10
372.695
 20
13.0093
 30
-2.89995e-15
  70
    32
  0
VERTEX
  8
0
  5
2091
 10
372.695
 20
13.0097
 30
-2.89997e-15
  70
    32
  0
VERTEX
  8
0
  5
2092
 10
372.695
 20
13.0100
 30
-2.89998e-15
  70
    32
  0
VERTEX
  8
0
  5
2093
 10
372.695
 20
13.0103
 30
-2.89999e-15
  70
    32
  0
VERTEX
  8
0
  5
2094
 10
372.695
 20
13.0105
 30
-2.90000e-15
  70
    32
  0
VERTEX
  8
0
  5
2095
 10
372.695
 20
13.0106
 30
-2.90000e-15
  70
    32
  0
VERTEX
  8
0
  5
2096
 10
372.695
 20
13.0106
 30
-2.90000e-15
  70
    32
  0
SEQEND
  8
0
  5
2097
  0
POLYLINE
  8
0
  5
2098
  62
1
  66
     1
 10
0.000000
 20
0.000000
 30
0.000000
  70
     8
  0
VERTEX
  8
0
  5
2099
 10
372.695
 20
13.0106
 30
-2.90000e-15
  70
    32
  0
VERTEX
  8
0
  5
209A
 10
372.695
 20
13.0106
 30
-2.90000e-15
  70
    32
  0
VERTEX
  8
0
  5
209B
 10
372.695
 20
13.0105
 30
-2.90000e-15
  70
    32
  0
VERTEX
  8
0
  5
209C
 10
372.695
 20
13.0103
 30
-2.90000e-15
  70
    32
  0
VERTEX
  8
0
  5
209D
 10
372.695
 20
13.0100
 30
-2.89999e-15
  70
    32
  0
VERTEX
  8
0
  5
209E
 10
372.695
 20
13.0097
 30
-2.89998e-15
  70
    32
  0
VERTEX
  8
0
  5
209F
 10
372.695
 20
13.0093
 30
-2.89996e-15
  70
    32
  0
VERTEX
  8
0
  5
20A0
 10
372.694
 20
13.0088
 30
-2.89994e-15
  70
    32
  0
VERTEX
  8
0
  5
20A1
 10
372.694
 20
13.0082
 30
-2.89991e-15
  70
    32
  0
VERTEX
  8
0
  5
20A2
 10
372.694
 20
13.0076
 30
-2.89987e-15
  70
    32
  0
VERTEX
  8
0
  5
20A3
 10
372.694
 20
13.0069
 30
-2.89982e-15
  70
    32
  0
VERTEX
  8
0
  5
20A4
 10
372.694
 20
13.0061
 30
-2.89976e-15
  70
    32
  0
VERTEX
  8
0
  5
20A5
 10
372.694
 20
13.0052
 30
-2.89968e-15
  70
    32
  0
VERTEX
  8
0
  5
20A6
 10
372.694
 20
13.0043
 30
-2.89960e-15
  70
    32
  0
VERTEX
  8
0
  5
20A7
 10
372.694
 20
13.0033
 30
-2.89950e-15
  70
    32
  0
VERTEX
  8
0
  5
20A8
 10
372.694
 20
13.0022
 30
-2.89938e-15
  70
    32
  0
VERTEX
  8
0
  5
20A9
 10
372.694
 20
13.0010
 30
-2.89925e-15
  70
    32
  0
VERTEX
  8
0
  5
20AA
 10
372.693
 20
12.9998
 30
-2.89910e-15
  70
    32
  0
VERTEX
  8
0
  5
20AB
 10
372.693
 20
12.9984
 30
-2.89894e-15
  70
    32
  0
VERTEX
  8
0
  5
20AC
 10
372.693
 20
12.9971
 30
-2.89875e-15
  70
    32
  0
VERTEX
  8
0
  5
20AD
 10
372.693
 20
12.9956
 30
-2.89854e-15
  70
    32
  0
VERTEX
  8
0
  5
20AE
 10
372.693
 20
12.9941
 30
-2.89831e-15
  70
    32
  0
VERTEX
  8
0
  5
20AF
 10
372.693
 20
12.9925
 30
-2.89806e-15
  70
    32
  0
VERTEX
  8
0
  5
20B0
 10
372.692
 20
12.9908
 30
-2.89778e-15
  70
    32
  0
VERTEX
  8
0
  5
20B1
 10
372.692
 20
12.9890
 30
-2.89748e-15
  70
    32
  0
VERTEX
  8
0
  5
20B2
 10
372.692
 20
12.9872
 30
-2.89715e-15
  70
    32
  0
VERTEX
  8
0
  5
20B3
 10
372.692
 20
12.9853
 30
-2.89679e-15
  70
    32
  0
VERTEX
  8
0
  5
20B4
 10
372.691
 20
12.9833
 30
-2.89641e-15
  70
    32
  0
VERTEX
  8
0
  5
20B5
 10
372.691
 20
12.9813
 30
-2.89600e-15
  70
    32
  0
VERTEX
  8
0
  5
20B6
 10
372.691
 20
12.9791
 30
-2.89555e-15
  70
    32
  0
VERTEX
  8
0
  5
20B7
 10
372.691
 20
12.9769
 30
-2.89507e-15
  70
    32
  0
VERTEX
  8
0
  5
20B8
 10
372.690
 20
12.9747
 30
-2.89457e-15
  70
    32
  0
VERTEX
  8
0
  5
20B9
 10
372.690
 20
12.9723
 30
-2.89402e-15
  70
    32
  0
VERTEX
  8
0
  5
20BA
 10
372.690
 20
12.9699
 30
-2.89344e-15
  70
    32
  0
VERTEX
  8
0
  5
20BB
 10
372.689
 20
12.9674
 30
-2.89283e-15
  70
    32
  0
VERTEX
  8
0
  5
20BC
 10
372.689
 20
12.9648
 30
-2.89218e-15
  70
    32
  0
VERTEX
  8
0
  5
20BD
 10
372.689
 20
12.9622
 30
-2.89149e-15
  70
    32
  0
VERTEX
  8
0
  5
20BE
 10
372.689
 20
12.9595
 30
-2.89076e-15
  70
    32
  0
VERTEX
  8
0
  5
20BF
 10
372.688
 20
12.9567
 30
-2.88999e-15
  70
    32
  0
VERTEX
  8
0
  5
20C0
 10
372.688
 20
12.9539
 30
-2.88918e-15
  70
    32
  0
VERTEX
  8
0
  5
20C1
 10
372.688
 20
12.9509
 30
-2.88832e-15
  70
    32
  0
VERTEX
  8
0
  5
20C2
 10
372.687
 20
12.9479
 30
-2.88743e-15
  70
    32
  0
VERTEX
  8
0
  5
20C3
 10
372.687
 20
12.9448
 30
-2.88648e-15
  70
    32
  0
VERTEX
  8
0
  5
20C4
 10
372.686
 20
12.9417
 30
-2.88550e-15
  70
    32
  0
VERTEX
  8
0
  5
20C5
 10
372.686
 20
12.9385
 30
-2.88446e-15
  70
    32
  0
VERTEX
  8
0
  5
20C6
 10
372.686
 20
12.9352
 30
-2.88338e-15
  70
    32
  0
VERTEX
  8
0
  5
20C7
 10
372.685
 20
12.9318
 30
-2.88224e-15
  70
    32
  0
VERTEX
  8
0
  5
20C8
 10
372.685
 20
12.9284
 30
-2.88106e-15
  70
    32
  0
VERTEX
  8
0
  5
20C9
 10
372.684
 20
12.9249
 30
-2.87982e-15
  70
    32
  0
VERTEX
  8
0
  5
20CA
 10
372.684
 20
12.9213
 30
-2.87854e-15
  70
    32
  0
VERTEX
  8
0
  5
20CB
 10
372.684
 20
12.9177
 30
-2.87720e-15
  70
    32
  0
VERTEX
  8
0
  5
20CC
 10
372.683
 20
12.9139
 30
-2.87580e-15
  70
    32
  0
VERTEX
  8
0
  5
20CD
 10
372.683
 20
12.9101
 30
-2.87435e-15
  70
    32
  0
VERTEX
  8
0
  5
20CE
 10
372.682
 20
12.9063
 30
-2.87284e-15
  70
    32
  0
VERTEX
  8
0
  5
20CF
 10
372.682
 20
12.9023
 30
-2.87127e-15
  70
    32
  0
VERTEX
  8
0
  5
20D0
 10
372.681
 20
12.8983
 30
-2.86965e-15
  70
    32
  0
VERTEX
  8
0
  5
20D1
 10
372.681
 20
12.8943
 30
-2.86796e-15
  70
    32
  0
VERTEX
  8
0
  5
20D2
 10
372.680
 20
12.8901
 30
-2.86621e-15
  70
    32
  0
VERTEX
  8
0
  5
20D3
 10
372.680
 20
12.8859
 30
-2.86441e-15
  70
    32
  0
VERTEX
  8
0
  5
20D4
 10
372.679
 20
12.8816
 30
-2.86253e-15
  70
    32
  0
VERTEX
  8
0
  5
20D5
 10
372.679
 20
12.8772
 30
-2.86059e-15
  70
    32
  0
VERTEX
  8
0
  5
20D6
 10
372.678
 20
12.8728
 30
-2.85859e-15
  70
    32
  0
VERTEX
  8
0
  5
20D7
 10
372.678
 20
12.8683
 30
-2.85652e-15
  70
    32
  0
VERTEX
  8
0
  5
20D8
 10
372.677
 20
12.8637
 30
-2.85438e-15
  70
    32
  0
VERTEX
  8
0
  5
20D9
 10
372.677
 20
12.8591
 30
-2.85218e-15
  70
    32
  0
VERTEX
  8
0
  5
20DA
 10
372.676
 20
12.8543
 30
-2.84991e-15
  70
    32
  0
VERTEX
  8
0
  5
20DB
 10
372.676
 20
12.8495
 30
-2.84769e-15
  70
    32
  0
VERTEX
  8
0
  5
20DC
 10
372.675
 20
12.8447
 30
-2.84553e-15
  70
    32
  0
VERTEX
  8
0
  5
20DD
 10
372.675
 20
12.8398
 30
-2.84343e-15
  70
    32
  0
VERTEX
  8
0
  5
20DE
 10
372.674
 20
12.8348
 30
-2.84140e-15
  70
    32
  0
VERTEX
  8
0
  5
20DF
 10
372.673
 20
12.8297
 30
-2.83943e-15
  70
    32
  0
VERTEX
  8
0
  5
20E0
 10
372.673
 20
12.8245
 30
-2.83751e-15
  70
    32
  0
VERTEX
  8
0
  5
20E1
 10
372.672
 20
12.8193
 30
-2.83565e-15
  70
    32
  0
VERTEX
  8
0
  5
20E2
 10
372.672
 20
12.8141
 30
-2.83385e-15
  70
    32
  0
VERTEX
  8
0
  5
20E3
 10
372.671
 20
12.8087
 30
-2.83209e-15
  70
    32
  0
VERTEX
  8
0
  5
20E4
 10
372.670
 20
12.8033
 30
-2.83039e-15
  70
    32
  0
VERTEX
  8
0
  5
20E5
 10
372.670
 20
12.7978
 30
-2.82873e-15
  70
    32
  0
VERTEX
  8
0
  5
20E6
 10
372.669
 20
12.7923
 30
-2.82712e-15
  70
    32
  0
VERTEX
  8
0
  5
20E7
 10
372.668
 20
12.7867
 30
-2.82555e-15
  70
    32
  0
VERTEX
  8
0
  5
20E8
 10
372.668
 20
12.7810
 30
-2.82402e-15
  70
    32
  0
VERTEX
  8
0
  5
20E9
 10
372.667
 20
12.7752
 30
-2.82253e-15
  70
    32
  0
VERTEX
  8
0
  5
20EA
 10
372.667
 20
12.7694
 30
-2.82108e-15
  70
    32
  0
VERTEX
  8
0
  5
20EB
 10
372.666
 20
12.7635
 30
-2.81967e-15
  70
    32
  0
VERTEX
  8
0
  5
20EC
 10
372.665
 20
12.7576
 30
-2.81829e-15
  70
    32
  0
VERTEX
  8
0
  5
20ED
 10
372.665
 20
12.7515
 30
-2.81694e-15
  70
    32
  0
VERTEX
  8
0
  5
20EE
 10
372.664
 20
12.7454
 30
-2.81561e-15
  70
    32
  0
VERTEX
  8
0
  5
20EF
 10
372.663
 20
12.7393
 30
-2.81432e-15
  70
    32
  0
VERTEX
  8
0
  5
20F0
 10
372.662
 20
12.7331
 30
-2.81305e-15
  70
    32
  0
VERTEX
  8
0
  5
20F1
 10
372.662
 20
12.7268
 30
-2.81181e-15
  70
    32
  0
VERTEX
  8
0
  5
20F2
 10
372.661
 20
12.7204
 30
-2.81058e-15
  70
    32
  0
VERTEX
  8
0
  5
20F3
 10
372.660
 20
12.7140
 30
-2.80938e-15
  70
    32
  0
VERTEX
  8
0
  5
20F4
 10
372.660
 20
12.7075
 30
-2.80819e-15
  70
    32
  0
VERTEX
  8
0
  5
20F5
 10
372.659
 20
12.7010
 30
-2.80702e-15
  70
    32
  0
VERTEX
  8
0
  5
20F6
 10
372.658
 20
12.6944
 30
-2.80586e-15
  70
    32
  0
VERTEX
  8
0
  5
20F7
 10
372.657
 20
12.6877
 30
-2.80472e-15
  70
    32
  0
VERTEX
  8
0
  5
20F8
 10
372.657
 20
12.6809
 30
-2.80358e-15
  70
    32
  0
VERTEX
  8
0
  5
20F9
 10
372.656
 20
12.6741
 30
-2.80245e-15
  70
    32
  0
VERTEX
  8
0
  5
20FA
 10
372.655
 20
12.6673
 30
-2.80132e-15
  70
    32
  0
VERTEX
  8
0
  5
20FB
 10
372.654
 20
12.6603
 30
-2.80020e-15
  70
    32
  0
VERTEX
  8
0
  5
20FC
 10
372.654
 20
12.6533
 30
-2.79908e-15
  70
    32
  0
VERTEX
  8
0
  5
20FD
 10
372.653
 20
12.6463
 30
-2.79796e-15
  70
    32
  0
VERTEX
  8
0
  5
20FE
 10
372.652
 20
12.6391
 30
-2.79683e-15
  70
    32
  0
VERTEX
  8
0
  5
20FF
 10
372.651
 20
12.6320
 30
-2.79570e-15
  70
    32
  0
VERTEX
  8
0
  5
2100
 10
372.651
 20
12.6247
 30
-2.79457e-15
  70
    32
  0
VERTEX
  8
0
  5
2101
 10
372.650
 20
12.6174
 30
-2.79342e-15
  70
    32
  0
VERTEX
  8
0
  5
2102
 10
372.649
 20
12.6100
 30
-2.79227e-15
  70
    32
  0
VERTEX
  8
0
  5
2103
 10
372.648
 20
12.6026
 30
-2.79110e-15
  70
    32
  0
VERTEX
  8
0
  5
2104
 10
372.647
 20
12.5951
 30
-2.78991e-15
  70
    32
  0
VERTEX
  8
0
  5
2105
 10
372.647
 20
12.5875
 30
-2.78871e-15
  70
    32
  0
VERTEX
  8
0
  5
2106
 10
372.646
 20
12.5799
 30
-2.78749e-15
  70
    32
  0
VERTEX
  8
0
  5
2107
 10
372.645
 20
12.5722
 30
-2.78625e-15
  70
    32
  0
VERTEX
  8
0
  5
2108
 10
372.644
 20
12.5645
 30
-2.78499e-15
  70
    32
  0
VERTEX
  8
0
  5
2109
 10
372.643
 20
12.5566
 30
-2.78370e-15
  70
    32
  0
VERTEX
  8
0
  5
210A
 10
372.642
 20
12.5488
 30
-2.78238e-15
  70
    32
  0
VERTEX
  8
0
  5
210B
 10
372.642
 20
12.5408
 30
-2.78104e-15
  70
    32
  0
VERTEX
  8
0
  5
210C
 10
372.641
 20
12.5329
 30
-2.77966e-15
  70
    32
  0
VERTEX
  8
0
  5
210D
 10
372.640
 20
12.5248
 30
-2.77825e-15
  70
    32
  0
VERTEX
  8
0
  5
210E
 10
372.639
 20
12.5167
 30
-2.77681e-15
  70
    32
  0
VERTEX
  8
0
  5
210F
 10
372.638
 20
12.5085
 30
-2.77533e-15
  70
    32
  0
VERTEX
  8
0
  5
2110
 10
372.637
 20
12.5003
 30
-2.77381e-15
  70
    32
  0
VERTEX
  8
0
  5
2111
 10
372.637
 20
12.4920
 30
-2.77225e-15
  70
    32
  0
VERTEX
  8
0
  5
2112
 10
372.636
 20
12.4836
 30
-2.77064e-15
  70
    32
  0
VERTEX
  8
0
  5
2113
 10
372.635
 20
12.4752
 30
-2.76899e-15
  70
    32
  0
VERTEX
  8
0
  5
2114
 10
372.634
 20
12.4668
 30
-2.76730e-15
  70
    32
  0
VERTEX
  8
0
  5
2115
 10
372.633
 20
12.4582
 30
-2.76555e-15
  70
    32
  0
VERTEX
  8
0
  5
2116
 10
372.632
 20
12.4497
 30
-2.76375e-15
  70
    32
  0
VERTEX
  8
0
  5
2117
 10
372.631
 20
12.4410
 30
-2.76190e-15
  70
    32
  0
VERTEX
  8
0
  5
2118
 10
372.630
 20
12.4323
 30
-2.76000e-15
  70
    32
  0
VERTEX
  8
0
  5
2119
 10
372.630
 20
12.4235
 30
-2.75804e-15
  70
    32
  0
VERTEX
  8
0
  5
211A
 10
372.629
 20
12.4147
 30
-2.75602e-15
  70
    32
  0
VERTEX
  8
0
  5
211B
 10
372.628
 20
12.4059
 30
-2.75393e-15
  70
    32
  0
VERTEX
  8
0
  5
211C
 10
372.627
 20
12.3969
 30
-2.75179e-15
  70
    32
  0
VERTEX
  8
0
  5
211D
 10
372.626
 20
12.3879
 30
-2.74958e-15
  70
    32
  0
VERTEX
  8
0
  5
211E
 10
372.625
 20
12.3789
 30
-2.74731e-15
  70
    32
  0
VERTEX
  8
0
  5
211F
 10
372.624
 20
12.3698
 30
-2.74498e-15
  70
    32
  0
VERTEX
  8
0
  5
2120
 10
372.623
 20
12.3606
 30
-2.74259e-15
  70
    32
  0
VERTEX
  8
0
  5
2121
 10
372.622
 20
12.3514
 30
-2.74016e-15
  70
    32
  0
VERTEX
  8
0
  5
2122
 10
372.622
 20
12.3421
 30
-2.73767e-15
  70
    32
  0
VERTEX
  8
0
  5
2123
 10
372.621
 20
12.3328
 30
-2.73513e-15
  70
    32
  0
VERTEX
  8
0
  5
2124
 10
372.620
 20
12.3234
 30
-2.73254e-15
  70
    32
  0
VERTEX
  8
0
  5
2125
 10
372.619
 20
12.3140
 30
-2.72990e-15
  70
    32
  0
VERTEX
  8
0
  5
2126
 10
372.618
 20
12.3045
 30
-2.72722e-15
  70
    32
  0
VERTEX
  8
0
  5
2127
 10
372.617
 20
12.2950
 30
-2.72449e-15
  70
    32
  0
VERTEX
  8
0
  5
2128
 10
372.616
 20
12.2854
 30
-2.72172e-15
  70
    32
  0
VERTEX
  8
0
  5
2129
 10
372.615
 20
12.2757
 30
-2.71892e-15
  70
    32
  0
VERTEX
  8
0
  5
212A
 10
372.614
 20
12.2660
 30
-2.71607e-15
  70
    32
  0
VERTEX
  8
0
  5
212B
 10
372.613
 20
12.2563
 30
-2.71319e-15
  70
    32
  0
VERTEX
  8
0
  5
212C
 10
372.612
 20
12.2464
 30
-2.71027e-15
  70
    32
  0
VERTEX
  8
0
  5
212D
 10
372.611
 20
12.2366
 30
-2.70732e-15
  70
    32
  0
VERTEX
  8
0
  5
212E
 10
372.610
 20
12.2267
 30
-2.70434e-15
  70
    32
  0
VERTEX
  8
0
  5
212F
 10
372.609
 20
12.2167
 30
-2.70134e-15
  70
    32
  0
VERTEX
  8
0
  5
2130
 10
372.609
 20
12.2067
 30
-2.69830e-15
  70
    32
  0
VERTEX
  8
0
  5
2131
 10
372.608
 20
12.1966
 30
-2.69524e-15
  70
    32
  0
VERTEX
  8
0
  5
2132
 10
372.607
 20
12.1865
 30
-2.69215e-15
  70
    32
  0
VERTEX
  8
0
  5
2133
 10
372.606
 20
12.1763
 30
-2.68904e-15
  70
    32
  0
VERTEX
  8
0
  5
2134
 10
372.605
 20
12.1661
 30
-2.68591e-15
  70
    32
  0
VERTEX
  8
0
  5
2135
 10
372.604
 20
12.1558
 30
-2.68277e-15
  70
    32
  0
VERTEX
  8
0
  5
2136
 10
372.603
 20
12.1455
 30
-2.67960e-15
  70
    32
  0
VERTEX
  8
0
  5
2137
 10
372.602
 20
12.1351
 30
-2.67643e-15
  70
    32
  0
VERTEX
  8
0
  5
2138
 10
372.601
 20
12.1247
 30
-2.67324e-15
  70
    32
  0
VERTEX
  8
0
  5
2139
 10
372.600
 20
12.1142
 30
-2.67003e-15
  70
    32
  0
VERTEX
  8
0
  5
213A
 10
372.599
 20
12.1037
 30
-2.66682e-15
  70
    32
  0
VERTEX
  8
0
  5
213B
 10
372.598
 20
12.0931
 30
-2.66360e-15
  70
    32
  0
VERTEX
  8
0
  5
213C
 10
372.597
 20
12.0824
 30
-2.66037e-15
  70
    32
  0
VERTEX
  8
0
  5
213D
 10
372.596
 20
12.0718
 30
-2.65714e-15
  70
    32
  0
VERTEX
  8
0
  5
213E
 10
372.595
 20
12.0611
 30
-2.65391e-15
  70
    32
  0
VERTEX
  8
0
  5
213F
 10
372.594
 20
12.0503
 30
-2.65068e-15
  70
    32
  0
VERTEX
  8
0
  5
2140
 10
372.593
 20
12.0395
 30
-2.64745e-15
  70
    32
  0
VERTEX
  8
0
  5
2141
 10
372.592
 20
12.0286
 30
-2.64422e-15
  70
    32
  0
VERTEX
  8
0
  5
2142
 10
372.592
 20
12.0177
 30
-2.64099e-15
  70
    32
  0
VERTEX
  8
0
  5
2143
 10
372.591
 20
12.0067
 30
-2.63778e-15
  70
    32
  0
VERTEX
  8
0
  5
2144
 10
372.590
 20
11.9957
 30
-2.63457e-15
  70
    32
  0
VERTEX
  8
0
  5
2145
 10
372.589
 20
11.9847
 30
-2.63137e-15
  70
    32
  0
VERTEX
  8
0
  5
2146
 10
372.588
 20
11.9736
 30
-2.62818e-15
  70
    32
  0
VERTEX
  8
0
  5
2147
 10
372.587
 20
11.9624
 30
-2.62501e-15
  70
    32
  0
VERTEX
  8
0
  5
2148
 10
372.586
 20
11.9512
 30
-2.62185e-15
  70
    32
  0
VERTEX
  8
0
  5
2149
 10
372.585
 20
11.9400
 30
-2.61871e-15
  70
    32
  0
VERTEX
  8
0
  5
214A
 10
372.584
 20
11.9287
 30
-2.61559e-15
  70
    32
  0
VERTEX
  8
0
  5
214B
 10
372.583
 20
11.9174
 30
-2.61249e-15
  70
    32
  0
VERTEX
  8
0
  5
214C
 10
372.582
 20
11.9060
 30
-2.60941e-15
  70
    32
  0
VERTEX
  8
0
  5
214D
 10
372.581
 20
11.8946
 30
-2.60635e-15
  70
    32
  0
VERTEX
  8
0
  5
214E
 10
372.580
 20
11.8831
 30
-2.60333e-15
  70
    32
  0
VERTEX
  8
0
  5
214F
 10
372.579
 20
11.8716
 30
-2.60033e-15
  70
    32
  0
VERTEX
  8
0
  5
2150
 10
372.578
 20
11.8601
 30
-2.59736e-15
  70
    32
  0
VERTEX
  8
0
  5
2151
 10
372.577
 20
11.8485
 30
-2.59442e-15
  70
    32
  0
VERTEX
  8
0
  5
2152
 10
372.576
 20
11.8368
 30
-2.59151e-15
  70
    32
  0
VERTEX
  8
0
  5
2153
 10
372.575
 20
11.8251
 30
-2.58865e-15
  70
    32
  0
VERTEX
  8
0
  5
2154
 10
372.575
 20
11.8134
 30
-2.58581e-15
  70
    32
  0
VERTEX
  8
0
  5
2155
 10
372.574
 20
11.8017
 30
-2.58302e-15
  70
    32
  0
VERTEX
  8
0
  5
2156
 10
372.573
 20
11.7898
 30
-2.58026e-15
  70
    32
  0
VERTEX
  8
0
  5
2157
 10
372.572
 20
11.7780
 30
-2.57755e-15
  70
    32
  0
VERTEX
  8
0
  5
2158
 10
372.571
 20
11.7661
 30
-2.57489e-15
  70
    32
  0
VERTEX
  8
0
  5
2159
 10
372.570
 20
11.7542
 30
-2.57226e-15
  70
    32
  0
VERTEX
  8
0
  5
215A
 10
372.569
 20
11.7422
 30
-2.56969e-15
  70
    32
  0
VERTEX
  8
0
  5
215B
 10
372.568
 20
11.7302
 30
-2.56717e-15
  70
    32
  0
VERTEX
  8
0
  5
215C
 10
372.567
 20
11.7181
 30
-2.56469e-15
  70
    32
  0
VERTEX
  8
0
  5
215D
 10
372.566
 20
11.7060
 30
-2.56227e-15
  70
    32
  0
VERTEX
  8
0
  5
215E
 10
372.565
 20
11.6939
 30
-2.55991e-15
  70
    32
  0
VERTEX
  8
0
  5
215F
 10
372.564
 20
11.6817
 30
-2.55760e-15
  70
    32
  0
VERTEX
  8
0
  5
2160
 10
372.563
 20
11.6695
 30
-2.55535e-15
  70
    32
  0
VERTEX
  8
0
  5
2161
 10
372.562
 20
11.6572
 30
-2.55316e-15
  70
    32
  0
VERTEX
  8
0
  5
2162
 10
372.562
 20
11.6449
 30
-2.55103e-15
  70
    32
  0
VERTEX
  8
0
  5
2163
 10
372.561
 20
11.6326
 30
-2.54889e-15
  70
    32
  0
VERTEX
  8
0
  5
2164
 10
372.560
 20
11.6202
 30
-2.54671e-15
  70
    32
  0
VERTEX
  8
0
  5
2165
 10
372.559
 20
11.6078
 30
-2.54447e-15
  70
    32
  0
VERTEX
  8
0
  5
2166
 10
372.558
 20
11.5954
 30
-2.54218e-15
  70
    32
  0
VERTEX
  8
0
  5
2167
 10
372.557
 20
11.5829
 30
-2.53984e-15
  70
    32
  0
VERTEX
  8
0
  5
2168
 10
372.556
 20
11.5703
 30
-2.53745e-15
  70
    32
  0
VERTEX
  8
0
  5
2169
 10
372.555
 20
11.5578
 30
-2.53502e-15
  70
    32
  0
VERTEX
  8
0
  5
216A
 10
372.554
 20
11.5452
 30
-2.53255e-15
  70
    32
  0
VERTEX
  8
0
  5
216B
 10
372.553
 20
11.5325
 30
-2.53003e-15
  70
    32
  0
VERTEX
  8
0
  5
216C
 10
372.553
 20
11.5199
 30
-2.52747e-15
  70
    32
  0
VERTEX
  8
0
  5
216D
 10
372.552
 20
11.5072
 30
-2.52487e-15
  70
    32
  0
VERTEX
  8
0
  5
216E
 10
372.551
 20
11.4944
 30
-2.52224e-15
  70
    32
  0
VERTEX
  8
0
  5
216F
 10
372.550
 20
11.4816
 30
-2.51957e-15
  70
    32
  0
VERTEX
  8
0
  5
2170
 10
372.549
 20
11.4688
 30
-2.51686e-15
  70
    32
  0
VERTEX
  8
0
  5
2171
 10
372.548
 20
11.4560
 30
-2.51412e-15
  70
    32
  0
VERTEX
  8
0
  5
2172
 10
372.547
 20
11.4431
 30
-2.51135e-15
  70
    32
  0
VERTEX
  8
0
  5
2173
 10
372.546
 20
11.4302
 30
-2.50855e-15
  70
    32
  0
VERTEX
  8
0
  5
2174
 10
372.546
 20
11.4172
 30
-2.50572e-15
  70
    32
  0
VERTEX
  8
0
  5
2175
 10
372.545
 20
11.4042
 30
-2.50286e-15
  70
    32
  0
VERTEX
  8
0
  5
2176
 10
372.544
 20
11.3912
 30
-2.49998e-15
  70
    32
  0
VERTEX
  8
0
  5
2177
 10
372.543
 20
11.3781
 30
-2.49708e-15
  70
    32
  0
VERTEX
  8
0
  5
2178
 10
372.542
 20
11.3650
 30
-2.49415e-15
  70
    32
  0
VERTEX
  8
0
  5
2179
 10
372.541
 20
11.3519
 30
-2.49120e-15
  70
    32
  0
VERTEX
  8
0
  5
217A
 10
372.541
 20
11.3388
 30
-2.48823e-15
  70
    32
  0
VERTEX
  8
0
  5
217B
 10
372.540
 20
11.3256
 30
-2.48524e-15
  70
    32
  0
VERTEX
  8
0
  5
217C
 10
372.539
 20
11.3124
 30
-2.48224e-15
  70
    32
  0
VERTEX
  8
0
  5
217D
 10
372.538
 20
11.2991
 30
-2.47922e-15
  70
    32
  0
VERTEX
  8
0
  5
217E
 10
372.537
 20
11.2858
 30
-2.47619e-15
  70
    32
  0
VERTEX
  8
0
  5
217F
 10
372.536
 20
11.2725
 30
-2.47315e-15
  70
    32
  0
VERTEX
  8
0
  5
2180
 10
372.536
 20
11.2592
 30
-2.47010e-15
  70
    32
  0
VERTEX
  8
0
  5
2181
 10
372.535
 20
11.2458
 30
-2.46704e-15
  70
    32
  0
VERTEX
  8
0
  5
2182
 10
372.534
 20
11.2324
 30
-2.46397e-15
  70
    32
  0
VERTEX
  8
0
  5
2183
 10
372.533
 20
11.2189
 30
-2.46090e-15
  70
    32
  0
VERTEX
  8
0
  5
2184
 10
372.532
 20
11.2055
 30
-2.45782e-15
  70
    32
  0
VERTEX
  8
0
  5
2185
 10
372.532
 20
11.1920
 30
-2.45474e-15
  70
    32
  0
VERTEX
  8
0
  5
2186
 10
372.531
 20
11.1784
 30
-2.45166e-15
  70
    32
  0
VERTEX
  8
0
  5
2187
 10
372.530
 20
11.1649
 30
-2.44857e-15
  70
    32
  0
VERTEX
  8
0
  5
2188
 10
372.529
 20
11.1513
 30
-2.44550e-15
  70
    32
  0
VERTEX
  8
0
  5
2189
 10
372.529
 20
11.1377
 30
-2.44242e-15
  70
    32
  0
VERTEX
  8
0
  5
218A
 10
372.528
 20
11.1240
 30
-2.43935e-15
  70
    32
  0
VERTEX
  8
0
  5
218B
 10
372.527
 20
11.1104
 30
-2.43629e-15
  70
    32
  0
VERTEX
  8
0
  5
218C
 10
372.526
 20
11.0967
 30
-2.43323e-15
  70
    32
  0
VERTEX
  8
0
  5
218D
 10
372.525
 20
11.0829
 30
-2.43019e-15
  70
    32
  0
VERTEX
  8
0
  5
218E
 10
372.525
 20
11.0692
 30
-2.42715e-15
  70
    32
  0
VERTEX
  8
0
  5
218F
 10
372.524
 20
11.0554
 30
-2.42413e-15
  70
    32
  0
VERTEX
  8
0
  5
2190
 10
372.523
 20
11.0416
 30
-2.42113e-15
  70
    32
  0
VERTEX
  8
0
  5
2191
 10
372.523
 20
11.0277
 30
-2.41813e-15
  70
    32
  0
VERTEX
  8
0
  5
2192
 10
372.522
 20
11.0139
 30
-2.41516e-15
  70
    32
  0
VERTEX
  8
0
  5
2193
 10
372.521
 20
11.0000
 30
-2.41221e-15
  70
    32
  0
VERTEX
  8
0
  5
2194
 10
372.520
 20
10.9861
 30
-2.40927e-15
  70
    32
  0
VERTEX
  8
0
  5
2195
 10
372.520
 20
10.9721
 30
-2.40636e-15
  70
    32
  0
VERTEX
  8
0
  5
2196
 10
372.519
 20
10.9582
 30
-2.40347e-15
  70
    32
  0
VERTEX
  8
0
  5
2197
 10
372.518
 20
10.9442
 30
-2.40061e-15
  70
    32
  0
VERTEX
  8
0
  5
2198
 10
372.518
 20
10.9302
 30
-2.39777e-15
  70
    32
  0
VERTEX
  8
0
  5
2199
 10
372.517
 20
10.9161
 30
-2.39496e-15
  70
    32
  0
VERTEX
  8
0
  5
219A
 10
372.516
 20
10.9020
 30
-2.39218e-15
  70
    32
  0
VERTEX
  8
0
  5
219B
 10
372.515
 20
10.8880
 30
-2.38944e-15
  70
    32
  0
VERTEX
  8
0
  5
219C
 10
372.515
 20
10.8738
 30
-2.38672e-15
  70
    32
  0
VERTEX
  8
0
  5
219D
 10
372.514
 20
10.8597
 30
-2.38404e-15
  70
    32
  0
VERTEX
  8
0
  5
219E
 10
372.513
 20
10.8455
 30
-2.38140e-15
  70
    32
  0
VERTEX
  8
0
  5
219F
 10
372.513
 20
10.8314
 30
-2.37879e-15
  70
    32
  0
VERTEX
  8
0
  5
21A0
 10
372.512
 20
10.8171
 30
-2.37622e-15
  70
    32
  0
VERTEX
  8
0
  5
21A1
 10
372.512
 20
10.8029
 30
-2.37369e-15
  70
    32
  0
VERTEX
  8
0
  5
21A2
 10
372.511
 20
10.7887
 30
-2.37121e-15
  70
    32
  0
VERTEX
  8
0
  5
21A3
 10
372.510
 20
10.7744
 30
-2.36876e-15
  70
    32
  0
VERTEX
  8
0
  5
21A4
 10
372.510
 20
10.7601
 30
-2.36636e-15
  70
    32
  0
VERTEX
  8
0
  5
21A5
 10
372.509
 20
10.7458
 30
-2.36401e-15
  70
    32
  0
VERTEX
  8
0
  5
21A6
 10
372.508
 20
10.7314
 30
-2.36171e-15
  70
    32
  0
VERTEX
  8
0
  5
21A7
 10
372.508
 20
10.7171
 30
-2.35946e-15
  70
    32
  0
VERTEX
  8
0
  5
21A8
 10
372.507
 20
10.7027
 30
-2.35725e-15
  70
    32
  0
VERTEX
  8
0
  5
21A9
 10
372.507
 20
10.6883
 30
-2.35510e-15
  70
    32
  0
VERTEX
  8
0
  5
21AA
 10
372.506
 20
10.6739
 30
-2.35301e-15
  70
    32
  0
VERTEX
  8
0
  5
21AB
 10
372.505
 20
10.6594
 30
-2.35097e-15
  70
    32
  0
VERTEX
  8
0
  5
21AC
 10
372.505
 20
10.6450
 30
-2.34893e-15
  70
    32
  0
VERTEX
  8
0
  5
21AD
 10
372.504
 20
10.6305
 30
-2.34684e-15
  70
    32
  0
VERTEX
  8
0
  5
21AE
 10
372.504
 20
10.6160
 30
-2.34470e-15
  70
    32
  0
VERTEX
  8
0
  5
21AF
 10
372.503
 20
10.6015
 30
-2.34252e-15
  70
    32
  0
VERTEX
  8
0
  5
21B0
 10
372.503
 20
10.5869
 30
-2.34028e-15
  70
    32
  0
VERTEX
  8
0
  5
21B1
 10
372.502
 20
10.5724
 30
-2.33800e-15
  70
    32
  0
VERTEX
  8
0
  5
21B2
 10
372.502
 20
10.5578
 30
-2.33567e-15
  70
    32
  0
VERTEX
  8
0
  5
21B3
 10
372.501
 20
10.5432
 30
-2.33330e-15
  70
    32
  0
VERTEX
  8
0
  5
21B4
 10
372.500
 20
10.5286
 30
-2.33088e-15
  70
    32
  0
VERTEX
  8
0
  5
21B5
 10
372.500
 20
10.5140
 30
-2.32841e-15
  70
    32
  0
VERTEX
  8
0
  5
21B6
 10
372.499
 20
10.4993
 30
-2.32590e-15
  70
    32
  0
VERTEX
  8
0
  5
21B7
 10
372.499
 20
10.4847
 30
-2.32335e-15
  70
    32
  0
VERTEX
  8
0
  5
21B8
 10
372.498
 20
10.4700
 30
-2.32076e-15
  70
    32
  0
VERTEX
  8
0
  5
21B9
 10
372.498
 20
10.4553
 30
-2.31812e-15
  70
    32
  0
VERTEX
  8
0
  5
21BA
 10
372.498
 20
10.4406
 30
-2.31544e-15
  70
    32
  0
VERTEX
  8
0
  5
21BB
 10
372.497
 20
10.4258
 30
-2.31272e-15
  70
    32
  0
VERTEX
  8
0
  5
21BC
 10
372.497
 20
10.4111
 30
-2.30996e-15
  70
    32
  0
VERTEX
  8
0
  5
21BD
 10
372.496
 20
10.3963
 30
-2.30716e-15
  70
    32
  0
VERTEX
  8
0
  5
21BE
 10
372.496
 20
10.3816
 30
-2.30432e-15
  70
    32
  0
VERTEX
  8
0
  5
21BF
 10
372.495
 20
10.3668
 30
-2.30145e-15
  70
    32
  0
VERTEX
  8
0
  5
21C0
 10
372.495
 20
10.3520
 30
-2.29854e-15
  70
    32
  0
VERTEX
  8
0
  5
21C1
 10
372.494
 20
10.3372
 30
-2.29559e-15
  70
    32
  0
VERTEX
  8
0
  5
21C2
 10
372.494
 20
10.3223
 30
-2.29260e-15
  70
    32
  0
VERTEX
  8
0
  5
21C3
 10
372.494
 20
10.3075
 30
-2.28958e-15
  70
    32
  0
VERTEX
  8
0
  5
21C4
 10
372.493
 20
10.2926
 30
-2.28653e-15
  70
    32
  0
VERTEX
  8
0
  5
21C5
 10
372.493
 20
10.2778
 30
-2.28344e-15
  70
    32
  0
VERTEX
  8
0
  5
21C6
 10
372.492
 20
10.2629
 30
-2.28031e-15
  70
    32
  0
VERTEX
  8
0
  5
21C7
 10
372.492
 20
10.2480
 30
-2.27716e-15
  70
    32
  0
VERTEX
  8
0
  5
21C8
 10
372.492
 20
10.2331
 30
-2.27397e-15
  70
    32
  0
VERTEX
  8
0
  5
21C9
 10
372.491
 20
10.2181
 30
-2.27075e-15
  70
    32
  0
VERTEX
  8
0
  5
21CA
 10
372.491
 20
10.2032
 30
-2.26751e-15
  70
    32
  0
VERTEX
  8
0
  5
21CB
 10
372.490
 20
10.1883
 30
-2.26423e-15
  70
    32
  0
VERTEX
  8
0
  5
21CC
 10
372.490
 20
10.1733
 30
-2.26092e-15
  70
    32
  0
VERTEX
  8
0
  5
21CD
 10
372.490
 20
10.1583
 30
-2.25759e-15
  70
    32
  0
VERTEX
  8
0
  5
21CE
 10
372.489
 20
10.1434
 30
-2.25422e-15
  70
    32
  0
VERTEX
  8
0
  5
21CF
 10
372.489
 20
10.1284
 30
-2.25083e-15
  70
    32
  0
VERTEX
  8
0
  5
21D0
 10
372.489
 20
10.1134
 30
-2.24741e-15
  70
    32
  0
VERTEX
  8
0
  5
21D1
 10
372.488
 20
10.0984
 30
-2.24397e-15
  70
    32
  0
VERTEX
  8
0
  5
21D2
 10
372.488
 20
10.0833
 30
-2.24050e-15
  70
    32
  0
VERTEX
  8
0
  5
21D3
 10
372.488
 20
10.0683
 30
-2.23701e-15
  70
    32
  0
VERTEX
  8
0
  5
21D4
 10
372.488
 20
10.0533
 30
-2.23349e-15
  70
    32
  0
VERTEX
  8
0
  5
21D5
 10
372.487
 20
10.0382
 30
-2.22996e-15
  70
    32
  0
VERTEX
  8
0
  5
21D6
 10
372.487
 20
10.0232
 30
-2.22639e-15
  70
    32
  0
VERTEX
  8
0
  5
21D7
 10
372.487
 20
10.0081
 30
-2.22281e-15
  70
    32
  0
VERTEX
  8
0
  5
21D8
 10
372.486
 20
9.99301
 30
-2.21921e-15
  70
    32
  0
VERTEX
  8
0
  5
21D9
 10
372.486
 20
9.97792
 30
-2.21558e-15
  70
    32
  0
VERTEX
  8
0
  5
21DA
 10
372.486
 20
9.96283
 30
-2.21194e-15
  70
    32
  0
VERTEX
  8
0
  5
21DB
 10
372.486
 20
9.94773
 30
-2.20828e-15
  70
    32
  0
VERTEX
  8
0
  5
21DC
 10
372.486
 20
9.93262
 30
-2.20460e-15
  70
    32
  0
VERTEX
  8
0
  5
21DD
 10
372.485
 20
9.91751
 30
-2.20090e-15
  70
    32
  0
VERTEX
  8
0
  5
21DE
 10
372.485
 20
9.90239
 30
-2.19718e-15
  70
    32
  0
VERTEX
  8
0
  5
21DF
 10
372.485
 20
9.88726
 30
-2.19345e-15
  70
    32
  0
VERTEX
  8
0
  5
21E0
 10
372.485
 20
9.87212
 30
-2.18970e-15
  70
    32
  0
VERTEX
  8
0
  5
21E1
 10
372.484
 20
9.85698
 30
-2.18594e-15
  70
    32
  0
VERTEX
  8
0
  5
21E2
 10
372.484
 20
9.84183
 30
-2.18216e-15
  70
    32
  0
VERTEX
  8
0
  5
21E3
 10
372.484
 20
9.82668
 30
-2.17837e-15
  70
    32
  0
VERTEX
  8
0
  5
21E4
 10
372.484
 20
9.81152
 30
-2.17457e-15
  70
    32
  0
VERTEX
  8
0
  5
21E5
 10
372.484
 20
9.79636
 30
-2.17076e-15
  70
    32
  0
VERTEX
  8
0
  5
21E6
 10
372.484
 20
9.78119
 30
-2.16693e-15
  70
    32
  0
VERTEX
  8
0
  5
21E7
 10
372.483
 20
9.76602
 30
-2.16309e-15
  70
    32
  0
VERTEX
  8
0
  5
21E8
 10
372.483
 20
9.75084
 30
-2.15924e-15
  70
    32
  0
VERTEX
  8
0
  5
21E9
 10
372.483
 20
9.73566
 30
-2.15539e-15
  70
    32
  0
VERTEX
  8
0
  5
21EA
 10
372.483
 20
9.72047
 30
-2.15152e-15
  70
    32
  0
VERTEX
  8
0
  5
21EB
 10
372.483
 20
9.70528
 30
-2.14765e-15
  70
    32
  0
VERTEX
  8
0
  5
21EC
 10
372.483
 20
9.69009
 30
-2.14377e-15
  70
    32
  0
VERTEX
  8
0
  5
21ED
 10
372.483
 20
9.67490
 30
-2.13988e-15
  70
    32
  0
VERTEX
  8
0
  5
21EE
 10
372.483
 20
9.65970
 30
-2.13599e-15
  70
    32
  0
VERTEX
  8
0
  5
21EF
 10
372.483
 20
9.64450
 30
-2.13209e-15
  70
    32
  0
VERTEX
  8
0
  5
21F0
 10
372.483
 20
9.62929
 30
-2.12819e-15
  70
    32
  0
VERTEX
  8
0
  5
21F1
 10
372.482
 20
9.61409
 30
-2.12428e-15
  70
    32
  0
VERTEX
  8
0
  5
21F2
 10
372.482
 20
9.59888
 30
-2.12037e-15
  70
    32
  0
VERTEX
  8
0
  5
21F3
 10
372.482
 20
9.58367
 30
-2.11645e-15
  70
    32
  0
VERTEX
  8
0
  5
21F4
 10
372.482
 20
9.56846
 30
-2.11254e-15
  70
    32
  0
VERTEX
  8
0
  5
21F5
 10
372.482
 20
9.55325
 30
-2.10862e-15
  70
    32
  0
VERTEX
  8
0
  5
21F6
 10
372.482
 20
9.53803
 30
-2.10470e-15
  70
    32
  0
VERTEX
  8
0
  5
21F7
 10
372.482
 20
9.52282
 30
-2.10079e-15
  70
    32
  0
VERTEX
  8
0
  5
21F8
 10
372.482
 20
9.50761
 30
-2.09687e-15
  70
    32
  0
VERTEX
  8
0
  5
21F9
 10
372.482
 20
9.49239
 30
-2.09296e-15
  70
    32
  0
VERTEX
  8
0
  5
21FA
 10
372.482
 20
9.47718
 30
-2.08904e-15
  70
    32
  0
VERTEX
  8
0
  5
21FB
 10
372.482
 20
9.46196
 30
-2.08513e-15
  70
    32
  0
VERTEX
  8
0
  5
21FC
 10
372.482
 20
9.44675
 30
-2.08123e-15
  70
    32
  0
VERTEX
  8
0
  5
21FD
 10
372.482
 20
9.43154
 30
-2.07732e-15
  70
    32
  0
VERTEX
  8
0
  5
21FE
 10
372.482
 20
9.41633
 30
-2.07342e-15
  70
    32
  0
VERTEX
  8
0
  5
21FF
 10
372.482
 20
9.40112
 30
-2.06953e-15
  70
    32
  0
VERTEX
  8
0
  5
2200
 10
372.482
 20
9.38591
 30
-2.06564e-15
  70
    32
  0
VERTEX
  8
0
  5
2201
 10
372.483
 20
9.37071
 30
-2.06176e-15
  70
    32
  0
VERTEX
  8
0
  5
2202
 10
372.483
 20
9.35550
 30
-2.05789e-15
  70
    32
  0
VERTEX
  8
0
  5
2203
 10
372.483
 20
9.34030
 30
-2.05402e-15
  70
    32
  0
VERTEX
  8
0
  5
2204
 10
372.483
 20
9.32510
 30
-2.05017e-15
  70
    32
  0
VERTEX
  8
0
  5
2205
 10
372.483
 20
9.30990
 30
-2.04632e-15
  70
    32
  0
VERTEX
  8
0
  5
2206
 10
372.483
 20
9.29471
 30
-2.04248e-15
  70
    32
  0
VERTEX
  8
0
  5
2207
 10
372.483
 20
9.27952
 30
-2.03865e-15
  70
    32
  0
VERTEX
  8
0
  5
2208
 10
372.483
 20
9.26434
 30
-2.03483e-15
  70
    32
  0
VERTEX
  8
0
  5
2209
 10
372.483
 20
9.24915
 30
-2.03103e-15
  70
    32
  0
VERTEX
  8
0
  5
220A
 10
372.483
 20
9.23398
 30
-2.02723e-15
  70
    32
  0
VERTEX
  8
0
  5
220B
 10
372.484
 20
9.21880
 30
-2.02345e-15
  70
    32
  0
VERTEX
  8
0
  5
220C
 10
372.484
 20
9.20363
 30
-2.01969e-15
  70
    32
  0
VERTEX
  8
0
  5
220D
 10
372.484
 20
9.18847
 30
-2.01593e-15
  70
    32
  0
VERTEX
  8
0
  5
220E
 10
372.484
 20
9.17331
 30
-2.01219e-15
  70
    32
  0
VERTEX
  8
0
  5
220F
 10
372.484
 20
9.15816
 30
-2.00847e-15
  70
    32
  0
VERTEX
  8
0
  5
2210
 10
372.484
 20
9.14301
 30
-2.00476e-15
  70
    32
  0
VERTEX
  8
0
  5
2211
 10
372.485
 20
9.12787
 30
-2.00107e-15
  70
    32
  0
VERTEX
  8
0
  5
2212
 10
372.485
 20
9.11273
 30
-1.99740e-15
  70
    32
  0
VERTEX
  8
0
  5
2213
 10
372.485
 20
9.09760
 30
-1.99375e-15
  70
    32
  0
VERTEX
  8
0
  5
2214
 10
372.485
 20
9.08248
 30
-1.99011e-15
  70
    32
  0
VERTEX
  8
0
  5
2215
 10
372.486
 20
9.06737
 30
-1.98649e-15
  70
    32
  0
VERTEX
  8
0
  5
2216
 10
372.486
 20
9.05226
 30
-1.98290e-15
  70
    32
  0
VERTEX
  8
0
  5
2217
 10
372.486
 20
9.03716
 30
-1.97932e-15
  70
    32
  0
VERTEX
  8
0
  5
2218
 10
372.486
 20
9.02206
 30
-1.97577e-15
  70
    32
  0
VERTEX
  8
0
  5
2219
 10
372.486
 20
9.00698
 30
-1.97223e-15
  70
    32
  0
VERTEX
  8
0
  5
221A
 10
372.487
 20
8.99190
 30
-1.96872e-15
  70
    32
  0
VERTEX
  8
0
  5
221B
 10
372.487
 20
8.97684
 30
-1.96523e-15
  70
    32
  0
VERTEX
  8
0
  5
221C
 10
372.487
 20
8.96178
 30
-1.96177e-15
  70
    32
  0
VERTEX
  8
0
  5
221D
 10
372.488
 20
8.94673
 30
-1.95833e-15
  70
    32
  0
VERTEX
  8
0
  5
221E
 10
372.488
 20
8.93168
 30
-1.95492e-15
  70
    32
  0
VERTEX
  8
0
  5
221F
 10
372.488
 20
8.91665
 30
-1.95153e-15
  70
    32
  0
VERTEX
  8
0
  5
2220
 10
372.488
 20
8.90163
 30
-1.94816e-15
  70
    32
  0
VERTEX
  8
0
  5
2221
 10
372.489
 20
8.88662
 30
-1.94483e-15
  70
    32
  0
VERTEX
  8
0
  5
2222
 10
372.489
 20
8.87162
 30
-1.94152e-15
  70
    32
  0
VERTEX
  8
0
  5
2223
 10
372.489
 20
8.85663
 30
-1.93824e-15
  70
    32
  0
VERTEX
  8
0
  5
2224
 10
372.490
 20
8.84165
 30
-1.93499e-15
  70
    32
  0
VERTEX
  8
0
  5
2225
 10
372.490
 20
8.82668
 30
-1.93177e-15
  70
    32
  0
VERTEX
  8
0
  5
2226
 10
372.490
 20
8.81172
 30
-1.92857e-15
  70
    32
  0
VERTEX
  8
0
  5
2227
 10
372.491
 20
8.79677
 30
-1.92541e-15
  70
    32
  0
VERTEX
  8
0
  5
2228
 10
372.491
 20
8.78184
 30
-1.92228e-15
  70
    32
  0
VERTEX
  8
0
  5
2229
 10
372.492
 20
8.76692
 30
-1.91919e-15
  70
    32
  0
VERTEX
  8
0
  5
222A
 10
372.492
 20
8.75201
 30
-1.91612e-15
  70
    32
  0
VERTEX
  8
0
  5
222B
 10
372.492
 20
8.73711
 30
-1.91309e-15
  70
    32
  0
VERTEX
  8
0
  5
222C
 10
372.493
 20
8.72222
 30
-1.91009e-15
  70
    32
  0
VERTEX
  8
0
  5
222D
 10
372.493
 20
8.70735
 30
-1.90713e-15
  70
    32
  0
VERTEX
  8
0
  5
222E
 10
372.494
 20
8.69249
 30
-1.90420e-15
  70
    32
  0
VERTEX
  8
0
  5
222F
 10
372.494
 20
8.67765
 30
-1.90131e-15
  70
    32
  0
VERTEX
  8
0
  5
2230
 10
372.494
 20
8.66282
 30
-1.89845e-15
  70
    32
  0
VERTEX
  8
0
  5
2231
 10
372.495
 20
8.64800
 30
-1.89564e-15
  70
    32
  0
VERTEX
  8
0
  5
2232
 10
372.495
 20
8.63320
 30
-1.89286e-15
  70
    32
  0
VERTEX
  8
0
  5
2233
 10
372.496
 20
8.61841
 30
-1.89011e-15
  70
    32
  0
VERTEX
  8
0
  5
2234
 10
372.496
 20
8.60364
 30
-1.88741e-15
  70
    32
  0
VERTEX
  8
0
  5
2235
 10
372.497
 20
8.58888
 30
-1.88475e-15
  70
    32
  0
VERTEX
  8
0
  5
2236
 10
372.497
 20
8.57414
 30
-1.88212e-15
  70
    32
  0
VERTEX
  8
0
  5
2237
 10
372.498
 20
8.55941
 30
-1.87954e-15
  70
    32
  0
VERTEX
  8
0
  5
2238
 10
372.498
 20
8.54470
 30
-1.87700e-15
  70
    32
  0
VERTEX
  8
0
  5
2239
 10
372.498
 20
8.53001
 30
-1.87450e-15
  70
    32
  0
VERTEX
  8
0
  5
223A
 10
372.499
 20
8.51533
 30
-1.87205e-15
  70
    32
  0
VERTEX
  8
0
  5
223B
 10
372.499
 20
8.50067
 30
-1.86964e-15
  70
    32
  0
VERTEX
  8
0
  5
223C
 10
372.500
 20
8.48603
 30
-1.86727e-15
  70
    32
  0
VERTEX
  8
0
  5
223D
 10
372.500
 20
8.47140
 30
-1.86495e-15
  70
    32
  0
VERTEX
  8
0
  5
223E
 10
372.501
 20
8.45679
 30
-1.86267e-15
  70
    32
  0
VERTEX
  8
0
  5
223F
 10
372.502
 20
8.44220
 30
-1.86044e-15
  70
    32
  0
VERTEX
  8
0
  5
2240
 10
372.502
 20
8.42762
 30
-1.85825e-15
  70
    32
  0
VERTEX
  8
0
  5
2241
 10
372.503
 20
8.41307
 30
-1.85611e-15
  70
    32
  0
VERTEX
  8
0
  5
2242
 10
372.503
 20
8.39853
 30
-1.85403e-15
  70
    32
  0
VERTEX
  8
0
  5
2243
 10
372.504
 20
8.38401
 30
-1.85198e-15
  70
    32
  0
VERTEX
  8
0
  5
2244
 10
372.504
 20
8.36951
 30
-1.84999e-15
  70
    32
  0
VERTEX
  8
0
  5
2245
 10
372.505
 20
8.35503
 30
-1.84802e-15
  70
    32
  0
VERTEX
  8
0
  5
2246
 10
372.505
 20
8.34057
 30
-1.84599e-15
  70
    32
  0
VERTEX
  8
0
  5
2247
 10
372.506
 20
8.32613
 30
-1.84392e-15
  70
    32
  0
VERTEX
  8
0
  5
2248
 10
372.507
 20
8.31170
 30
-1.84179e-15
  70
    32
  0
VERTEX
  8
0
  5
2249
 10
372.507
 20
8.29730
 30
-1.83962e-15
  70
    32
  0
VERTEX
  8
0
  5
224A
 10
372.508
 20
8.28292
 30
-1.83741e-15
  70
    32
  0
VERTEX
  8
0
  5
224B
 10
372.508
 20
8.26856
 30
-1.83515e-15
  70
    32
  0
VERTEX
  8
0
  5
224C
 10
372.509
 20
8.25422
 30
-1.83284e-15
  70
    32
  0
VERTEX
  8
0
  5
224D
 10
372.510
 20
8.23990
 30
-1.83050e-15
  70
    32
  0
VERTEX
  8
0
  5
224E
 10
372.510
 20
8.22561
 30
-1.82811e-15
  70
    32
  0
VERTEX
  8
0
  5
224F
 10
372.511
 20
8.21133
 30
-1.82569e-15
  70
    32
  0
VERTEX
  8
0
  5
2250
 10
372.512
 20
8.19708
 30
-1.82322e-15
  70
    32
  0
VERTEX
  8
0
  5
2251
 10
372.512
 20
8.18285
 30
-1.82073e-15
  70
    32
  0
VERTEX
  8
0
  5
2252
 10
372.513
 20
8.16864
 30
-1.81819e-15
  70
    32
  0
VERTEX
  8
0
  5
2253
 10
372.513
 20
8.15445
 30
-1.81563e-15
  70
    32
  0
VERTEX
  8
0
  5
2254
 10
372.514
 20
8.14029
 30
-1.81303e-15
  70
    32
  0
VERTEX
  8
0
  5
2255
 10
372.515
 20
8.12615
 30
-1.81040e-15
  70
    32
  0
VERTEX
  8
0
  5
2256
 10
372.515
 20
8.11204
 30
-1.80774e-15
  70
    32
  0
VERTEX
  8
0
  5
2257
 10
372.516
 20
8.09795
 30
-1.80505e-15
  70
    32
  0
VERTEX
  8
0
  5
2258
 10
372.517
 20
8.08388
 30
-1.80234e-15
  70
    32
  0
VERTEX
  8
0
  5
2259
 10
372.518
 20
8.06984
 30
-1.79960e-15
  70
    32
  0
VERTEX
  8
0
  5
225A
 10
372.518
 20
8.05582
 30
-1.79684e-15
  70
    32
  0
VERTEX
  8
0
  5
225B
 10
372.519
 20
8.04183
 30
-1.79405e-15
  70
    32
  0
VERTEX
  8
0
  5
225C
 10
372.520
 20
8.02786
 30
-1.79124e-15
  70
    32
  0
VERTEX
  8
0
  5
225D
 10
372.520
 20
8.01391
 30
-1.78842e-15
  70
    32
  0
VERTEX
  8
0
  5
225E
 10
372.521
 20
8.00000
 30
-1.78557e-15
  70
    32
  0
VERTEX
  8
0
  5
225F
 10
372.522
 20
7.98611
 30
-1.78271e-15
  70
    32
  0
VERTEX
  8
0
  5
2260
 10
372.523
 20
7.97224
 30
-1.77983e-15
  70
    32
  0
VERTEX
  8
0
  5
2261
 10
372.523
 20
7.95840
 30
-1.77694e-15
  70
    32
  0
VERTEX
  8
0
  5
2262
 10
372.524
 20
7.94459
 30
-1.77403e-15
  70
    32
  0
VERTEX
  8
0
  5
2263
 10
372.525
 20
7.93081
 30
-1.77111e-15
  70
    32
  0
VERTEX
  8
0
  5
2264
 10
372.525
 20
7.91705
 30
-1.76818e-15
  70
    32
  0
VERTEX
  8
0
  5
2265
 10
372.526
 20
7.90332
 30
-1.76524e-15
  70
    32
  0
VERTEX
  8
0
  5
2266
 10
372.527
 20
7.88962
 30
-1.76230e-15
  70
    32
  0
VERTEX
  8
0
  5
2267
 10
372.528
 20
7.87595
 30
-1.75935e-15
  70
    32
  0
VERTEX
  8
0
  5
2268
 10
372.529
 20
7.86230
 30
-1.75639e-15
  70
    32
  0
VERTEX
  8
0
  5
2269
 10
372.529
 20
7.84868
 30
-1.75343e-15
  70
    32
  0
VERTEX
  8
0
  5
226A
 10
372.530
 20
7.83510
 30
-1.75046e-15
  70
    32
  0
VERTEX
  8
0
  5
226B
 10
372.531
 20
7.82154
 30
-1.74750e-15
  70
    32
  0
VERTEX
  8
0
  5
226C
 10
372.532
 20
7.80801
 30
-1.74454e-15
  70
    32
  0
VERTEX
  8
0
  5
226D
 10
372.532
 20
7.79451
 30
-1.74157e-15
  70
    32
  0
VERTEX
  8
0
  5
226E
 10
372.533
 20
7.78104
 30
-1.73861e-15
  70
    32
  0
VERTEX
  8
0
  5
226F
 10
372.534
 20
7.76760
 30
-1.73566e-15
  70
    32
  0
VERTEX
  8
0
  5
2270
 10
372.535
 20
7.75419
 30
-1.73271e-15
  70
    32
  0
VERTEX
  8
0
  5
2271
 10
372.536
 20
7.74081
 30
-1.72977e-15
  70
    32
  0
VERTEX
  8
0
  5
2272
 10
372.536
 20
7.72746
 30
-1.72684e-15
  70
    32
  0
VERTEX
  8
0
  5
2273
 10
372.537
 20
7.71415
 30
-1.72391e-15
  70
    32
  0
VERTEX
  8
0
  5
2274
 10
372.538
 20
7.70086
 30
-1.72100e-15
  70
    32
  0
VERTEX
  8
0
  5
2275
 10
372.539
 20
7.68761
 30
-1.71810e-15
  70
    32
  0
VERTEX
  8
0
  5
2276
 10
372.540
 20
7.67439
 30
-1.71521e-15
  70
    32
  0
VERTEX
  8
0
  5
2277
 10
372.541
 20
7.66120
 30
-1.71234e-15
  70
    32
  0
VERTEX
  8
0
  5
2278
 10
372.541
 20
7.64804
 30
-1.70949e-15
  70
    32
  0
VERTEX
  8
0
  5
2279
 10
372.542
 20
7.63492
 30
-1.70665e-15
  70
    32
  0
VERTEX
  8
0
  5
227A
 10
372.543
 20
7.62183
 30
-1.70384e-15
  70
    32
  0
VERTEX
  8
0
  5
227B
 10
372.544
 20
7.60877
 30
-1.70104e-15
  70
    32
  0
VERTEX
  8
0
  5
227C
 10
372.545
 20
7.59575
 30
-1.69826e-15
  70
    32
  0
VERTEX
  8
0
  5
227D
 10
372.546
 20
7.58276
 30
-1.69551e-15
  70
    32
  0
VERTEX
  8
0
  5
227E
 10
372.546
 20
7.56981
 30
-1.69279e-15
  70
    32
  0
VERTEX
  8
0
  5
227F
 10
372.547
 20
7.55689
 30
-1.69009e-15
  70
    32
  0
VERTEX
  8
0
  5
2280
 10
372.548
 20
7.54400
 30
-1.68742e-15
  70
    32
  0
VERTEX
  8
0
  5
2281
 10
372.549
 20
7.53115
 30
-1.68477e-15
  70
    32
  0
VERTEX
  8
0
  5
2282
 10
372.550
 20
7.51833
 30
-1.68216e-15
  70
    32
  0
VERTEX
  8
0
  5
2283
 10
372.551
 20
7.50555
 30
-1.67958e-15
  70
    32
  0
VERTEX
  8
0
  5
2284
 10
372.552
 20
7.49281
 30
-1.67703e-15
  70
    32
  0
VERTEX
  8
0
  5
2285
 10
372.553
 20
7.48010
 30
-1.67451e-15
  70
    32
  0
VERTEX
  8
0
  5
2286
 10
372.553
 20
7.46742
 30
-1.67203e-15
  70
    32
  0
VERTEX
  8
0
  5
2287
 10
372.554
 20
7.45479
 30
-1.66959e-15
  70
    32
  0
VERTEX
  8
0
  5
2288
 10
372.555
 20
7.44219
 30
-1.66718e-15
  70
    32
  0
VERTEX
  8
0
  5
2289
 10
372.556
 20
7.42963
 30
-1.66482e-15
  70
    32
  0
VERTEX
  8
0
  5
228A
 10
372.557
 20
7.41710
 30
-1.66250e-15
  70
    32
  0
VERTEX
  8
0
  5
228B
 10
372.558
 20
7.40461
 30
-1.66021e-15
  70
    32
  0
VERTEX
  8
0
  5
228C
 10
372.559
 20
7.39216
 30
-1.65798e-15
  70
    32
  0
VERTEX
  8
0
  5
228D
 10
372.560
 20
7.37975
 30
-1.65578e-15
  70
    32
  0
VERTEX
  8
0
  5
228E
 10
372.561
 20
7.36738
 30
-1.65364e-15
  70
    32
  0
VERTEX
  8
0
  5
228F
 10
372.562
 20
7.35504
 30
-1.65154e-15
  70
    32
  0
VERTEX
  8
0
  5
2290
 10
372.562
 20
7.34275
 30
-1.64949e-15
  70
    32
  0
VERTEX
  8
0
  5
2291
 10
372.563
 20
7.33049
 30
-1.64746e-15
  70
    32
  0
VERTEX
  8
0
  5
2292
 10
372.564
 20
7.31827
 30
-1.64538e-15
  70
    32
  0
VERTEX
  8
0
  5
2293
 10
372.565
 20
7.30610
 30
-1.64324e-15
  70
    32
  0
VERTEX
  8
0
  5
2294
 10
372.566
 20
7.29396
 30
-1.64105e-15
  70
    32
  0
VERTEX
  8
0
  5
2295
 10
372.567
 20
7.28186
 30
-1.63881e-15
  70
    32
  0
VERTEX
  8
0
  5
2296
 10
372.568
 20
7.26981
 30
-1.63652e-15
  70
    32
  0
VERTEX
  8
0
  5
2297
 10
372.569
 20
7.25779
 30
-1.63418e-15
  70
    32
  0
VERTEX
  8
0
  5
2298
 10
372.570
 20
7.24582
 30
-1.63179e-15
  70
    32
  0
VERTEX
  8
0
  5
2299
 10
372.571
 20
7.23388
 30
-1.62936e-15
  70
    32
  0
VERTEX
  8
0
  5
229A
 10
372.572
 20
7.22199
 30
-1.62688e-15
  70
    32
  0
VERTEX
  8
0
  5
229B
 10
372.573
 20
7.21014
 30
-1.62436e-15
  70
    32
  0
VERTEX
  8
0
  5
229C
 10
372.574
 20
7.19833
 30
-1.62180e-15
  70
    32
  0
VERTEX
  8
0
  5
229D
 10
372.575
 20
7.18657
 30
-1.61920e-15
  70
    32
  0
VERTEX
  8
0
  5
229E
 10
372.575
 20
7.17484
 30
-1.61656e-15
  70
    32
  0
VERTEX
  8
0
  5
229F
 10
372.576
 20
7.16316
 30
-1.61389e-15
  70
    32
  0
VERTEX
  8
0
  5
22A0
 10
372.577
 20
7.15152
 30
-1.61118e-15
  70
    32
  0
VERTEX
  8
0
  5
22A1
 10
372.578
 20
7.13993
 30
-1.60844e-15
  70
    32
  0
VERTEX
  8
0
  5
22A2
 10
372.579
 20
7.12838
 30
-1.60567e-15
  70
    32
  0
VERTEX
  8
0
  5
22A3
 10
372.580
 20
7.11687
 30
-1.60286e-15
  70
    32
  0
VERTEX
  8
0
  5
22A4
 10
372.581
 20
7.10541
 30
-1.60003e-15
  70
    32
  0
VERTEX
  8
0
  5
22A5
 10
372.582
 20
7.09399
 30
-1.59717e-15
  70
    32
  0
VERTEX
  8
0
  5
22A6
 10
372.583
 20
7.08262
 30
-1.59429e-15
  70
    32
  0
VERTEX
  8
0
  5
22A7
 10
372.584
 20
7.07129
 30
-1.59138e-15
  70
    32
  0
VERTEX
  8
0
  5
22A8
 10
372.585
 20
7.06001
 30
-1.58845e-15
  70
    32
  0
VERTEX
  8
0
  5
22A9
 10
372.586
 20
7.04877
 30
-1.58550e-15
  70
    32
  0
VERTEX
  8
0
  5
22AA
 10
372.587
 20
7.03758
 30
-1.58253e-15
  70
    32
  0
VERTEX
  8
0
  5
22AB
 10
372.588
 20
7.02643
 30
-1.57954e-15
  70
    32
  0
VERTEX
  8
0
  5
22AC
 10
372.589
 20
7.01533
 30
-1.57653e-15
  70
    32
  0
VERTEX
  8
0
  5
22AD
 10
372.590
 20
7.00427
 30
-1.57351e-15
  70
    32
  0
VERTEX
  8
0
  5
22AE
 10
372.591
 20
6.99327
 30
-1.57048e-15
  70
    32
  0
VERTEX
  8
0
  5
22AF
 10
372.592
 20
6.98231
 30
-1.56743e-15
  70
    32
  0
VERTEX
  8
0
  5
22B0
 10
372.592
 20
6.97139
 30
-1.56438e-15
  70
    32
  0
VERTEX
  8
0
  5
22B1
 10
372.593
 20
6.96053
 30
-1.56132e-15
  70
    32
  0
VERTEX
  8
0
  5
22B2
 10
372.594
 20
6.94971
 30
-1.55824e-15
  70
    32
  0
VERTEX
  8
0
  5
22B3
 10
372.595
 20
6.93894
 30
-1.55517e-15
  70
    32
  0
VERTEX
  8
0
  5
22B4
 10
372.596
 20
6.92821
 30
-1.55209e-15
  70
    32
  0
VERTEX
  8
0
  5
22B5
 10
372.597
 20
6.91754
 30
-1.54901e-15
  70
    32
  0
VERTEX
  8
0
  5
22B6
 10
372.598
 20
6.90692
 30
-1.54592e-15
  70
    32
  0
VERTEX
  8
0
  5
22B7
 10
372.599
 20
6.89634
 30
-1.54284e-15
  70
    32
  0
VERTEX
  8
0
  5
22B8
 10
372.600
 20
6.88581
 30
-1.53976e-15
  70
    32
  0
VERTEX
  8
0
  5
22B9
 10
372.601
 20
6.87533
 30
-1.53668e-15
  70
    32
  0
VERTEX
  8
0
  5
22BA
 10
372.602
 20
6.86491
 30
-1.53361e-15
  70
    32
  0
VERTEX
  8
0
  5
22BB
 10
372.603
 20
6.85453
 30
-1.53054e-15
  70
    32
  0
VERTEX
  8
0
  5
22BC
 10
372.604
 20
6.84420
 30
-1.52748e-15
  70
    32
  0
VERTEX
  8
0
  5
22BD
 10
372.605
 20
6.83392
 30
-1.52444e-15
  70
    32
  0
VERTEX
  8
0
  5
22BE
 10
372.606
 20
6.82369
 30
-1.52140e-15
  70
    32
  0
VERTEX
  8
0
  5
22BF
 10
372.607
 20
6.81352
 30
-1.51838e-15
  70
    32
  0
VERTEX
  8
0
  5
22C0
 10
372.608
 20
6.80339
 30
-1.51537e-15
  70
    32
  0
VERTEX
  8
0
  5
22C1
 10
372.609
 20
6.79332
 30
-1.51238e-15
  70
    32
  0
VERTEX
  8
0
  5
22C2
 10
372.609
 20
6.78330
 30
-1.50940e-15
  70
    32
  0
VERTEX
  8
0
  5
22C3
 10
372.610
 20
6.77333
 30
-1.50644e-15
  70
    32
  0
VERTEX
  8
0
  5
22C4
 10
372.611
 20
6.76341
 30
-1.50351e-15
  70
    32
  0
VERTEX
  8
0
  5
22C5
 10
372.612
 20
6.75355
 30
-1.50059e-15
  70
    32
  0
VERTEX
  8
0
  5
22C6
 10
372.613
 20
6.74374
 30
-1.49770e-15
  70
    32
  0
VERTEX
  8
0
  5
22C7
 10
372.614
 20
6.73398
 30
-1.49484e-15
  70
    32
  0
VERTEX
  8
0
  5
22C8
 10
372.615
 20
6.72427
 30
-1.49200e-15
  70
    32
  0
VERTEX
  8
0
  5
22C9
 10
372.616
 20
6.71462
 30
-1.48919e-15
  70
    32
  0
VERTEX
  8
0
  5
22CA
 10
372.617
 20
6.70502
 30
-1.48641e-15
  70
    32
  0
VERTEX
  8
0
  5
22CB
 10
372.618
 20
6.69548
 30
-1.48366e-15
  70
    32
  0
VERTEX
  8
0
  5
22CC
 10
372.619
 20
6.68599
 30
-1.48094e-15
  70
    32
  0
VERTEX
  8
0
  5
22CD
 10
372.620
 20
6.67655
 30
-1.47826e-15
  70
    32
  0
VERTEX
  8
0
  5
22CE
 10
372.621
 20
6.66717
 30
-1.47561e-15
  70
    32
  0
VERTEX
  8
0
  5
22CF
 10
372.622
 20
6.65784
 30
-1.47301e-15
  70
    32
  0
VERTEX
  8
0
  5
22D0
 10
372.622
 20
6.64857
 30
-1.47044e-15
  70
    32
  0
VERTEX
  8
0
  5
22D1
 10
372.623
 20
6.63936
 30
-1.46791e-15
  70
    32
  0
VERTEX
  8
0
  5
22D2
 10
372.624
 20
6.63020
 30
-1.46542e-15
  70
    32
  0
VERTEX
  8
0
  5
22D3
 10
372.625
 20
6.62110
 30
-1.46298e-15
  70
    32
  0
VERTEX
  8
0
  5
22D4
 10
372.626
 20
6.61205
 30
-1.46058e-15
  70
    32
  0
VERTEX
  8
0
  5
22D5
 10
372.627
 20
6.60306
 30
-1.45823e-15
  70
    32
  0
VERTEX
  8
0
  5
22D6
 10
372.628
 20
6.59413
 30
-1.45592e-15
  70
    32
  0
VERTEX
  8
0
  5
22D7
 10
372.629
 20
6.58525
 30
-1.45367e-15
  70
    32
  0
VERTEX
  8
0
  5
22D8
 10
372.630
 20
6.57643
 30
-1.45146e-15
  70
    32
  0
VERTEX
  8
0
  5
22D9
 10
372.630
 20
6.56767
 30
-1.44931e-15
  70
    32
  0
VERTEX
  8
0
  5
22DA
 10
372.631
 20
6.55897
 30
-1.44722e-15
  70
    32
  0
VERTEX
  8
0
  5
22DB
 10
372.632
 20
6.55032
 30
-1.44518e-15
  70
    32
  0
VERTEX
  8
0
  5
22DC
 10
372.633
 20
6.54173
 30
-1.44321e-15
  70
    32
  0
VERTEX
  8
0
  5
22DD
 10
372.634
 20
6.53321
 30
-1.44129e-15
  70
    32
  0
VERTEX
  8
0
  5
22DE
 10
372.635
 20
6.52474
 30
-1.43942e-15
  70
    32
  0
VERTEX
  8
0
  5
22DF
 10
372.636
 20
6.51633
 30
-1.43760e-15
  70
    32
  0
VERTEX
  8
0
  5
22E0
 10
372.637
 20
6.50798
 30
-1.43584e-15
  70
    32
  0
VERTEX
  8
0
  5
22E1
 10
372.637
 20
6.49969
 30
-1.43412e-15
  70
    32
  0
VERTEX
  8
0
  5
22E2
 10
372.638
 20
6.49146
 30
-1.43245e-15
  70
    32
  0
VERTEX
  8
0
  5
22E3
 10
372.639
 20
6.48328
 30
-1.43082e-15
  70
    32
  0
VERTEX
  8
0
  5
22E4
 10
372.640
 20
6.47517
 30
-1.42924e-15
  70
    32
  0
VERTEX
  8
0
  5
22E5
 10
372.641
 20
6.46712
 30
-1.42769e-15
  70
    32
  0
VERTEX
  8
0
  5
22E6
 10
372.642
 20
6.45913
 30
-1.42619e-15
  70
    32
  0
VERTEX
  8
0
  5
22E7
 10
372.642
 20
6.45120
 30
-1.42472e-15
  70
    32
  0
VERTEX
  8
0
  5
22E8
 10
372.643
 20
6.44333
 30
-1.42329e-15
  70
    32
  0
VERTEX
  8
0
  5
22E9
 10
372.644
 20
6.43553
 30
-1.42189e-15
  70
    32
  0
VERTEX
  8
0
  5
22EA
 10
372.645
 20
6.42778
 30
-1.42053e-15
  70
    32
  0
VERTEX
  8
0
  5
22EB
 10
372.646
 20
6.42009
 30
-1.41919e-15
  70
    32
  0
VERTEX
  8
0
  5
22EC
 10
372.647
 20
6.41247
 30
-1.41788e-15
  70
    32
  0
VERTEX
  8
0
  5
22ED
 10
372.647
 20
6.40491
 30
-1.41660e-15
  70
    32
  0
VERTEX
  8
0
  5
22EE
 10
372.648
 20
6.39741
 30
-1.41534e-15
  70
    32
  0
VERTEX
  8
0
  5
22EF
 10
372.649
 20
6.38997
 30
-1.41410e-15
  70
    32
  0
VERTEX
  8
0
  5
22F0
 10
372.650
 20
6.38260
 30
-1.41289e-15
  70
    32
  0
VERTEX
  8
0
  5
22F1
 10
372.651
 20
6.37528
 30
-1.41169e-15
  70
    32
  0
VERTEX
  8
0
  5
22F2
 10
372.651
 20
6.36803
 30
-1.41051e-15
  70
    32
  0
VERTEX
  8
0
  5
22F3
 10
372.652
 20
6.36085
 30
-1.40934e-15
  70
    32
  0
VERTEX
  8
0
  5
22F4
 10
372.653
 20
6.35372
 30
-1.40819e-15
  70
    32
  0
VERTEX
  8
0
  5
22F5
 10
372.654
 20
6.34666
 30
-1.40704e-15
  70
    32
  0
VERTEX
  8
0
  5
22F6
 10
372.654
 20
6.33967
 30
-1.40591e-15
  70
    32
  0
VERTEX
  8
0
  5
22F7
 10
372.655
 20
6.33273
 30
-1.40478e-15
  70
    32
  0
VERTEX
  8
0
  5
22F8
 10
372.656
 20
6.32587
 30
-1.40366e-15
  70
    32
  0
VERTEX
  8
0
  5
22F9
 10
372.657
 20
6.31906
 30
-1.40255e-15
  70
    32
  0
VERTEX
  8
0
  5
22FA
 10
372.657
 20
6.31232
 30
-1.40143e-15
  70
    32
  0
VERTEX
  8
0
  5
22FB
 10
372.658
 20
6.30564
 30
-1.40032e-15
  70
    32
  0
VERTEX
  8
0
  5
22FC
 10
372.659
 20
6.29903
 30
-1.39920e-15
  70
    32
  0
VERTEX
  8
0
  5
22FD
 10
372.660
 20
6.29249
 30
-1.39808e-15
  70
    32
  0
VERTEX
  8
0
  5
22FE
 10
372.660
 20
6.28600
 30
-1.39695e-15
  70
    32
  0
VERTEX
  8
0
  5
22FF
 10
372.661
 20
6.27959
 30
-1.39582e-15
  70
    32
  0
VERTEX
  8
0
  5
2300
 10
372.662
 20
6.27324
 30
-1.39467e-15
  70
    32
  0
VERTEX
  8
0
  5
2301
 10
372.662
 20
6.26695
 30
-1.39352e-15
  70
    32
  0
VERTEX
  8
0
  5
2302
 10
372.663
 20
6.26073
 30
-1.39235e-15
  70
    32
  0
VERTEX
  8
0
  5
2303
 10
372.664
 20
6.25458
 30
-1.39117e-15
  70
    32
  0
VERTEX
  8
0
  5
2304
 10
372.664
 20
6.24849
 30
-1.38997e-15
  70
    32
  0
VERTEX
  8
0
  5
2305
 10
372.665
 20
6.24247
 30
-1.38875e-15
  70
    32
  0
VERTEX
  8
0
  5
2306
 10
372.666
 20
6.23652
 30
-1.38751e-15
  70
    32
  0
VERTEX
  8
0
  5
2307
 10
372.667
 20
6.23063
 30
-1.38625e-15
  70
    32
  0
VERTEX
  8
0
  5
2308
 10
372.667
 20
6.22481
 30
-1.38496e-15
  70
    32
  0
VERTEX
  8
0
  5
2309
 10
372.668
 20
6.21906
 30
-1.38365e-15
  70
    32
  0
VERTEX
  8
0
  5
230A
 10
372.668
 20
6.21337
 30
-1.38231e-15
  70
    32
  0
VERTEX
  8
0
  5
230B
 10
372.669
 20
6.20775
 30
-1.38094e-15
  70
    32
  0
VERTEX
  8
0
  5
230C
 10
372.670
 20
6.20220
 30
-1.37953e-15
  70
    32
  0
VERTEX
  8
0
  5
230D
 10
372.670
 20
6.19672
 30
-1.37810e-15
  70
    32
  0
VERTEX
  8
0
  5
230E
 10
372.671
 20
6.19131
 30
-1.37663e-15
  70
    32
  0
VERTEX
  8
0
  5
230F
 10
372.672
 20
6.18596
 30
-1.37512e-15
  70
    32
  0
VERTEX
  8
0
  5
2310
 10
372.672
 20
6.18068
 30
-1.37357e-15
  70
    32
  0
VERTEX
  8
0
  5
2311
 10
372.673
 20
6.17547
 30
-1.37198e-15
  70
    32
  0
VERTEX
  8
0
  5
2312
 10
372.673
 20
6.17033
 30
-1.37035e-15
  70
    32
  0
VERTEX
  8
0
  5
2313
 10
372.674
 20
6.16526
 30
-1.36867e-15
  70
    32
  0
VERTEX
  8
0
  5
2314
 10
372.675
 20
6.16026
 30
-1.36695e-15
  70
    32
  0
VERTEX
  8
0
  5
2315
 10
372.675
 20
6.15533
 30
-1.36518e-15
  70
    32
  0
VERTEX
  8
0
  5
2316
 10
372.676
 20
6.15047
 30
-1.36336e-15
  70
    32
  0
VERTEX
  8
0
  5
2317
 10
372.676
 20
6.14568
 30
-1.36148e-15
  70
    32
  0
VERTEX
  8
0
  5
2318
 10
372.677
 20
6.14095
 30
-1.35955e-15
  70
    32
  0
VERTEX
  8
0
  5
2319
 10
372.677
 20
6.13630
 30
-1.35757e-15
  70
    32
  0
VERTEX
  8
0
  5
231A
 10
372.678
 20
6.13172
 30
-1.35553e-15
  70
    32
  0
VERTEX
  8
0
  5
231B
 10
372.678
 20
6.12721
 30
-1.35342e-15
  70
    32
  0
VERTEX
  8
0
  5
231C
 10
372.679
 20
6.12277
 30
-1.35126e-15
  70
    32
  0
VERTEX
  8
0
  5
231D
 10
372.679
 20
6.11840
 30
-1.34903e-15
  70
    32
  0
VERTEX
  8
0
  5
231E
 10
372.680
 20
6.11410
 30
-1.34674e-15
  70
    32
  0
VERTEX
  8
0
  5
231F
 10
372.680
 20
6.10987
 30
-1.34439e-15
  70
    32
  0
VERTEX
  8
0
  5
2320
 10
372.681
 20
6.10572
 30
-1.34210e-15
  70
    32
  0
VERTEX
  8
0
  5
2321
 10
372.681
 20
6.10164
 30
-1.33988e-15
  70
    32
  0
VERTEX
  8
0
  5
2322
 10
372.682
 20
6.09762
 30
-1.33774e-15
  70
    32
  0
VERTEX
  8
0
  5
2323
 10
372.682
 20
6.09368
 30
-1.33569e-15
  70
    32
  0
VERTEX
  8
0
  5
2324
 10
372.683
 20
6.08982
 30
-1.33370e-15
  70
    32
  0
VERTEX
  8
0
  5
2325
 10
372.683
 20
6.08602
 30
-1.33180e-15
  70
    32
  0
VERTEX
  8
0
  5
2326
 10
372.684
 20
6.08229
 30
-1.32996e-15
  70
    32
  0
VERTEX
  8
0
  5
2327
 10
372.684
 20
6.07864
 30
-1.32820e-15
  70
    32
  0
VERTEX
  8
0
  5
2328
 10
372.684
 20
6.07506
 30
-1.32651e-15
  70
    32
  0
VERTEX
  8
0
  5
2329
 10
372.685
 20
6.07155
 30
-1.32489e-15
  70
    32
  0
VERTEX
  8
0
  5
232A
 10
372.685
 20
6.06812
 30
-1.32333e-15
  70
    32
  0
VERTEX
  8
0
  5
232B
 10
372.686
 20
6.06476
 30
-1.32184e-15
  70
    32
  0
VERTEX
  8
0
  5
232C
 10
372.686
 20
6.06146
 30
-1.32042e-15
  70
    32
  0
VERTEX
  8
0
  5
232D
 10
372.686
 20
6.05825
 30
-1.31906e-15
  70
    32
  0
VERTEX
  8
0
  5
232E
 10
372.687
 20
6.05510
 30
-1.31776e-15
  70
    32
  0
VERTEX
  8
0
  5
232F
 10
372.687
 20
6.05203
 30
-1.31652e-15
  70
    32
  0
VERTEX
  8
0
  5
2330
 10
372.688
 20
6.04903
 30
-1.31534e-15
  70
    32
  0
VERTEX
  8
0
  5
2331
 10
372.688
 20
6.04610
 30
-1.31422e-15
  70
    32
  0
VERTEX
  8
0
  5
2332
 10
372.688
 20
6.04324
 30
-1.31315e-15
  70
    32
  0
VERTEX
  8
0
  5
2333
 10
372.689
 20
6.04046
 30
-1.31214e-15
  70
    32
  0
VERTEX
  8
0
  5
2334
 10
372.689
 20
6.03775
 30
-1.31118e-15
  70
    32
  0
VERTEX
  8
0
  5
2335
 10
372.689
 20
6.03511
 30
-1.31028e-15
  70
    32
  0
VERTEX
  8
0
  5
2336
 10
372.690
 20
6.03255
 30
-1.30942e-15
  70
    32
  0
VERTEX
  8
0
  5
2337
 10
372.690
 20
6.03006
 30
-1.30861e-15
  70
    32
  0
VERTEX
  8
0
  5
2338
 10
372.690
 20
6.02764
 30
-1.30785e-15
  70
    32
  0
VERTEX
  8
0
  5
2339
 10
372.690
 20
6.02530
 30
-1.30714e-15
  70
    32
  0
VERTEX
  8
0
  5
233A
 10
372.691
 20
6.02303
 30
-1.30647e-15
  70
    32
  0
VERTEX
  8
0
  5
233B
 10
372.691
 20
6.02083
 30
-1.30585e-15
  70
    32
  0
VERTEX
  8
0
  5
233C
 10
372.691
 20
6.01871
 30
-1.30526e-15
  70
    32
  0
VERTEX
  8
0
  5
233D
 10
372.691
 20
6.01666
 30
-1.30472e-15
  70
    32
  0
VERTEX
  8
0
  5
233E
 10
372.692
 20
6.01468
 30
-1.30421e-15
  70
    32
  0
VERTEX
  8
0
  5
233F
 10
372.692
 20
6.01278
 30
-1.30375e-15
  70
    32
  0
VERTEX
  8
0
  5
2340
 10
372.692
 20
6.01095
 30
-1.30331e-15
  70
    32
  0
VERTEX
  8
0
  5
2341
 10
372.692
 20
6.00920
 30
-1.30292e-15
  70
    32
  0
VERTEX
  8
0
  5
2342
 10
372.693
 20
6.00751
 30
-1.30255e-15
  70
    32
  0
VERTEX
  8
0
  5
2343
 10
372.693
 20
6.00591
 30
-1.30222e-15
  70
    32
  0
VERTEX
  8
0
  5
2344
 10
372.693
 20
6.00437
 30
-1.30192e-15
  70
    32
  0
VERTEX
  8
0
  5
2345
 10
372.693
 20
6.00292
 30
-1.30164e-15
  70
    32
  0
VERTEX
  8
0
  5
2346
 10
372.693
 20
6.00153
 30
-1.30140e-15
  70
    32
  0
VERTEX
  8
0
  5
2347
 10
372.693
 20
6.00022
 30
-1.30118e-15
  70
    32
  0
VERTEX
  8
0
  5
2348
 10
372.694
 20
5.99898
 30
-1.30098e-15
  70
    32
  0
VERTEX
  8
0
  5
2349
 10
372.694
 20
5.99782
 30
-1.30081e-15
  70
    32
  0
VERTEX
  8
0
  5
234A
 10
372.694
 20
5.99673
 30
-1.30066e-15
  70
    32
  0
VERTEX
  8
0
  5
234B
 10
372.694
 20
5.99572
 30
-1.30053e-15
  70
    32
  0
VERTEX
  8
0
  5
234C
 10
372.694
 20
5.99478
 30
-1.30041e-15
  70
    32
  0
VERTEX
  8
0
  5
234D
 10
372.694
 20
5.99392
 30
-1.30032e-15
  70
    32
  0
VERTEX
  8
0
  5
234E
 10
372.694
 20
5.99313
 30
-1.30024e-15
  70
    32
  0
VERTEX
  8
0
  5
234F
 10
372.694
 20
5.99242
 30
-1.30017e-15
  70
    32
  0
VERTEX
  8
0
  5
2350
 10
372.694
 20
5.99178
 30
-1.30012e-15
  70
    32
  0
VERTEX
  8
0
  5
2351
 10
372.694
 20
5.99121
 30
-1.30008e-15
  70
    32
  0
VERTEX
  8
0
  5
2352
 10
372.695
 20
5.99072
 30
-1.30005e-15
  70
    32
  0
VERTEX
  8
0
  5
2353
 10
372.695
 20
5.99031
 30
-1.30003e-15
  70
    32
  0
VERTEX
  8
0
  5
2354
 10
372.695
 20
5.98997
 30
-1.30002e-15
  70
    32
  0
VERTEX
  8
0
  5
2355
 10
372.695
 20
5.98971
 30
-1.30001e-15
  70
    32
  0
VERTEX
  8
0
  5
2356
 10
372.695
 20
5.98952
 30
-1.30000e-15
  70
    32
  0
VERTEX
  8
0
  5
2357
 10
372.695
 20
5.98941
 30
-1.30000e-15
  70
    32
  0
VERTEX
  8
0
  5
2358
 10
372.695
 20
5.98937
 30
-1.30000e-15
  70
    32
  0
SEQEND
  8
0
  5
2359
  0
ARC
  5
17E8
  8
0
  6
VERDECKT
 62
     1
 10
-372.1983395871317271
 20
13.0707142142712307
 30
0.0
 40
0.4999999999998295
210
0.0
220
-0.0000000000000002
230
-1.0
 50
180.0000000000073044
 51
186.9015733882995107
  0
ARC
  5
17E9
  8
0
  6
VERDECKT
 62
     1
 10
-372.198339587131386
 20
13.0707142142712502
 30
0.0
 40
0.50000000000017
210
0.0
220
-0.0000000000000002
230
-1.0
 50
186.9015733882964128
 51
225.5729959991832061
  0
ARC
  5
17EA
  8
0
  6
VERDECKT
 62
     1
 10
372.1983395871317839
 20
5.9292857857282577
 30
-0.0000000000000013
 40
0.4999999999997727
 50
0.0
 51
6.9015733882928219
  0
ARC
  5
17EB
  8
0
  6
VERDECKT
 62
     1
 10
372.198339587131386
 20
5.9292857857282373
 30
-0.0000000000000013
 40
0.5000000000001704
 50
6.9015733882968
 51
45.5729959991836111
  0
LINE
  5
17EC
  8
0
  6
VERDECKT
 62
     1
 10
372.6983395871314997
 20
24.4057801536556305
 30
-0.0000000000000054
 11
372.6983395871314997
 21
13.0707142142711703
 31
-0.0000000000000029
210
0.0
220
1.0
230
-0.0000000000000002
  0
LINE
  5
17ED
  8
0
  6
VERDECKT
 62
     1
 10
372.6983395871314997
 20
5.9292857857283181
 30
-0.0000000000000013
 11
372.6983395871314997
 21
-52.49999999999973
 31
0.0000000000000117
210
0.0
220
1.0
230
-0.0000000000000002
  0
LINE
  5
17EE
  8
0
  6
VERDECKT
 62
     1
 10
319.6983395871316134
 20
24.4057801536556305
 30
-0.0000000000000054
 11
319.6983395871316134
 21
-52.49999999999973
 31
0.0000000000000117
210
0.0
220
1.0
230
-0.0000000000000002
  0
ARC
  5
17EF
  8
0
  6
VERDECKT
 62
     1
 10
-375.6983395871316134
 20
9.4999999999997424
 30
0.0
 40
4.4999999999999956
210
0.0
220
-0.0000000000000002
230
-1.0
 50
314.4270040008054252
 51
45.5729959991946814
  0
LINE
  5
17F0
  8
0
  6
VERDECKT
 62
     1
 10
317.6945291646181886
 20
51.3024998081911434
 30
-0.0000000000000114
 11
314.9438940941993224
 21
52.4999999999997584
 31
-0.0000000000000117
210
0.0
220
1.0
230
-0.0000000000000002
  0
LINE
  5
17F1
  8
0
  6
VERDECKT
 62
     1
 10
374.7021500096449245
 20
51.3024998081911434
 30
-0.0000000000000114
 11
377.4527850800637907
 21
52.4999999999997584
 31
-0.0000000000000117
210
0.0
220
1.0
230
-0.0000000000000002
  0
ARC
  5
17F2
  8
0
  6
VERDECKT
 62
     1
 10
-308.1983395871322955
 20
24.405780153655801
 30
0.0
 40
11.4999999999992006
210
0.0
220
-0.0000000000000002
230
-1.0
 50
154.1579588831247065
 51
180.0000000000007958
  0
ARC
  5
17F3
  8
0
  6
VERDECKT
 62
     1
 10
-384.1983395871308176
 20
24.4057801536557903
 30
0.0
 40
11.4999999999992006
210
0.0
220
-0.0000000000000002
230
-1.0
 50
359.9999999999992042
 51
25.842041116875329
  0
ARC
  5
17F4
  8
0
  6
VERDECKT
 62
     1
 10
-339.6983395870585127
 20
39.6619999999835215
 30
0.0
 40
23.5000320570551402
210
0.0
220
-0.0000000000000002
230
-1.0
 50
334.157958883125616
 51
359.9053619552186092
  0
ARC
  5
17F5
  8
0
  6
VERDECKT
 62
     1
 10
-352.6983395872046003
 20
39.6619999999835429
 30
0.0
 40
23.5000320570551509
210
0.0
220
-0.0000000000000002
230
-1.0
 50
180.0946380447813908
 51
205.8420411168744124
  0
LINE
  5
17F6
  8
0
  6
VERDECKT
 62
     1
 10
316.1983395871314997
 20
39.6231839459249926
 30
-0.0000000000000088
 11
316.1909161163742965
 21
44.1174986573395316
 31
-0.0000000000000098
210
0.0
220
1.0
230
-0.0000000000000002
  0
LINE
  5
17F7
  8
0
  6
VERDECKT
 62
     1
 10
376.1983395871316134
 20
39.6231839459249926
 30
-0.0000000000000088
 11
376.2057630578888165
 21
44.1174986573395316
 31
-0.0000000000000098
210
0.0
220
1.0
230
-0.0000000000000002
  0
ARC
  5
17F8
  8
0
  6
VERDECKT
 62
     1
 10
-333.9691327326351029
 20
44.1468637729669666
 30
0.0
 40
17.7782408681147501
210
0.0
220
-0.0000000000000002
230
-1.0
 50
359.905361955218325
 51
23.73418598481096
  0
ARC
  5
17F9
  8
0
  6
VERDECKT
 62
     1
 10
-358.4275464416281238
 20
44.1468637729669666
 30
0.0
 40
17.7782408681147501
210
0.0
220
-0.0000000000000002
230
-1.0
 50
156.2658140151889938
 51
180.0946380447815045
  0
ENDBLK
  5
17FB
  8
0
  0
ENDSEC
  0
SECTION
  2
ENTITIES
  0
TEXT
  5
8F
  8
VOLL
 10
78.076754716981128
 20
31.025947764705851
 30
0.0
 40
1.8
  1

  7
GREEKS
  0
INSERT
  5
F90
  8
ADSK_ASSOC_ENTITY_BACKUPS
  2
*S2
 10
0.0
 20
0.0
 30
0.0
  0
INSERT
  5
1786
  8
0
  2
A$CE266D97F
 10
396.6383312357501154
 20
168.5824581501603916
 30
0.0
  0
INSERT
  5
17FC
  8
0
  2
A$C13C6118F
 10
396.6383312357501154
 20
453.9915253608435819
 30
0.0000000000000426
  0
VIEWPORT
  5
F70
 67
     1
  8
0
 10
150.8642706847396937
 20
193.4026346063928088
 30
0.0
 40
1311.2348289519809441
 41
734.5018627418180586
 68
     1
 69
     1
1001
ACAD
1000
MVIEW
1002
{
1070
    16
1010
0.0
1020
0.0
1030
0.0
1010
0.0
1020
0.0
1030
1.0
1040
0.0
1040
734.5018627418180586
1040
150.8642706847396937
1040
193.4026346063928088
1040
50.0
1040
0.0
1040
0.0
1070
     0
1070
  1500
1070
     1
1070
     1
1070
     0
1070
     0
1070
     0
1070
     0
1040
0.0
1040
0.0
1040
0.0
1040
10.0
1040
10.0
1040
10.0
1040
10.0
1070
     0
1002
{
1002
}
1002
}
  0
ENDSEC
  0
EOF
