  0
SECTION
  2
HEADER
  9
$ACADVER
  1
AC1009
  9
$INSBASE
 10
0.0
 20
0.0
 30
0.0
  9
$EXTMIN
 10
736.1641327171319062
 20
190.1455326508095993
 30
-148.3594275912028024
  9
$EXTMAX
 10
905.8042861755510557
 20
634.4944397744187654
 30
-148.337777830687287
  9
$LIMMIN
 10
0.0
 20
0.0
  9
$LIMMAX
 10
524.9999999999998863
 20
742.4999999999998863
  9
$ORTHOMODE
 70
     1
  9
$REGENMODE
 70
     1
  9
$FILLMODE
 70
     1
  9
$QTEXTMODE
 70
     0
  9
$MIRRTEXT
 70
     1
  9
$DRAGMODE
 70
     2
  9
$LTSCALE
 40
20.0
  9
$OSMODE
 70
  1327
  9
$ATTMODE
 70
     1
  9
$TEXTSIZE
 40
3.5
  9
$TRACEWID
 40
0.5
  9
$TEXTSTYLE
  7
STANDARD
  9
$CLAYER
  8
0
  9
$CELTYPE
  6
BYLAYER
  9
$CECOLOR
 62
   256
  9
$DIMSCALE
 40
2.0
  9
$DIMASZ
 40
3.5
  9
$DIMEXO
 40
1.0
  9
$DIMDLI
 40
7.0
  9
$DIMRND
 40
0.0
  9
$DIMDLE
 40
0.0
  9
$DIMEXE
 40
1.0
  9
$DIMTP
 40
0.0
  9
$DIMTM
 40
0.0
  9
$DIMTXT
 40
3.5
  9
$DIMCEN
 40
1.5
  9
$DIMTSZ
 40
0.0
  9
$DIMTOL
 70
     0
  9
$DIMLIM
 70
     0
  9
$DIMTIH
 70
     0
  9
$DIMTOH
 70
     0
  9
$DIMSE1
 70
     0
  9
$DIMSE2
 70
     0
  9
$DIMTAD
 70
     1
  9
$DIMZIN
 70
     8
  9
$DIMBLK
  1

  9
$DIMASO
 70
     1
  9
$DIMSHO
 70
     0
  9
$DIMPOST
  1

  9
$DIMAPOST
  1

  9
$DIMALT
 70
     0
  9
$DIMALTD
 70
     2
  9
$DIMALTF
 40
25.3999999999999986
  9
$DIMLFAC
 40
1.0
  9
$DIMTOFL
 70
     1
  9
$DIMTVP
 40
0.0
  9
$DIMTIX
 70
     0
  9
$DIMSOXD
 70
     0
  9
$DIMSAH
 70
     0
  9
$DIMBLK1
  1

  9
$DIMBLK2
  1

  9
$DIMSTYLE
  2
STANDARD
  9
$DIMCLRD
 70
     0
  9
$DIMCLRE
 70
     0
  9
$DIMCLRT
 70
     1
  9
$DIMTFAC
 40
0.5142857142857143
  9
$DIMGAP
 40
1.5
  9
$LUNITS
 70
     2
  9
$LUPREC
 70
     2
  9
$SKETCHINC
 40
1.0
  9
$FILLETRAD
 40
0.0
  9
$AUNITS
 70
     0
  9
$AUPREC
 70
     0
  9
$MENU
  1
ACAD
  9
$ELEVATION
 40
0.0
  9
$PELEVATION
 40
0.0
  9
$THICKNESS
 40
0.0
  9
$LIMCHECK
 70
     0
  9
$BLIPMODE
 70
     0
  9
$CHAMFERA
 40
0.0
  9
$CHAMFERB
 40
0.0
  9
$SKPOLY
 70
     0
  9
$TDCREATE
 40
2455397.8646990740671754
  9
$TDUPDATE
 40
2458425.5318865738809109
  9
$TDINDWG
 40
0.5209779167
  9
$TDUSRTIMER
 40
0.5209779167
  9
$USRTIMER
 70
     1
  9
$ANGBASE
 50
0.0
  9
$ANGDIR
 70
     0
  9
$PDMODE
 70
     0
  9
$PDSIZE
 40
0.0
  9
$PLINEWID
 40
0.0
  9
$COORDS
 70
     1
  9
$SPLFRAME
 70
     0
  9
$SPLINETYPE
 70
     6
  9
$SPLINESEGS
 70
     8
  9
$ATTDIA
 70
     0
  9
$ATTREQ
 70
     0
  9
$HANDLING
 70
     1
  9
$HANDSEED
  5
6D08
  9
$SURFTAB1
 70
     6
  9
$SURFTAB2
 70
     6
  9
$SURFTYPE
 70
     6
  9
$SURFU
 70
     6
  9
$SURFV
 70
     6
  9
$UCSNAME
  2

  9
$UCSORG
 10
0.0
 20
0.0
 30
0.0
  9
$UCSXDIR
 10
1.0
 20
0.0
 30
0.0
  9
$UCSYDIR
 10
0.0
 20
1.0
 30
0.0
  9
$PUCSNAME
  2

  9
$PUCSORG
 10
0.0
 20
0.0
 30
0.0
  9
$PUCSXDIR
 10
1.0
 20
0.0
 30
0.0
  9
$PUCSYDIR
 10
0.0
 20
1.0
 30
0.0
  9
$USERI1
 70
     0
  9
$USERI2
 70
     0
  9
$USERI3
 70
     0
  9
$USERI4
 70
     0
  9
$USERI5
 70
     0
  9
$USERR1
 40
0.0
  9
$USERR2
 40
0.0
  9
$USERR3
 40
0.0
  9
$USERR4
 40
0.0
  9
$USERR5
 40
0.0
  9
$WORLDVIEW
 70
     1
  9
$SHADEDGE
 70
     3
  9
$SHADEDIF
 70
    70
  9
$TILEMODE
 70
     1
  9
$MAXACTVP
 70
    16
  9
$PLIMCHECK
 70
     0
  9
$PEXTMIN
 10
-168.7020037650783024
 20
-155.570691383877687
 30
0.0
  9
$PEXTMAX
 10
251.2979962349218113
 20
438.4293086161226256
 30
0.0
  9
$PLIMMIN
 10
-168.7020037650781887
 20
-155.5706913838776018
  9
$PLIMMAX
 10
251.2979962349218113
 20
438.4293086161223982
  9
$UNITMODE
 70
     0
  9
$VISRETAIN
 70
     0
  9
$PLINEGEN
 70
     0
  9
$PSLTSCALE
 70
     0
  0
ENDSEC
  0
SECTION
  2
TABLES
  0
TABLE
  2
VPORT
 70
     1
  0
VPORT
  2
*ACTIVE
 70
     0
 10
0.0
 20
0.0
 11
1.0
 21
1.0
 12
2.0449507193217751
 22
-102.6905499812335023
 13
0.0
 23
0.0
 14
1.0
 24
1.0
 15
10.0
 25
10.0
 16
-0.0000000000002274
 26
0.0
 36
1010.5671309510180436
 17
818.9392587270195918
 27
515.0105361938477699
 37
-18.6723576050250699
 40
447.6940682813780086
 41
1.868090452261306
 42
50.0
 43
0.0
 44
0.0
 50
0.0
 51
0.0
 71
     0
 72
  1500
 73
     1
 74
     0
 75
     0
 76
     0
 77
     0
 78
     0
  0
ENDTAB
  0
TABLE
  2
LTYPE
 70
     6
  0
LTYPE
  2
CONTINUOUS
 70
     0
  3
Solid line
 72
    65
 73
     0
 40
0.0
  0
LTYPE
  2
PHANTOM2
 70
     0
  3
Phantom (.5x) ___ _ _ ___ _ _ ___ _ _ ___ _ _
 72
    65
 73
     6
 40
1.25
 49
0.625
 49
-0.125
 49
0.125
 49
-0.125
 49
0.125
 49
-0.125
  0
LTYPE
  2
VERDECKT
 70
     0
  3
Verdeckt __ __ __ __ __ __ __ __ __ __ __ __ __
 72
    65
 73
     2
 40
0.375
 49
0.25
 49
-0.125
  0
ENDTAB
  0
TABLE
  2
LAYER
 70
    14
  0
LAYER
  2
0
 70
     0
 62
     7
  6
CONTINUOUS
  0
LAYER
  2
VOLL
 70
     0
 62
     1
  6
CONTINUOUS
  0
LAYER
  2
DEFPOINTS
 70
     0
 62
     7
  6
CONTINUOUS
  0
LAYER
  2
ADSK_ASSOC_ENTITY_BACKUPS
 70
     1
 62
    -7
  6
CONTINUOUS
  0
ENDTAB
  0
TABLE
  2
STYLE
 70
     3
  0
STYLE
  2
STANDARD
 70
     0
 40
0.0
 41
0.8
 50
0.0
 71
     0
 42
3.5
  3
simplex.shx
  4

  0
STYLE
  2
GREEKS
 70
     0
 40
0.0
 41
0.8
 50
0.0
 71
     0
 42
2.5
  3
SIMPLEX.shx
  4

  0
ENDTAB
  0
TABLE
  2
VIEW
 70
     1
  0
ENDTAB
  0
TABLE
  2
UCS
 70
     0
  0
ENDTAB
  0
TABLE
  2
APPID
 70
    23
  0
APPID
  2
ACAD
 70
     0
  0
APPID
  2
ACAD_EXEMPT_FROM_CAD_STANDARDS
 70
     0
  0
APPID
  2
ACAD_NAV_VCDISPLAY
 70
     0
  0
APPID
  2
ACAD_DSTYLE_DIMRADIAL_EXTENSION
 70
     0
  0
APPID
  2
ACADANNOMONITORALERTICONDI
 70
     0
  0
APPID
  2
GRADIENTCOLOR1ACI
 70
     0
  0
APPID
  2
GRADIENTCOLOR2ACI
 70
     0
  0
APPID
  2
ACAECLAYERSTANDARD
 70
     0
  0
APPID
  2
ACCMTRANSPARENCY
 70
     0
  0
APPID
  2
ACAD_DSTYLE_DIMJAG
 70
     0
  0
APPID
  2
ACAD_DSTYLE_DIMTALN
 70
     0
  0
APPID
  2
ACAD_PSEXT
 70
     0
  0
APPID
  2
ACAD_MLEADERVER
 70
     0
  0
APPID
  2
ACAD_OBJECT_CHANGE_GUID
 70
     0
  0
APPID
  2
ACSYNERGY
 70
     0
  0
APPID
  2
SYNERGY_BODY_TBR_ID
 70
     0
  0
APPID
  2
ACAD_VIEW_EDGE_ID
 70
     0
  0
APPID
  2
ACAD_STEPID
 70
     0
  0
APPID
  2
ACAD_DIMASSOC_CALC_DIMLFAC
 70
     0
  0
APPID
  2
ACAD_DIMASSOC_DIMLFAC
 70
     0
  0
APPID
  2
ACAD_DIMASSOC_OVERRIDDEN_D
 70
     0
  0
APPID
  2
ACSYNERGYSKETCH
 70
     0
  0
APPID
  2
ACAD_MODELDOC_XFORM
 70
     0
  0
ENDTAB
  0
TABLE
  2
DIMSTYLE
 70
     1
  0
DIMSTYLE
  2
STANDARD
 70
     0
  3

  4

  5

  6

  7

 40
1.0
 41
0.18
 42
0.0625
 43
0.38
 44
0.18
 45
0.0
 46
0.0
 47
0.0
 48
0.0
140
0.18
141
0.09
142
0.0
143
25.3999999999999986
144
1.0
145
0.0
146
1.0
147
0.09
 71
     0
 72
     0
 73
     1
 74
     1
 75
     0
 76
     0
 77
     0
 78
     0
170
     0
171
     2
172
     0
173
     0
174
     0
175
     0
176
     0
177
     0
178
     0
  0
ENDTAB
  0
ENDSEC
  0
SECTION
  2
BLOCKS
  0
BLOCK
  8
0
  2
$MODEL_SPACE
 70
     0
 10
0.0
 20
0.0
 30
0.0
  3
$MODEL_SPACE
  1

  0
ENDBLK
  5
36
  8
0
  0
BLOCK
 67
     1
  8
0
  2
$PAPER_SPACE
 70
     0
 10
0.0
 20
0.0
 30
0.0
  3
$PAPER_SPACE
  1

  0
ENDBLK
  5
34
 67
     1
  8
0
  0
BLOCK
  8
0
  2
*S0
 70
     1
 10
0.0
 20
0.0
 30
0.0
  3
*S0
  1

  0
ENDBLK
  5
61A4
  8
0
  0
BLOCK
  8
0
  2
A$C209474E9
 70
     0
 10
0.0
 20
0.0
 30
0.0
  3
A$C209474E9
  1

  0
LINE
  5
6C26
  8
0
  6
CONTINUOUS
 62
     3
 10
952.3074029113762435
 20
64.4022178862101669
 30
-0.0000000000000246
 11
793.3074029113762435
 21
64.4022178862102237
 31
0.0000000000000194
210
0.0000000000000003
220
1.0
230
-0.0000000000000002
  0
LINE
  5
6C27
  8
0
  6
CONTINUOUS
 62
     3
 10
952.3074029113762435
 20
60.4022178862101811
 30
-0.0000000000000237
 11
793.3074029113762435
 21
60.4022178862102095
 31
0.0000000000000202
210
0.0000000000000003
220
1.0
230
-0.0000000000000002
  0
LINE
  5
6C28
  8
0
  6
CONTINUOUS
 62
     3
 10
793.3074029113762435
 20
60.4022178862102095
 30
0.0000000000000202
 11
793.3074029113762435
 21
64.4022178862102237
 31
0.0000000000000194
210
0.0000000000000003
220
1.0
230
-0.0000000000000002
  0
LINE
  5
6C29
  8
0
  6
CONTINUOUS
 62
     3
 10
952.3074029113762435
 20
60.4022178862101811
 30
-0.0000000000000237
 11
952.3074029113762435
 21
64.4022178862101669
 31
-0.0000000000000246
210
0.0000000000000003
220
1.0
230
-0.0000000000000002
  0
LINE
  5
6C2A
  8
0
  6
CONTINUOUS
 62
     3
 10
793.3074029113761299
 20
60.4022178862105292
 30
0.0000000000000202
 11
952.3074029113762435
 21
60.4022178862100318
 31
-0.0000000000000237
210
0.0000000000000003
220
1.0
230
-0.0000000000000002
  0
LINE
  5
6C2B
  8
0
  6
CONTINUOUS
 62
     3
 10
794.1822895466355021
 20
-62.5977821137897834
 30
0.0000000000000473
 11
951.4325162761165302
 21
-62.5977821137900392
 31
0.0000000000000039
210
0.0000000000000003
220
1.0
230
-0.0000000000000002
  0
LINE
  5
6C2C
  8
0
  6
CONTINUOUS
 62
     3
 10
952.3074029113762435
 20
60.4022178862100532
 30
-0.0000000000000237
 11
952.3074029113759025
 21
-52.5977821137897905
 31
0.0000000000000014
210
0.0000000000000003
220
1.0
230
-0.0000000000000002
  0
LINE
  5
6C2D
  8
0
  6
CONTINUOUS
 62
     3
 10
793.3074029113760162
 20
60.4022178862103587
 30
0.0000000000000202
 11
793.3074029113757888
 21
-52.5977821137894281
 31
0.0000000000000453
210
0.0000000000000003
220
1.0
230
-0.0000000000000002
  0
LINE
  5
6C2E
  8
0
  6
CONTINUOUS
 62
     3
 10
794.1822895466352747
 20
-62.5977821137896626
 30
0.0000000000000473
 11
793.3074029113757888
 21
-52.5977821137894281
 31
0.0000000000000451
210
0.0000000000000003
220
1.0
230
-0.0000000000000002
  0
LINE
  5
6C2F
  8
0
  6
CONTINUOUS
 62
     3
 10
951.4325162761165302
 20
-62.5977821137900179
 30
0.0000000000000039
 11
952.3074029113761299
 21
-52.5977821137897905
 31
0.0000000000000017
210
0.0000000000000003
220
1.0
230
-0.0000000000000002
  0
LINE
  5
6C30
  8
0
  6
CONTINUOUS
 62
     3
 10
788.6006470734510003
 20
159.4022178862103942
 30
-0.0000000000000004
 11
900.0141587493009183
 21
159.402217886210309
 31
-0.0000000000000312
210
0.0000000000000003
220
1.0
230
-0.0000000000000002
  0
LINE
  5
6C31
  8
0
  6
CONTINUOUS
 62
     3
 10
900.0141587493009183
 20
159.4022178862103942
 30
-0.0000000000000312
 11
900.9650975872923482
 21
157.3629229671564076
 31
-0.0000000000000308
210
0.0000000000000003
220
1.0
230
-0.0000000000000002
  0
LINE
  5
6C32
  8
0
  6
CONTINUOUS
 62
     3
 10
788.6006470734510003
 20
159.4022178862103942
 30
-0.0000000000000004
 11
787.6497082354594568
 21
157.3629229671564076
 31
0.0
210
0.0000000000000003
220
1.0
230
-0.0000000000000002
  0
ARC
  5
6C33
  8
0
  6
CONTINUOUS
 62
     3
 10
-810.3074029113759025
 20
146.7974664236392925
 30
-0.000000000000029
 40
24.9999999999998899
210
0.0
220
-0.0000000000000002
230
-1.0
 50
359.9999999999996021
 51
24.9999999999987885
  0
ARC
  5
6C34
  8
0
  6
CONTINUOUS
 62
     3
 10
-878.3074029113762435
 20
146.7974664236392925
 30
-0.0000000000000102
 40
24.9999999999996589
210
0.0
220
-0.0000000000000002
230
-1.0
 50
155.0000000000007105
 51
180.0000000000003979
  0
LINE
  5
6C35
  8
0
  6
CONTINUOUS
 62
     3
 10
903.3074029113761299
 20
146.7974664236392073
 30
-0.0000000000000293
 11
903.3074029113761299
 21
128.6354184168918948
 31
-0.0000000000000253
210
0.0000000000000003
220
1.0
230
-0.0000000000000002
  0
LINE
  5
6C36
  8
0
  6
CONTINUOUS
 62
     3
 10
785.3074029113760162
 20
146.7974664236392073
 30
0.0000000000000033
 11
785.3074029113760162
 21
128.6354184168918948
 31
0.0000000000000073
210
0.0000000000000003
220
1.0
230
-0.0000000000000002
  0
ARC
  5
6C37
  8
0
  6
CONTINUOUS
 62
     3
 10
-810.3074029113779488
 20
128.6354184168922927
 30
-0.000000000000029
 40
25.0000000000019185
210
0.0
220
-0.0000000000000002
230
-1.0
 50
333.1119523822762858
 51
359.9999999999992042
  0
ARC
  5
6C38
  8
0
  6
CONTINUOUS
 62
     3
 10
-878.3074029113743109
 20
128.6354184168922927
 30
-0.0000000000000102
 40
25.0000000000017017
210
0.0
220
-0.0000000000000002
230
-1.0
 50
180.0000000000007958
 51
206.8880476177236858
  0
ARC
  5
6C39
  8
0
  6
CONTINUOUS
 62
     3
 10
-777.3074029113781762
 20
111.9022178862109058
 30
-0.0000000000000381
 40
11.9999999999977298
210
0.0
220
-0.0000000000000002
230
-1.0
 50
153.1119523822744952
 51
180.0000000000023874
  0
ARC
  5
6C3A
  8
0
  6
CONTINUOUS
 62
     3
 10
-911.3074029113738561
 20
111.9022178862109058
 30
-0.0000000000000011
 40
11.9999999999979501
210
0.0
220
-0.0000000000000002
230
-1.0
 50
359.9999999999976126
 51
26.8880476177251602
  0
LINE
  5
6C3B
  8
0
  6
CONTINUOUS
 62
     3
 10
899.3074029113762435
 20
111.9022178862102948
 30
-0.0000000000000205
 11
899.3074029113762435
 21
96.3297067631577733
 31
-0.000000000000017
210
0.0000000000000003
220
1.0
230
-0.0000000000000002
  0
LINE
  5
6C3C
  8
0
  6
CONTINUOUS
 62
     3
 10
789.3074029113757888
 20
111.9022178862102948
 30
0.0000000000000099
 11
789.3074029113757888
 21
96.3297067631578159
 31
0.0000000000000134
210
0.0000000000000003
220
1.0
230
-0.0000000000000002
  0
ARC
  5
6C3D
  8
0
  6
CONTINUOUS
 62
     3
 10
-804.307402911377153
 20
96.3297067631581854
 30
-0.0000000000000306
 40
15.0000000000012506
210
0.0
220
-0.0000000000000002
230
-1.0
 50
325.6988472432092863
 51
359.9999999999988063
  0
ARC
  5
6C3E
  8
0
  6
CONTINUOUS
 62
     3
 10
-884.3074029113748793
 20
96.3297067631581854
 30
-0.0000000000000085
 40
15.0000000000012506
210
0.0
220
-0.0000000000000002
230
-1.0
 50
180.0000000000015916
 51
214.3011527567904011
  0
ARC
  5
6C3F
  8
0
  6
CONTINUOUS
 62
     3
 10
-785.3074029113740835
 20
83.3682253663414627
 30
-0.0000000000000359
 40
8.0000000000018172
210
0.0
220
-0.0000000000000002
230
-1.0
 50
145.6988472432136916
 51
179.9999999999951115
  0
ARC
  5
6C40
  8
0
  6
CONTINUOUS
 62
     3
 10
-903.3074029113770393
 20
83.3682253663416191
 30
-0.0000000000000033
 40
8.0000000000007958
210
0.0
220
-0.0000000000000002
230
-1.0
 50
0.0
 51
34.3011527567868768
  0
LINE
  5
6C41
  8
0
  6
CONTINUOUS
 62
     3
 10
895.3074029113761299
 20
83.3682253663421449
 30
-0.000000000000013
 11
895.3074029113761299
 21
64.4022178862103374
 31
-0.0000000000000088
210
0.0000000000000003
220
1.0
230
-0.0000000000000002
  0
LINE
  5
6C42
  8
0
  6
CONTINUOUS
 62
     3
 10
793.3074029113757888
 20
83.3682253663421449
 30
0.0000000000000151
 11
793.3074029113757888
 21
64.4022178862103658
 31
0.0000000000000194
210
0.0000000000000003
220
1.0
230
-0.0000000000000002
  0
LINE
  5
6C43
  8
0
  6
VERDECKT
 62
     1
 10
838.1791215666466996
 20
60.4022178862102379
 30
0.0000000000000078
 11
838.1791215666466996
 21
64.4022178862102237
 31
0.000000000000007
210
0.0000000000000003
220
1.0
230
-0.0000000000000002
  0
LINE
  5
6C44
  8
0
  6
VERDECKT
 62
     1
 10
850.1791215666468133
 20
60.4022178862102308
 30
0.0000000000000045
 11
850.1791215666468133
 21
64.4022178862102237
 31
0.0000000000000036
210
0.0000000000000003
220
1.0
230
-0.0000000000000002
  0
LINE
  5
6C45
  8
0
  6
VERDECKT
 62
     1
 10
864.3688082294963806
 20
60.4022178862102308
 30
0.0000000000000006
 11
864.3688082294963806
 21
64.4022178862102237
 31
-0.0000000000000003
210
0.0000000000000003
220
1.0
230
-0.0000000000000002
  0
LINE
  5
6C46
  8
0
  6
VERDECKT
 62
     1
 10
882.3688082294963806
 20
60.4022178862102166
 30
-0.0000000000000044
 11
882.3688082294963806
 21
64.4022178862102237
 31
-0.0000000000000052
210
0.0000000000000003
220
1.0
230
-0.0000000000000002
  0
LINE
  5
6C47
  8
0
  6
VERDECKT
 62
     1
 10
885.166413634331434
 20
60.4022178862102095
 30
-0.0000000000000051
 11
885.166413634331434
 21
64.4022178862102095
 31
-0.000000000000006
210
0.0000000000000003
220
1.0
230
-0.0000000000000002
  0
LINE
  5
6C48
  8
0
  6
VERDECKT
 62
     1
 10
913.3126238284307874
 20
60.4022178862102095
 30
-0.0000000000000129
 11
913.3126238284307874
 21
64.4022178862102095
 31
-0.0000000000000138
210
0.0000000000000003
220
1.0
230
-0.0000000000000002
  0
LINE
  5
6C49
  8
0
  6
VERDECKT
 62
     1
 10
795.3074029113762435
 20
60.4022178862102095
 30
0.0000000000000197
 11
795.3074029113762435
 21
64.4022178862102237
 31
0.0000000000000188
210
0.0000000000000003
220
1.0
230
-0.0000000000000002
  0
LINE
  5
6C4A
  8
0
  6
VERDECKT
 62
     1
 10
893.3074029113762435
 20
60.4022178862101811
 30
-0.0000000000000074
 11
893.3074029113762435
 21
64.4022178862101953
 31
-0.0000000000000083
210
0.0000000000000003
220
1.0
230
-0.0000000000000002
  0
LINE
  5
6C4B
  8
0
  6
VERDECKT
 62
     1
 10
900.3074029113762435
 20
60.4022178862101811
 30
-0.0000000000000093
 11
900.3074029113762435
 21
64.4022178862101953
 31
-0.0000000000000102
210
0.0000000000000003
220
1.0
230
-0.0000000000000002
  0
LINE
  5
6C4C
  8
0
  6
VERDECKT
 62
     1
 10
947.3074029113762435
 20
60.4022178862101811
 30
-0.0000000000000223
 11
947.3074029113762435
 21
64.4022178862101811
 31
-0.0000000000000232
210
0.0000000000000003
220
1.0
230
-0.0000000000000002
  0
LINE
  5
6C4D
  8
0
  6
VERDECKT
 62
     1
 10
896.6220303590112053
 20
60.4022178862101882
 30
-0.0000000000000083
 11
896.6220303590112053
 21
64.4022178862101953
 31
-0.0000000000000092
210
0.0000000000000003
220
1.0
230
-0.0000000000000002
  0
LINE
  5
6C4E
  8
0
  6
VERDECKT
 62
     1
 10
937.8754613635945816
 20
60.4022178862101882
 30
-0.0000000000000197
 11
937.8754613635945816
 21
64.4022178862101953
 31
-0.0000000000000206
210
0.0000000000000003
220
1.0
230
-0.0000000000000002
  0
LINE
  5
6C4F
  8
0
  6
VERDECKT
 62
     1
 10
796.6727762918646931
 20
-62.379892756920519
 30
0.0000000000000466
 11
948.9420295308873392
 21
-62.3798927569207891
 31
0.0000000000000045
210
0.0000000000000003
220
1.0
230
-0.0000000000000002
  0
LINE
  5
6C50
  8
0
  6
VERDECKT
 62
     1
 10
796.6727762918646931
 20
-62.379892756920519
 30
0.0000000000000466
 11
795.8074029113760162
 21
-52.4886297565143423
 31
0.0000000000000444
210
0.0000000000000003
220
1.0
230
-0.0000000000000002
  0
LINE
  5
6C51
  8
0
  6
VERDECKT
 62
     1
 10
948.9420295308873392
 20
-62.3798927569208317
 30
0.0000000000000045
 11
949.8074029113761299
 21
-52.4886297565146407
 31
0.0000000000000023
210
0.0000000000000003
220
1.0
230
-0.0000000000000002
  0
LINE
  5
6C52
  8
0
  6
VERDECKT
 62
     1
 10
949.8074029113762435
 20
60.4022178862100674
 30
-0.000000000000023
 11
949.8074029113761299
 21
-52.4886297565146407
 31
0.0000000000000021
210
0.0000000000000003
220
1.0
230
-0.0000000000000002
  0
LINE
  5
6C53
  8
0
  6
VERDECKT
 62
     1
 10
795.8074029113760162
 20
60.4022178862103587
 30
0.0000000000000196
 11
795.8074029113757888
 21
-52.4886297565143423
 31
0.0000000000000446
210
0.0000000000000003
220
1.0
230
-0.0000000000000002
  0
LINE
  5
6C54
  8
0
  6
VERDECKT
 62
     1
 10
948.9420295308873392
 20
-62.3798927569208814
 30
0.0000000000000045
 11
951.4325162761165302
 21
-62.5977821137900321
 31
0.0000000000000046
210
0.0000000000000003
220
1.0
230
-0.0000000000000002
  0
LINE
  5
6C55
  8
0
  6
VERDECKT
 62
     1
 10
796.6727762918646931
 20
-62.3798927569205475
 30
0.0000000000000466
 11
794.1822895466355021
 21
-62.597782113789691
 31
0.0000000000000466
210
0.0000000000000003
220
1.0
230
-0.0000000000000002
  0
LINE
  5
6C56
  8
0
  6
VERDECKT
 62
     1
 10
893.3074029113759025
 20
83.3682253663421449
 30
-0.0000000000000125
 11
893.3074029113759025
 21
64.4022178862103374
 31
-0.0000000000000083
210
0.0000000000000003
220
1.0
230
-0.0000000000000002
  0
LINE
  5
6C57
  8
0
  6
VERDECKT
 62
     1
 10
795.3074029113760162
 20
83.3682253663421449
 30
0.0000000000000146
 11
795.3074029113760162
 21
64.4022178862103658
 31
0.0000000000000188
210
0.0000000000000003
220
1.0
230
-0.0000000000000002
  0
ARC
  5
6C58
  8
0
  6
VERDECKT
 62
     1
 10
-785.307402911375334
 20
83.3682253663419885
 30
-0.0000000000000359
 40
10.0000000000006803
210
0.0
220
-0.0000000000000002
230
-1.0
 50
145.6988472432080926
 51
179.9999999999992042
  0
ARC
  5
6C59
  8
0
  6
VERDECKT
 62
     1
 10
-903.307402911376812
 20
83.3682253663419601
 30
-0.0000000000000033
 40
10.0000000000007905
210
0.0
220
-0.0000000000000002
230
-1.0
 50
0.0000000000008142
 51
34.3011527567912822
  0
ARC
  5
6C5A
  8
0
  6
VERDECKT
 62
     1
 10
-804.3074029113769257
 20
96.3297067631581427
 30
-0.0000000000000306
 40
13.0000000000009006
210
0.0
220
-0.0000000000000002
230
-1.0
 50
325.698847243210821
 51
359.9999999999992042
  0
ARC
  5
6C5B
  8
0
  6
VERDECKT
 62
     1
 10
-884.3074029113752204
 20
96.3297067631581001
 30
-0.0000000000000085
 40
13.0000000000007905
210
0.0
220
-0.0000000000000002
230
-1.0
 50
180.0000000000007958
 51
214.3011527567892074
  0
LINE
  5
6C5C
  8
0
  6
VERDECKT
 62
     1
 10
897.3074029113760162
 20
111.9020173555286988
 30
-0.0000000000000199
 11
897.3074029113760162
 21
96.3297067631579154
 31
-0.0000000000000165
210
0.0000000000000003
220
1.0
230
-0.0000000000000002
  0
LINE
  5
6C5D
  8
0
  6
VERDECKT
 62
     1
 10
791.3074029113760162
 20
111.9020173555287982
 30
0.0000000000000094
 11
791.3074029113760162
 21
96.3297067631579154
 31
0.0000000000000128
210
0.0000000000000003
220
1.0
230
-0.0000000000000002
  0
ARC
  5
6C5E
  8
0
  6
VERDECKT
 62
     1
 10
-777.3074029113746519
 20
111.9020173555284003
 30
-0.0000000000000381
 40
14.0000000000013607
210
0.0
220
-0.0000000000000002
230
-1.0
 50
153.1119523822758879
 51
179.9999999999984084
  0
ARC
  5
6C5F
  8
0
  6
VERDECKT
 62
     1
 10
-911.3074029113774941
 20
111.9020173555283009
 30
-0.0000000000000011
 40
14.0000000000015898
210
0.0
220
-0.0000000000000002
230
-1.0
 50
0.0000000000016284
 51
26.8880476177237107
  0
ARC
  5
6C60
  8
0
  6
VERDECKT
 62
     1
 10
-810.3074029113755614
 20
128.6352178862103983
 30
-0.000000000000029
 40
22.9999999999996589
210
0.0
220
-0.0000000000000002
230
-1.0
 50
333.1119523822758879
 51
359.9999999999996021
  0
ARC
  5
6C61
  8
0
  6
VERDECKT
 62
     1
 10
-878.3074029113763572
 20
128.6352178862103131
 30
-0.0000000000000102
 40
22.9999999999995417
210
0.0
220
-0.0000000000000002
230
-1.0
 50
180.0000000000003979
 51
206.8880476177241121
  0
LINE
  5
6C62
  8
0
  6
VERDECKT
 62
     1
 10
901.3074029113759025
 20
146.7974664236392073
 30
-0.0000000000000288
 11
901.3074029113759025
 21
128.6352178862101141
 31
-0.0000000000000247
210
0.0000000000000003
220
1.0
230
-0.0000000000000002
  0
LINE
  5
6C63
  8
0
  6
VERDECKT
 62
     1
 10
787.3074029113760162
 20
146.7974664236392073
 30
0.0000000000000027
 11
787.3074029113760162
 21
128.6352178862101994
 31
0.0000000000000067
210
0.0000000000000003
220
1.0
230
-0.0000000000000002
  0
ARC
  5
6C64
  8
0
  6
VERDECKT
 62
     1
 10
-810.3074029113738561
 20
146.7974664236398041
 30
-0.000000000000029
 40
22.9999999999977298
210
0.0
220
-0.0000000000000002
230
-1.0
 50
0.0
 51
25.0000000000018794
  0
ARC
  5
6C65
  8
0
  6
VERDECKT
 62
     1
 10
-878.3074029113784036
 20
146.7974664236398041
 30
-0.0000000000000102
 40
22.9999999999976197
210
0.0
220
-0.0000000000000002
230
-1.0
 50
154.9999999999994031
 51
180.0000000000011937
  0
LINE
  5
6C66
  8
0
  6
VERDECKT
 62
     1
 10
897.8074029113759025
 20
159.4022178862103942
 30
-0.0000000000000306
 11
899.152482013219128
 21
156.5176864436749895
 31
-0.00000000000003
210
0.0000000000000003
220
1.0
230
-0.0000000000000002
  0
LINE
  5
6C67
  8
0
  6
VERDECKT
 62
     1
 10
790.8074029113760162
 20
159.4022178862103942
 30
-0.0000000000000011
 11
789.4623238095329043
 21
156.5176864436749895
 31
-0.0000000000000004
210
0.0000000000000003
220
1.0
230
-0.0000000000000002
  0
ENDBLK
  5
6C69
  8
0
  0
BLOCK
  8
0
  2
A$C28987FAF
 70
     0
 10
0.0
 20
0.0
 30
0.0
  3
A$C28987FAF
  1

  0
ARC
  5
6C6D
  8
0
  6
CONTINUOUS
 62
     3
 10
791.0712491810952542
 20
413.8255328302814746
 30
0.0000000000001776
 40
6.0000000000017053
 50
155.3898111535447981
 51
179.9999999999972999
  0
ARC
  5
6C6E
  8
0
  6
CONTINUOUS
 62
     3
 10
791.0712491810936626
 20
413.825532830281702
 30
0.0000000000001776
 40
6.0000000000000089
 50
180.0000000000003979
 51
24.3701267019693901
  0
ARC
  5
6C6F
  8
0
  6
CONTINUOUS
 62
     3
 10
818.2021985272051552
 20
419.248523682983091
 30
0.0000000000001847
 40
6.0000000011538086
 50
173.3873659926609889
 51
174.364598017511895
  0
ARC
  5
6C70
  8
0
  6
CONTINUOUS
 62
     3
 10
818.2021985260579413
 20
419.2485236831055886
 30
0.0000000000001847
 40
5.9999999999999343
 50
29.6760173607329989
 51
58.2502865802565779
  0
LINE
  5
6C71
  8
0
  6
CONTINUOUS
 62
     3
 10
811.3044336055829717
 20
410.4456042553611042
 30
0.000000000000183
 11
812.231197033817466
 21
419.8377105631910808
 31
0.0000000000001832
  0
ARC
  5
6C72
  8
0
  6
CONTINUOUS
 62
     3
 10
820.2609358439433436
 20
409.56182393523261
 30
0.0000000000001847
 40
8.9999999999999893
 50
174.3645980175980128
 51
29.6327607350509297
  0
LINE
  5
6C73
  8
0
  6
CONTINUOUS
 62
     3
 10
823.4152314787830846
 20
422.2190939034165922
 30
0.0000000000001847
 11
828.0838470837280738
 21
414.0117744669183253
 31
0.0000000000001858
  0
ARC
  5
6C74
  8
0
  6
CONTINUOUS
 62
     3
 10
838.0585412487721442
 20
434.4609806326308785
 30
0.0000000000001883
 40
5.99999999999332
 50
196.6630292458054043
 51
209.9227551614874017
  0
ARC
  5
6C75
  8
0
  6
CONTINUOUS
 62
     3
 10
838.0585412487780559
 20
434.4609806326328112
 30
0.0000000000001883
 40
6.0000000000008216
 50
46.0754840069595986
 51
81.5259498335140762
  0
LINE
  5
6C76
  8
0
  6
CONTINUOUS
 62
     3
 10
843.4044630985433741
 20
413.1445780291841174
 30
0.0000000000001901
 11
832.8583490192221461
 21
431.467988688831781
 31
0.0000000000001877
  0
ARC
  5
6C77
  8
0
  6
CONTINUOUS
 62
     3
 10
851.204751442877523
 20
417.6340659448870269
 30
0.0000000000001918
 40
8.9999999999999574
 50
209.9227551614822005
 51
46.075484006950262
  0
LINE
  5
6C78
  8
0
  6
CONTINUOUS
 62
     3
 10
842.220801714722711
 20
438.7825067303951982
 30
0.0000000000001901
 11
857.4481421417948468
 21
424.1163550915288738
 31
0.0000000000001935
  0
LINE
  5
6C79
  8
0
  6
CONTINUOUS
 62
     3
 10
878.8612623937215176
 20
500.4696586561839808
 30
0.0000000000001972
 11
851.5766069172450443
 21
490.4821977384432898
 31
0.000000000000191
  0
ARC
  5
6C7A
  8
0
  6
CONTINUOUS
 62
     3
 10
875.7675889780413172
 20
508.9212374907635876
 30
0.0000000000001972
 40
8.9999999999999396
 50
290.1049905990557249
 51
121.8950094009438061
  0
LINE
  5
6C7B
  8
0
  6
CONTINUOUS
 62
     3
 10
846.3439716619046749
 20
501.210689904050696
 30
0.0000000000001901
 11
871.0123095107112476
 21
516.5623969045951753
 31
0.0000000000001956
  0
ARC
  5
6C7C
  8
0
  6
CONTINUOUS
 62
     3
 10
849.5141579734580546
 20
496.1165836281630277
 30
0.0000000000001918
 40
5.9999999999999867
 50
257.4229768012679074
 51
290.1049905990569755
  0
ARC
  5
6C7D
  8
0
  6
CONTINUOUS
 62
     3
 10
849.5141579734580546
 20
496.1165836281630845
 30
0.0000000000001918
 40
5.9999999999998446
 50
121.8950094009421008
 51
142.2858973889669016
  0
LINE
  5
6C7E
  8
0
  6
CONTINUOUS
 62
     3
 10
852.6370305258232065
 20
481.0329925886831006
 30
0.0000000000001918
 11
884.3557805258229791
 21
484.0197798990719207
 31
0.000000000000199
  0
ARC
  5
6C7F
  8
0
  6
CONTINUOUS
 62
     3
 10
853.1995305258233202
 20
475.0594179679055742
 30
0.0000000000001918
 40
6.0000000000002149
 50
237.5685397061490107
 51
264.6206210088870989
  0
ARC
  5
6C80
  8
0
  6
CONTINUOUS
 62
     3
 10
853.1995305258233202
 20
475.0594179679051194
 30
0.0000000000001918
 40
6.0000000000002416
 50
95.3793789911128016
 51
122.4314602938508045
  0
LINE
  5
6C81
  8
0
  6
CONTINUOUS
 62
     3
 10
884.3557805258229791
 20
466.0990560367387161
 30
0.000000000000199
 11
852.6370305258232065
 21
469.085843347127593
 31
0.0000000000001918
  0
ARC
  5
6C82
  8
0
  6
CONTINUOUS
 62
     3
 10
885.1995305258230928
 20
475.05941796790529
 30
0.000000000000199
 40
9.0000000000000089
 50
264.6206210088878947
 51
95.3793789911120626
  0
LINE
  5
6C83
  8
0
  6
CONTINUOUS
 62
     3
 10
851.5766069172448169
 20
459.6366381973672901
 30
0.0000000000001918
 11
878.8612623937215176
 21
449.6491772796265991
 31
0.000000000000198
  0
ARC
  5
6C84
  8
0
  6
CONTINUOUS
 62
     3
 10
849.5141579734569177
 20
454.0022523076460175
 30
0.0000000000001918
 40
5.9999999999980114
 50
217.7141026110282951
 51
238.1049905990585955
  0
ARC
  5
6C85
  8
0
  6
CONTINUOUS
 62
     3
 10
849.5141579734581683
 20
454.0022523076473249
 30
0.0000000000001918
 40
6.0000000000001901
 50
69.8950094009459519
 51
102.5770231987328032
  0
LINE
  5
6C86
  8
0
  6
CONTINUOUS
 62
     3
 10
871.0123095107112476
 20
433.5564390312152909
 30
0.0000000000001954
 11
846.3439716619045612
 21
448.9081460317598271
 31
0.0000000000001898
  0
ARC
  5
6C87
  8
0
  6
CONTINUOUS
 62
     3
 10
875.7675889780413172
 20
441.1975984450469923
 30
0.0000000000001972
 40
8.9999999999999805
 50
238.104990599056606
 51
69.8950094009445593
  0
LINE
  5
6C88
  8
0
  6
CONTINUOUS
 62
     3
 10
857.4481421417948468
 20
526.002480844281763
 30
0.0000000000001936
 11
842.2208017147231658
 21
511.3363292054157228
 31
0.0000000000001902
  0
ARC
  5
6C89
  8
0
  6
CONTINUOUS
 62
     3
 10
851.2047514428777504
 20
532.4847699909238372
 30
0.0000000000001918
 40
9.0000000000000231
 50
313.9245159930482032
 51
150.0772448385185953
  0
LINE
  5
6C8A
  8
0
  6
CONTINUOUS
 62
     3
 10
832.8583490192221461
 20
518.6508472469788558
 30
0.0000000000001865
 11
843.4044630985433741
 21
536.9742579066266899
 31
0.0000000000001889
  0
ARC
  5
6C8B
  8
0
  6
CONTINUOUS
 62
     3
 10
838.0585412487786243
 20
515.6578553031763477
 30
0.0000000000001883
 40
5.9999999999992939
 50
278.4740501664848011
 51
313.9245159930516138
  0
ARC
  5
6C8C
  8
0
  6
CONTINUOUS
 62
     3
 10
838.0585412487851045
 20
515.6578553031739602
 30
0.0000000000001883
 40
6.0000000000074447
 50
150.0772448385264113
 51
163.3369707541754963
  0
ARC
  5
6C8D
  8
0
  6
CONTINUOUS
 62
     3
 10
818.2021985260573729
 20
530.8703122527052756
 30
0.0000000000001847
 40
6.0000000000003473
 50
301.7497134197449213
 51
330.4104958901783107
  0
ARC
  5
6C8E
  8
0
  6
CONTINUOUS
 62
     3
 10
818.2021985271717313
 20
530.8703122528243057
 30
0.0000000000001847
 40
6.0000000011201378
 50
185.635401982490805
 51
186.6126340073464007
  0
LINE
  5
6C8F
  8
0
  6
CONTINUOUS
 62
     3
 10
828.0838470837280738
 20
536.1070614688923115
 30
0.0000000000001865
 11
823.4197109204174012
 21
527.9076167883174548
 31
0.0000000000001855
  0
ARC
  5
6C90
  8
0
  6
CONTINUOUS
 62
     3
 10
820.2609358439433436
 20
540.5570120005778563
 30
0.0000000000001847
 40
9.0000000000000355
 50
330.3672392649497169
 51
185.635401982401703
  0
LINE
  5
6C91
  8
0
  6
CONTINUOUS
 62
     3
 10
812.231197033817466
 20
530.2811253726193854
 30
0.000000000000183
 11
811.3044336055829717
 21
539.6732316804492484
 31
0.0000000000001828
  0
ARC
  5
6C92
  8
0
  6
CONTINUOUS
 62
     3
 10
791.0712491810929805
 20
536.2933031055290485
 30
0.0000000000001776
 40
6.0000000000005667
 50
335.6298732980326918
 51
359.99999999999892
  0
ARC
  5
6C93
  8
0
  6
CONTINUOUS
 62
     3
 10
791.0712491810936626
 20
536.2933031055288211
 30
0.0000000000001776
 40
5.9999999999999902
 50
0.0000000000010687
 51
204.6101888464590957
  0
ARC
  5
6C94
  8
0
  6
CONTINUOUS
 62
     3
 10
819.6995305258229791
 20
475.0594179679054037
 30
0.0000000000001847
 40
79.5
 50
360.0
 51
143.6879558897510947
  0
ARC
  5
6C95
  8
0
  6
CONTINUOUS
 62
     3
 10
819.6995305258229791
 20
475.05941796790529
 30
0.0000000000001847
 40
79.4999999999999858
 50
216.3120441102487064
 51
0.0
  0
ARC
  5
6C96
  8
0
  6
CONTINUOUS
 62
     3
 10
819.6995305258286635
 20
475.0594179679047215
 30
0.0000000000001847
 40
76.1346266195171211
 50
165.8352887051129017
 51
180.0
  0
ARC
  5
6C97
  8
0
  6
CONTINUOUS
 62
     3
 10
819.6995305258283224
 20
475.0594179679059152
 30
0.0000000000001847
 40
76.1346266195166663
 50
180.0000000000003979
 51
194.1647112948876099
  0
ARC
  5
6C98
  8
0
  6
CONTINUOUS
 62
     3
 10
819.6995305258175222
 20
475.0594179679059152
 30
0.0000000000001847
 40
76.9999999999946567
 50
171.4523848918138071
 51
180.0000000000003979
  0
ARC
  5
6C99
  8
0
  6
CONTINUOUS
 62
     3
 10
819.6995305258037661
 20
475.0594179679040963
 30
0.0000000000001847
 40
76.9999999999809006
 50
179.9999999999990905
 51
188.5476151081875003
  0
CIRCLE
  5
6C9A
  8
0
  6
CONTINUOUS
 62
     3
 10
791.1995305258227518
 20
475.0594179679054037
 30
0.0000000000001776
 40
49.0
  0
CIRCLE
  5
6C9B
  8
0
  6
CONTINUOUS
 62
     3
 10
791.1995305258227518
 20
475.0594179679054037
 30
0.0000000000001776
 40
53.0
  0
CIRCLE
  5
6C9C
  8
0
  6
CONTINUOUS
 62
     3
 10
791.1995305258227518
 20
475.0594179679054037
 30
0.0000000000001847
 40
53.5
  0
CIRCLE
  5
6C9D
  8
0
  6
CONTINUOUS
 62
     3
 10
791.1995305258227518
 20
475.0594179679054037
 30
0.0000000000001847
 40
55.7067558379250087
  0
CIRCLE
  5
6C9E
  8
0
  6
CONTINUOUS
 62
     3
 10
791.1995305258227518
 20
475.0594179679054037
 30
0.0000000000001847
 40
59.0
  0
ARC
  5
6C9F
  8
0
  6
VERDECKT
 62
     1
 10
791.0712491810936626
 20
413.8255328302815883
 30
0.0000000000001776
 40
6.0000000000000551
 50
24.3701267019700509
 51
155.3898111535399096
  0
ARC
  5
6CA0
  8
0
  6
VERDECKT
 62
     1
 10
818.2021985260577139
 20
419.2485236831055886
 30
0.0000000000001847
 40
6.0000000000000133
 50
58.2502865802555405
 51
173.3873659925610866
  0
ARC
  5
6CA1
  8
0
  6
VERDECKT
 62
     1
 10
838.0585412487783969
 20
434.4609806326334933
 30
0.0000000000001883
 40
6.0000000000000631
 50
81.5259498335163073
 51
196.663029245812595
  0
ARC
  5
6CA2
  8
0
  6
VERDECKT
 62
     1
 10
849.5141579734578272
 20
496.116583628162914
 30
0.0000000000001918
 40
5.9999999999998783
 50
142.2858973889651963
 51
257.4229768012687032
  0
ARC
  5
6CA3
  8
0
  6
VERDECKT
 62
     1
 10
853.1995305258233202
 20
475.05941796790529
 30
0.0000000000001918
 40
6.0000000000000737
 50
122.4314602938519982
 51
237.5685397061479023
  0
ARC
  5
6CA4
  8
0
  6
VERDECKT
 62
     1
 10
849.5141579734580546
 20
454.0022523076474954
 30
0.0000000000001918
 40
5.9999999999998712
 50
102.5770231987326042
 51
217.714102611033411
  0
ARC
  5
6CA5
  8
0
  6
VERDECKT
 62
     1
 10
838.0585412487783969
 20
515.6578553031770298
 30
0.0000000000001883
 40
6.0000000000000453
 50
163.3369707541856997
 51
278.4740501664859949
  0
ARC
  5
6CA6
  8
0
  6
VERDECKT
 62
     1
 10
818.2021985260577139
 20
530.8703122527051619
 30
0.0000000000001847
 40
5.9999999999999591
 50
186.6126340074399081
 51
301.7497134197431023
  0
ARC
  5
6CA7
  8
0
  6
VERDECKT
 62
     1
 10
791.0712491810936626
 20
536.2933031055288211
 30
0.0000000000001776
 40
5.9999999999999272
 50
204.6101888464582998
 51
335.6298732980325781
  0
ARC
  5
6CA8
  8
0
  6
VERDECKT
 62
     1
 10
819.6995305258229791
 20
475.05941796790529
 30
0.0000000000001847
 40
79.4999999999998863
 50
143.6879558897510094
 51
216.3120441102487916
  0
ARC
  5
6CA9
  8
0
  6
VERDECKT
 62
     1
 10
819.6995305258227518
 20
475.05941796790529
 30
0.0000000000001847
 40
76.1346266195112236
 50
194.1647112948882068
 51
165.8352887051117932
  0
ARC
  5
6CAA
  8
0
  6
VERDECKT
 62
     1
 10
819.6995305258229791
 20
475.0594179679051194
 30
0.0000000000001847
 40
77.0000000000002842
 50
188.5476151081861076
 51
171.4523848918138071
  0
CIRCLE
  5
6CAB
  8
0
  6
VERDECKT
 62
     1
 10
819.6995305258227518
 20
475.05941796790529
 30
0.0000000000001847
 40
78.625113364740514
  0
CIRCLE
  5
6CAC
  8
0
  6
VERDECKT
 62
     1
 10
791.1995305258227518
 20
475.0594179679054037
 30
0.0000000000001847
 40
57.0
  0
CIRCLE
  5
6CAD
  8
0
  6
VERDECKT
 62
     1
 10
791.1995305258227518
 20
475.0594179679054037
 30
0.0000000000001776
 40
55.0
  0
CIRCLE
  5
6CAE
  8
0
  6
VERDECKT
 62
     1
 10
791.1995305258227518
 20
475.0594179679054037
 30
0.0000000000001776
 40
51.0000000000001208
  0
ENDBLK
  5
6CB0
  8
0
  0
ENDSEC
  0
SECTION
  2
ENTITIES
  0
TEXT
  5
8F
  8
VOLL
 10
78.076754716981128
 20
31.025947764705851
 30
0.0
 40
1.8
  1

  7
GREEKS
  0
INSERT
  5
61A6
  8
ADSK_ASSOC_ENTITY_BACKUPS
  2
*S0
 10
0.0
 20
0.0
 30
0.0
  0
INSERT
  5
6C6A
  8
0
  2
A$C209474E9
 10
-46.6283795186167183
 20
475.059432983398608
 30
-148.3447152100501967
  0
INSERT
  5
6CB1
  8
0
  2
A$C28987FAF
 10
6.4794928669361971
 20
-205.3756144765293072
 30
-148.3447152100503956
  0
VIEWPORT
  5
48F3
 67
     1
  8
0
 10
-64.6737686551855404
 20
115.1254999435435025
 30
0.0
 40
1726.0876385751689668
 41
923.9850439178443366
 68
     1
 69
     1
1001
ACAD
1000
MVIEW
1002
{
1070
    16
1010
0.0
1020
0.0
1030
0.0
1010
0.0
1020
0.0
1030
1.0
1040
0.0
1040
923.9850439178443366
1040
-64.6737686551855404
1040
115.1254999435435025
1040
50.0
1040
0.0
1040
0.0
1070
     0
1070
  1500
1070
     1
1070
     1
1070
     0
1070
     0
1070
     0
1070
     0
1040
0.0
1040
0.0
1040
0.0
1040
10.0
1040
10.0
1040
10.0
1040
10.0
1070
     0
1002
{
1002
}
1002
}
  0
TEXT
  5
638A
 67
     1
  8
VOLL
 10
393.5628855301541762
 20
-46.1389960396569379
 30
0.0
 40
1.8
  1

  7
GREEKS
  0
ENDSEC
  0
EOF
