  0
SECTION
  2
HEADER
  9
$ACADVER
  1
AC1009
  9
$INSBASE
 10
0.0
 20
0.0
 30
0.0
  9
$EXTMIN
 10
443.4928480669109945
 20
-204.777053837554007
 30
-23.309968993217371
  9
$EXTMAX
 10
553.4928480669110513
 20
113.3338156028563048
 30
-23.3099689932173284
  9
$LIMMIN
 10
0.0
 20
0.0
  9
$LIMMAX
 10
210.0
 20
297.0
  9
$ORTHOMODE
 70
     1
  9
$REGENMODE
 70
     1
  9
$FILLMODE
 70
     1
  9
$QTEXTMODE
 70
     0
  9
$MIRRTEXT
 70
     1
  9
$DRAGMODE
 70
     2
  9
$LTSCALE
 40
10.0
  9
$OSMODE
 70
  2495
  9
$ATTMODE
 70
     1
  9
$TEXTSIZE
 40
3.5
  9
$TRACEWID
 40
0.5
  9
$TEXTSTYLE
  7
STANDARD
  9
$CLAYER
  8
STEMPEL
  9
$CELTYPE
  6
BYLAYER
  9
$CECOLOR
 62
   256
  9
$DIMSCALE
 40
1.0
  9
$DIMASZ
 40
3.5
  9
$DIMEXO
 40
1.0
  9
$DIMDLI
 40
7.0
  9
$DIMRND
 40
0.0
  9
$DIMDLE
 40
0.0
  9
$DIMEXE
 40
1.0
  9
$DIMTP
 40
0.0
  9
$DIMTM
 40
0.0
  9
$DIMTXT
 40
3.5
  9
$DIMCEN
 40
1.5
  9
$DIMTSZ
 40
0.0
  9
$DIMTOL
 70
     0
  9
$DIMLIM
 70
     0
  9
$DIMTIH
 70
     0
  9
$DIMTOH
 70
     0
  9
$DIMSE1
 70
     0
  9
$DIMSE2
 70
     0
  9
$DIMTAD
 70
     1
  9
$DIMZIN
 70
     8
  9
$DIMBLK
  1

  9
$DIMASO
 70
     1
  9
$DIMSHO
 70
     0
  9
$DIMPOST
  1

  9
$DIMAPOST
  1

  9
$DIMALT
 70
     0
  9
$DIMALTD
 70
     2
  9
$DIMALTF
 40
25.3999999999999986
  9
$DIMLFAC
 40
1.0
  9
$DIMTOFL
 70
     1
  9
$DIMTVP
 40
0.0
  9
$DIMTIX
 70
     0
  9
$DIMSOXD
 70
     0
  9
$DIMSAH
 70
     0
  9
$DIMBLK1
  1

  9
$DIMBLK2
  1

  9
$DIMSTYLE
  2
STANDARD
  9
$DIMCLRD
 70
     0
  9
$DIMCLRE
 70
     0
  9
$DIMCLRT
 70
     1
  9
$DIMTFAC
 40
0.5
  9
$DIMGAP
 40
1.5
  9
$LUNITS
 70
     2
  9
$LUPREC
 70
     2
  9
$SKETCHINC
 40
1.0
  9
$FILLETRAD
 40
12.0
  9
$AUNITS
 70
     0
  9
$AUPREC
 70
     0
  9
$MENU
  1
ACAD
  9
$ELEVATION
 40
0.0
  9
$PELEVATION
 40
0.0
  9
$THICKNESS
 40
0.0
  9
$LIMCHECK
 70
     0
  9
$BLIPMODE
 70
     0
  9
$CHAMFERA
 40
2.0
  9
$CHAMFERB
 40
2.0
  9
$SKPOLY
 70
     0
  9
$TDCREATE
 40
2455397.8646990740671754
  9
$TDUPDATE
 40
2459396.5429050931707025
  9
$TDINDWG
 40
0.1449809259
  9
$TDUSRTIMER
 40
0.1449809259
  9
$USRTIMER
 70
     1
  9
$ANGBASE
 50
0.0
  9
$ANGDIR
 70
     0
  9
$PDMODE
 70
     0
  9
$PDSIZE
 40
0.0
  9
$PLINEWID
 40
0.0
  9
$COORDS
 70
     1
  9
$SPLFRAME
 70
     0
  9
$SPLINETYPE
 70
     6
  9
$SPLINESEGS
 70
     8
  9
$ATTDIA
 70
     1
  9
$ATTREQ
 70
     1
  9
$HANDLING
 70
     1
  9
$HANDSEED
  5
15AD
  9
$SURFTAB1
 70
     6
  9
$SURFTAB2
 70
     6
  9
$SURFTYPE
 70
     6
  9
$SURFU
 70
     6
  9
$SURFV
 70
     6
  9
$UCSNAME
  2

  9
$UCSORG
 10
0.0
 20
0.0
 30
0.0
  9
$UCSXDIR
 10
1.0
 20
0.0
 30
0.0
  9
$UCSYDIR
 10
0.0
 20
1.0
 30
0.0
  9
$PUCSNAME
  2

  9
$PUCSORG
 10
0.0
 20
0.0
 30
0.0
  9
$PUCSXDIR
 10
1.0
 20
0.0
 30
0.0
  9
$PUCSYDIR
 10
0.0
 20
1.0
 30
0.0
  9
$USERI1
 70
     0
  9
$USERI2
 70
     0
  9
$USERI3
 70
     0
  9
$USERI4
 70
     0
  9
$USERI5
 70
     0
  9
$USERR1
 40
0.0
  9
$USERR2
 40
0.0
  9
$USERR3
 40
0.0
  9
$USERR4
 40
0.0
  9
$USERR5
 40
0.0
  9
$WORLDVIEW
 70
     1
  9
$SHADEDGE
 70
     3
  9
$SHADEDIF
 70
    70
  9
$TILEMODE
 70
     1
  9
$MAXACTVP
 70
    16
  9
$PLIMCHECK
 70
     0
  9
$PEXTMIN
 10
1.0000000000000000E+20
 20
1.0000000000000000E+20
 30
1.0000000000000000E+20
  9
$PEXTMAX
 10
-1.0000000000000000E+20
 20
-1.0000000000000000E+20
 30
-1.0000000000000000E+20
  9
$PLIMMIN
 10
-0.0674642631973264
 20
-0.0511601294987543
  9
$PLIMMAX
 10
209.9325357368026914
 20
296.9488398705012742
  9
$UNITMODE
 70
     0
  9
$VISRETAIN
 70
     0
  9
$PLINEGEN
 70
     0
  9
$PSLTSCALE
 70
     0
  0
ENDSEC
  0
SECTION
  2
TABLES
  0
TABLE
  2
VPORT
 70
     1
  0
VPORT
  2
*ACTIVE
 70
     0
 10
0.0
 20
0.0
 11
1.0
 21
1.0
 12
0.9165553069136932
 22
-69.0554347202047154
 13
0.0
 23
0.0
 14
1.0
 24
1.0
 15
10.0
 25
10.0
 16
-0.0000000000001137
 26
0.0
 36
530.1486314629851222
 17
497.5762927599973864
 27
23.3338156028559105
 37
-11.65498449660865
 40
320.3857981849187126
 41
1.7852028639618129
 42
50.0
 43
0.0
 44
0.0
 50
0.0
 51
0.0
 71
     0
 72
  1500
 73
     1
 74
     0
 75
     0
 76
     0
 77
     0
 78
     0
  0
ENDTAB
  0
TABLE
  2
LTYPE
 70
     6
  0
LTYPE
  2
CONTINUOUS
 70
     0
  3
Solid line
 72
    65
 73
     0
 40
0.0
  0
LTYPE
  2
PHANTOM2
 70
     0
  3
Phantom (.5x) ___ _ _ ___ _ _ ___ _ _ ___ _ _
 72
    65
 73
     6
 40
1.25
 49
0.625
 49
-0.125
 49
0.125
 49
-0.125
 49
0.125
 49
-0.125
  0
LTYPE
  2
VERDECKT
 70
     0
  3
Verdeckt __ __ __ __ __ __ __ __ __ __ __ __ __
 72
    65
 73
     2
 40
0.375
 49
0.25
 49
-0.125
  0
ENDTAB
  0
TABLE
  2
LAYER
 70
    11
  0
LAYER
  2
0
 70
     0
 62
     7
  6
CONTINUOUS
  0
LAYER
  2
VOLL
 70
     0
 62
     1
  6
CONTINUOUS
  0
LAYER
  2
STEMPEL
 70
     0
 62
     3
  6
CONTINUOUS
  0
LAYER
  2
DEFPOINTS
 70
     0
 62
     7
  6
CONTINUOUS
  0
LAYER
  2
ADSK_ASSOC_ENTITY_BACKUPS
 70
     1
 62
    -7
  6
CONTINUOUS
  0
ENDTAB
  0
TABLE
  2
STYLE
 70
     4
  0
STYLE
  2
STANDARD
 70
     0
 40
0.0
 41
0.8
 50
0.0
 71
     0
 42
3.5
  3
simplex.shx
  4

  0
STYLE
  2
GREEKS
 70
     0
 40
0.0
 41
0.8
 50
0.0
 71
     0
 42
2.5
  3
SIMPLEX.shx
  4

  0
ENDTAB
  0
TABLE
  2
VIEW
 70
     1
  0
ENDTAB
  0
TABLE
  2
UCS
 70
     0
  0
ENDTAB
  0
TABLE
  2
APPID
 70
    22
  0
APPID
  2
ACAD
 70
     0
  0
APPID
  2
ACAD_NAV_VCDISPLAY
 70
     0
  0
APPID
  2
ACAD_MLEADERVER
 70
     0
  0
APPID
  2
ACAD_EXEMPT_FROM_CAD_STANDARDS
 70
     0
  0
APPID
  2
ACAD_PSEXT
 70
     0
  0
APPID
  2
ACAECLAYERSTANDARD
 70
     0
  0
APPID
  2
ACAUTHENVIRON
 70
     0
  0
APPID
  2
ACCMTRANSPARENCY
 70
     0
  0
APPID
  2
ACAD_STEPID
 70
     0
  0
APPID
  2
ACSYNERGY
 70
     0
  0
APPID
  2
SYNERGY_BODY_TBR_ID
 70
     0
  0
APPID
  2
ACAD_VIEW_EDGE_ID
 70
     0
  0
APPID
  2
ACSYNERGYSKETCH
 70
     0
  0
APPID
  2
ACAD_MODELDOC_XFORM
 70
     0
  0
APPID
  2
ACAD_DSTYLE_DIMJAG
 70
     0
  0
APPID
  2
ACAD_DSTYLE_DIMTALN
 70
     0
  0
APPID
  2
ACADANNOMONITORALERTICONDI
 70
     0
  0
APPID
  2
ACAD_DIMASSOC_CALC_DIMLFAC
 70
     0
  0
APPID
  2
ACAD_DIMASSOC_DIMLFAC
 70
     0
  0
APPID
  2
ACAD_DIMASSOC_OVERRIDDEN_D
 70
     0
  0
APPID
  2
ACAD_DSTYLE_DIMRADIAL_EXTENSION
 70
     0
  0
APPID
  2
AcDbAttr
 70
     0
  0
ENDTAB
  0
TABLE
  2
DIMSTYLE
 70
     2
  0
DIMSTYLE
  2
STANDARD
 70
     0
  3

  4

  5

  6

  7

 40
1.0
 41
0.18
 42
0.0625
 43
0.38
 44
0.18
 45
0.0
 46
0.0
 47
0.0
 48
0.0
140
0.18
141
0.09
142
0.0
143
25.3999999999999986
144
1.0
145
0.0
146
1.0
147
0.09
 71
     0
 72
     0
 73
     1
 74
     1
 75
     0
 76
     0
 77
     0
 78
     0
170
     0
171
     2
172
     0
173
     0
174
     0
175
     0
176
     0
177
     0
178
     0
  0
ENDTAB
  0
ENDSEC
  0
SECTION
  2
BLOCKS
  0
BLOCK
  8
0
  2
$MODEL_SPACE
 70
     0
 10
0.0
 20
0.0
 30
0.0
  3
$MODEL_SPACE
  1

  0
ENDBLK
  5
36
  8
0
  0
BLOCK
 67
     1
  8
0
  2
$PAPER_SPACE
 70
     0
 10
0.0
 20
0.0
 30
0.0
  3
$PAPER_SPACE
  1

  0
ENDBLK
  5
34
 67
     1
  8
0
  0
BLOCK
  8
0
  2
*S2
 70
     1
 10
0.0
 20
0.0
 30
0.0
  3
*S2
  1

  0
ENDBLK
  5
B3A
  8
0
  0
BLOCK
  8
0
  2
A$CEA457778
 70
     0
 10
0.0
 20
0.0
 30
0.0
  3
A$CEA457778
  1

  0
CIRCLE
  5
14FE
  8
0
 10
359.0699455632451986
 20
22.2818737424302888
 30
0.0000000000000675
 40
55.0
  0
CIRCLE
  5
14FF
  8
0
 10
359.0699455632451986
 20
22.2818737424302995
 30
0.0000000000000711
 40
48.206755837924419
  0
CIRCLE
  5
1500
  8
0
 10
359.0699455632451986
 20
22.2818737424302995
 30
0.0000000000000675
 40
42.5
  0
CIRCLE
  5
1501
  8
0
 10
359.0699455632451986
 20
22.2818737424302995
 30
0.0000000000000711
 40
46.0000000000000284
  0
CIRCLE
  5
1502
  8
0
 10
359.0699455632451986
 20
22.2818737424302995
 30
0.0000000000000711
 40
46.394140263851142
  0
CIRCLE
  5
1503
  8
0
 10
359.0699455632451986
 20
22.2818737424302995
 30
0.0000000000000711
 40
51.5003987830669701
  0
CIRCLE
  5
1504
  8
0
  6
VERDECKT
 62
     1
 10
359.0699455632451986
 20
22.2818737424302995
 30
0.0000000000000675
 40
42.7292041943241117
  0
CIRCLE
  5
1505
  8
0
  6
VERDECKT
 62
     1
 10
359.0699455632451986
 20
22.2818737424302888
 30
0.0000000000000675
 40
53.0
  0
CIRCLE
  5
1506
  8
0
  6
VERDECKT
 62
     1
 10
359.0699455632451986
 20
22.2818737424302888
 30
0.0000000000000711
 40
52.3951899591350383
  0
CIRCLE
  5
1507
  8
0
  6
VERDECKT
 62
     1
 10
359.0699455632451986
 20
22.2818737424302888
 30
0.0000000000000711
 40
54.3875793553185289
  0
CIRCLE
  5
1508
  8
0
  6
VERDECKT
 62
     1
 10
359.0699455632451986
 20
22.2818737424302995
 30
0.0000000000000711
 40
49.5000059675378097
  0
CIRCLE
  5
1509
  8
0
  6
VERDECKT
 62
     1
 10
359.0699455632451986
 20
22.2818737424302995
 30
0.0000000000000711
 40
49.5
  0
CIRCLE
  5
150A
  8
0
  6
VERDECKT
 62
     1
 10
359.0699455632451986
 20
22.2818737424302995
 30
0.0000000000000711
 40
48.0000000000000284
  0
CIRCLE
  5
150B
  8
0
  6
VERDECKT
 62
     1
 10
359.0699455632451986
 20
22.2818737424302995
 30
0.0000000000000675
 40
44.5
  0
ENDBLK
  5
150D
  8
0
  0
BLOCK
  8
0
  2
A$C209BB4EC
 70
     0
 10
0.0
 20
0.0
 30
0.0
  3
A$C209BB4EC
  1

  0
LINE
  5
1511
  8
0
 10
403.5699455632450849
 20
9.9999999999995186
 30
-0.0000000000000022
 11
314.5699455632450849
 21
9.9999999999995186
 31
-0.0000000000000022
210
0.0
220
1.0
230
-0.0000000000000002
  0
LINE
  5
1512
  8
0
 10
413.4575249185635926
 20
-90.0000000000004405
 30
0.00000000000002
 11
304.6823662079265773
 21
-90.0000000000004405
 31
0.00000000000002
210
0.0
220
1.0
230
-0.0000000000000002
  0
ARC
  5
1513
  8
0
 10
-402.0699455632214949
 20
-82.476068685096763
 30
0.0
 40
12.0000000000236398
210
0.0
220
-0.0000000000000002
230
-1.0
 50
180.0000000000073044
 51
184.9999999999974989
  0
ARC
  5
1514
  8
0
 10
-316.0699455632681065
 20
-82.4760686850968341
 30
0.0
 40
12.0000000000230198
210
0.0
220
-0.0000000000000002
230
-1.0
 50
355.0000000000022737
 51
359.9999999999928946
  0
LINE
  5
1515
  8
0
 10
304.0699455632450849
 20
-82.4760686850983262
 30
0.0000000000000183
 11
304.0699455632450849
 21
-12.9585302813181595
 31
0.0000000000000029
210
0.0
220
1.0
230
-0.0000000000000002
  0
LINE
  5
1516
  8
0
 10
414.0699455632450849
 20
-82.4760686850983262
 30
0.0000000000000183
 11
414.0699455632450849
 21
-12.9585302813181595
 31
0.0000000000000029
210
0.0
220
1.0
230
-0.0000000000000002
  0
ARC
  5
1517
  8
0
 10
-402.0699455632454828
 20
-12.9585302813180299
 30
0.0
 40
11.9999999999995399
210
0.0
220
-0.0000000000000002
230
-1.0
 50
152.3005271919442123
 51
180.0000000000005969
  0
ARC
  5
1518
  8
0
 10
-316.069945563245426
 20
-12.9585302813181205
 30
0.0
 40
12.0000000000002292
210
0.0
220
-0.0000000000000002
230
-1.0
 50
359.9999999999997726
 51
27.6994728080543808
  0
LINE
  5
1519
  8
0
 10
403.5699455632450849
 20
9.9999999999995133
 30
-0.0000000000000022
 11
412.6947203973003866
 21
-7.3805234934390809
 31
0.0000000000000016
210
0.0
220
1.0
230
-0.0000000000000002
  0
LINE
  5
151A
  8
0
 10
314.5699455632450849
 20
9.9999999999995133
 30
-0.0000000000000022
 11
305.445170729189897
 21
-7.3805234934390853
 31
0.0000000000000016
210
0.0
220
1.0
230
-0.0000000000000002
  0
LINE
  5
151B
  8
0
 10
304.6823662079265773
 20
-90.0000000000004405
 30
0.00000000000002
 11
304.1156091861441837
 21
-83.5219375980702381
 31
0.0000000000000185
210
0.0
220
1.0
230
-0.0000000000000002
  0
LINE
  5
151C
  8
0
 10
413.4575249185635926
 20
-90.0000000000004405
 30
0.00000000000002
 11
414.0242819403460999
 21
-83.5219375980702381
 31
0.0000000000000185
210
0.0
220
1.0
230
-0.0000000000000002
  0
LINE
  5
151D
  8
0
 10
310.8631897253206944
 20
90.0000000000004405
 30
-0.00000000000002
 11
407.2767014011694755
 21
90.0000000000004405
 31
-0.00000000000002
210
0.0
220
1.0
230
-0.0000000000000002
  0
LINE
  5
151E
  8
0
 10
314.5699455632450849
 20
9.9999999999995186
 30
-0.0000000000000022
 11
403.5699455632450849
 21
9.9999999999995186
 31
-0.0000000000000022
210
0.0
220
1.0
230
-0.0000000000000002
  0
ARC
  5
151F
  8
0
 10
-310.3787435511252966
 20
88.9847638429009749
 30
0.0
 40
0.0100000001037201
210
0.0
220
-0.0000000000000002
230
-1.0
 50
205.0000000163556138
 51
207.340056147387088
  0
ARC
  5
1520
  8
0
 10
-407.7611475753648733
 20
88.9847638429009749
 30
0.0
 40
0.0100000001037196
210
0.0
220
-0.0000000000000002
230
-1.0
 50
332.659943852612912
 51
334.9999999836444999
  0
LINE
  5
1521
  8
0
 10
407.2767014011694755
 20
90.0000000000004405
 30
-0.00000000000002
 11
407.7520844974018246
 21
88.9805376602371467
 31
-0.0000000000000198
210
0.0
220
1.0
230
-0.0000000000000002
  0
LINE
  5
1522
  8
0
 10
310.8631897253206944
 20
90.0000000000004405
 30
-0.00000000000002
 11
310.3878066290884021
 21
88.9805376602371467
 31
-0.0000000000000198
210
0.0
220
1.0
230
-0.0000000000000002
  0
ARC
  5
1523
  8
0
 10
-332.7945591821002154
 20
77.3952455570843227
 30
0.0
 40
25.2246136188747911
210
0.0
220
-0.0000000000000002
230
-1.0
 50
0.0007602437412127
 51
27.3400561548350396
  0
ARC
  5
1524
  8
0
 10
-385.3453319443900114
 20
77.3952455570842943
 30
0.0
 40
25.2246136188749084
210
0.0
220
-0.0000000000000002
230
-1.0
 50
152.6599438451648894
 51
179.999239756258703
  0
LINE
  5
1525
  8
0
 10
410.569945561044392
 20
77.3955802563377233
 30
-0.0000000000000172
 11
410.5700388063708033
 21
70.3681450092091438
 31
-0.0000000000000156
210
0.0
220
1.0
230
-0.0000000000000002
  0
LINE
  5
1526
  8
0
 10
307.5699455654458916
 20
77.3955802563377517
 30
-0.0000000000000172
 11
307.5698523201193098
 21
70.3681450092091438
 31
-0.0000000000000156
210
0.0
220
1.0
230
-0.0000000000000002
  0
ARC
  5
1527
  8
0
 10
-332.414905185111877
 20
70.2449281055841084
 30
0.0
 40
24.8453584049337408
210
0.0
220
-0.0000000000000002
230
-1.0
 50
334.6829063955814263
 51
0.2841511628526531
  0
ARC
  5
1528
  8
0
 10
-385.7249859413784066
 20
70.2449281055840942
 30
0.0
 40
24.8453584049337408
210
0.0
220
-0.0000000000000002
230
-1.0
 50
179.7158488371472913
 51
205.3170936044186021
  0
ARC
  5
1529
  8
0
 10
-299.4698960178935181
 20
54.6598669368039722
 30
0.0
 40
11.6000495453516805
210
0.0
220
-0.0000000000000002
230
-1.0
 50
154.6829063955825063
 51
179.9999999999988063
  0
ARC
  5
152A
  8
0
 10
-418.6699951085968223
 20
54.6598669368039722
 30
0.0
 40
11.6000495453516805
210
0.0
220
-0.0000000000000002
230
-1.0
 50
0.0000000000011959
 51
25.3170936044174901
  0
LINE
  5
152B
  8
0
 10
407.0699455632450849
 20
54.6598669368042209
 30
-0.0000000000000121
 11
407.0699455632450849
 21
35.3887264174159881
 31
-0.0000000000000079
210
0.0
220
1.0
230
-0.0000000000000002
  0
LINE
  5
152C
  8
0
 10
311.0699455632451986
 20
54.6598669368042209
 30
-0.0000000000000121
 11
311.0699455632451986
 21
35.3887264174159881
 31
-0.0000000000000079
210
0.0
220
1.0
230
-0.0000000000000002
  0
ARC
  5
152D
  8
0
 10
-323.4699455632426748
 20
35.3887264174155121
 30
0.0
 40
12.3999999999975898
210
0.0
220
-0.0000000000000002
230
-1.0
 50
325.9379376200644174
 51
0.0000000000022391
  0
ARC
  5
152E
  8
0
 10
-394.6699455632476088
 20
35.3887264174155121
 30
0.0
 40
12.3999999999975898
210
0.0
220
-0.0000000000000002
230
-1.0
 50
179.9999999999978115
 51
214.0620623799354973
  0
ARC
  5
152F
  8
0
 10
-306.5699455632445165
 20
23.96287852765305
 30
0.0
 40
8.0000000000006253
210
0.0
220
-0.0000000000000002
230
-1.0
 50
145.937937620066009
 51
179.9999999999984936
  0
ARC
  5
1530
  8
0
 10
-411.5699455632457102
 20
23.9628785276530607
 30
0.0
 40
8.0000000000006253
210
0.0
220
-0.0000000000000002
230
-1.0
 50
0.0000000000014758
 51
34.0620623799338915
  0
LINE
  5
1531
  8
0
 10
403.5699455632450849
 20
23.9628785276532597
 30
-0.0000000000000053
 11
403.5699455632450849
 21
9.9999999999995186
 31
-0.0000000000000022
210
0.0
220
1.0
230
-0.0000000000000002
  0
LINE
  5
1532
  8
0
 10
314.5699455632450849
 20
23.9628785276532597
 30
-0.0000000000000053
 11
314.5699455632450849
 21
9.9999999999995186
 31
-0.0000000000000022
210
0.0
220
1.0
230
-0.0000000000000002
  0
LINE
  5
1533
  8
0
  6
VERDECKT
 62
     1
 10
401.7991497575691824
 20
9.0703322020196726
 30
-0.000000000000002
 11
316.3407413689209875
 21
9.0703322020196726
 31
-0.000000000000002
210
0.0
220
1.0
230
-0.0000000000000002
  0
LINE
  5
1534
  8
0
  6
VERDECKT
 62
     1
 10
411.4651355223800806
 20
-89.8256885145051456
 30
0.0000000000000199
 11
306.6747556041100893
 21
-89.8256885145051456
 31
0.0000000000000199
210
0.0
220
1.0
230
-0.0000000000000002
  0
LINE
  5
1535
  8
0
  6
VERDECKT
 62
     1
 10
316.3407413689209875
 20
9.0703322020196691
 30
-0.000000000000002
 11
314.5699455632450849
 21
9.9999999999995222
 31
-0.0000000000000022
210
0.0
220
1.0
230
-0.0000000000000002
  0
LINE
  5
1536
  8
0
  6
VERDECKT
 62
     1
 10
401.7991497575691824
 20
9.0703322020196691
 30
-0.000000000000002
 11
403.5699455632450849
 21
9.9999999999995222
 31
-0.0000000000000022
210
0.0
220
1.0
230
-0.0000000000000002
  0
LINE
  5
1537
  8
0
  6
VERDECKT
 62
     1
 10
401.7991497575691824
 20
9.0703322020196921
 30
-0.000000000000002
 11
410.9239245916245977
 21
-8.3101912914189278
 31
0.0000000000000018
210
0.0
220
1.0
230
-0.0000000000000002
  0
LINE
  5
1538
  8
0
  6
VERDECKT
 62
     1
 10
316.3407413689209875
 20
9.0703322020196921
 30
-0.000000000000002
 11
307.2159665348656858
 21
-8.3101912914189278
 31
0.0000000000000018
210
0.0
220
1.0
230
-0.0000000000000002
  0
ARC
  5
1539
  8
0
  6
VERDECKT
 62
     1
 10
-402.069945563245426
 20
-12.9585302813180405
 30
0.0
 40
9.9999999999997726
210
0.0
220
-0.0000000000000002
230
-1.0
 50
152.3005271919448944
 51
180.0000000000005969
  0
ARC
  5
153A
  8
0
  6
VERDECKT
 62
     1
 10
-316.0699455632450281
 20
-12.9585302813180494
 30
0.0
 40
9.9999999999998277
210
0.0
220
-0.0000000000000002
230
-1.0
 50
359.9999999999992042
 51
27.6994728080549493
  0
LINE
  5
153B
  8
0
  6
VERDECKT
 62
     1
 10
306.0699455632450849
 20
-82.4760686850981841
 30
0.0000000000000183
 11
306.0699455632450849
 21
-12.9585302813181809
 31
0.0000000000000029
210
0.0
220
1.0
230
-0.0000000000000002
  0
LINE
  5
153C
  8
0
  6
VERDECKT
 62
     1
 10
412.0699455632450849
 20
-82.4760686850981841
 30
0.0000000000000183
 11
412.0699455632450849
 21
-12.9585302813181595
 31
0.0000000000000029
210
0.0
220
1.0
230
-0.0000000000000002
  0
ARC
  5
153D
  8
0
  6
VERDECKT
 62
     1
 10
-402.0699455632604895
 20
-82.4760686850987383
 30
0.0
 40
9.9999999999845386
210
0.0
220
-0.0000000000000002
230
-1.0
 50
179.9999999999965894
 51
185.0000000000044054
  0
ARC
  5
153E
  8
0
  6
VERDECKT
 62
     1
 10
-316.0699455632296804
 20
-82.4760686850987383
 30
0.0
 40
9.9999999999845386
210
0.0
220
-0.0000000000000002
230
-1.0
 50
354.9999999999956231
 51
0.0000000000033459
  0
LINE
  5
153F
  8
0
  6
VERDECKT
 62
     1
 10
306.6747556041100893
 20
-89.8256885145051456
 30
0.0000000000000199
 11
306.1079985823276957
 21
-83.3476261125747584
 31
0.0000000000000185
210
0.0
220
1.0
230
-0.0000000000000002
  0
LINE
  5
1540
  8
0
  6
VERDECKT
 62
     1
 10
411.4651355223800806
 20
-89.8256885145051456
 30
0.0000000000000199
 11
412.0318925441624742
 21
-83.3476261125747584
 31
0.0000000000000185
210
0.0
220
1.0
230
-0.0000000000000002
  0
LINE
  5
1541
  8
0
  6
VERDECKT
 62
     1
 10
411.4651355223800806
 20
-89.8256885145051456
 30
0.0000000000000199
 11
413.4575249185635926
 21
-90.0000000000004405
 31
0.00000000000002
210
0.0
220
1.0
230
-0.0000000000000002
  0
LINE
  5
1542
  8
0
  6
VERDECKT
 62
     1
 10
306.6747556041100893
 20
-89.8256885145051456
 30
0.0000000000000199
 11
304.6823662079265773
 21
-90.0000000000004405
 31
0.00000000000002
210
0.0
220
1.0
230
-0.0000000000000002
  0
LINE
  5
1543
  8
0
  6
VERDECKT
 62
     1
 10
312.6758052993940282
 20
89.1547634765189798
 30
-0.0000000000000198
 11
405.4640858270961985
 21
89.1547634765189798
 31
-0.0000000000000198
210
0.0
220
1.0
230
-0.0000000000000002
  0
LINE
  5
1544
  8
0
  6
VERDECKT
 62
     1
 10
401.5699455632450849
 20
23.9628785276532597
 30
-0.0000000000000053
 11
401.5699455632450849
 21
9.9999999999995186
 31
-0.0000000000000022
210
0.0
220
1.0
230
-0.0000000000000002
  0
LINE
  5
1545
  8
0
  6
VERDECKT
 62
     1
 10
316.5699455632450849
 20
23.9628785276532597
 30
-0.0000000000000053
 11
316.5699455632450849
 21
9.9999999999995186
 31
-0.0000000000000022
210
0.0
220
1.0
230
-0.0000000000000002
  0
ARC
  5
1546
  8
0
  6
VERDECKT
 62
     1
 10
-306.569945563241788
 20
23.9628785276521903
 30
0.0
 40
10.0000000000033999
210
0.0
220
-0.0000000000000002
230
-1.0
 50
145.9379376200703007
 51
179.9999999999938041
  0
ARC
  5
1547
  8
0
  6
VERDECKT
 62
     1
 10
-411.5699455632483819
 20
23.9628785276521796
 30
0.0
 40
10.0000000000033502
210
0.0
220
-0.0000000000000002
230
-1.0
 50
0.0000000000062084
 51
34.0620623799298272
  0
ARC
  5
1548
  8
0
  6
VERDECKT
 62
     1
 10
-323.4699455632452896
 20
35.3887264174162581
 30
0.0
 40
10.4000000000001993
210
0.0
220
-0.0000000000000002
230
-1.0
 50
325.9379376200691922
 51
0.0000000000007506
  0
ARC
  5
1549
  8
0
  6
VERDECKT
 62
     1
 10
-394.6699455632448803
 20
35.3887264174162581
 30
0.0
 40
10.4000000000001993
210
0.0
220
-0.0000000000000002
230
-1.0
 50
179.9999999999992042
 51
214.0620623799306941
  0
LINE
  5
154A
  8
0
  6
VERDECKT
 62
     1
 10
405.0699455632450849
 20
54.6598669368042422
 30
-0.0000000000000121
 11
405.0699455632450849
 21
35.3887264174164002
 31
-0.0000000000000079
210
0.0
220
1.0
230
-0.0000000000000002
  0
LINE
  5
154B
  8
0
  6
VERDECKT
 62
     1
 10
313.0699455632451986
 20
54.6598669368042422
 30
-0.0000000000000121
 11
313.0699455632451986
 21
35.3887264174164002
 31
-0.0000000000000079
210
0.0
220
1.0
230
-0.0000000000000002
  0
ARC
  5
154C
  8
0
  6
VERDECKT
 62
     1
 10
-299.0339629065883855
 20
54.5620727899235618
 30
0.0
 40
14.0363233374388301
210
0.0
220
-0.0000000000000002
230
-1.0
 50
155.1234944096314905
 51
179.6008044930669882
  0
ARC
  5
154D
  8
0
  6
VERDECKT
 62
     1
 10
-419.1059282199004201
 20
54.5620727899239526
 30
0.0
 40
14.0363233374374108
210
0.0
220
-0.0000000000000002
230
-1.0
 50
0.3991955069314339
 51
24.8765055903691916
  0
ARC
  5
154E
  8
0
  6
VERDECKT
 62
     1
 10
-333.2596115562519117
 20
70.4320348482876142
 30
0.0
 40
23.6896719605533193
210
0.0
220
-0.0000000000000002
230
-1.0
 50
335.1234944096304957
 51
0.0000491031507333
  0
ARC
  5
154F
  8
0
  6
VERDECKT
 62
     1
 10
-384.8802795702359845
 20
70.4320348482881258
 30
0.0
 40
23.6896719605556996
210
0.0
220
-0.0000000000000002
230
-1.0
 50
179.9999508968504074
 51
204.8765055903681969
  0
LINE
  5
1550
  8
0
  6
VERDECKT
 62
     1
 10
408.5699485470140075
 20
77.3952485374283441
 30
-0.0000000000000172
 11
408.5699485470140075
 21
70.4320551506125554
 31
-0.0000000000000156
210
0.0
220
1.0
230
-0.0000000000000002
  0
LINE
  5
1551
  8
0
  6
VERDECKT
 62
     1
 10
309.5699425794762192
 20
77.3952485374283441
 30
-0.0000000000000172
 11
309.5699425794762192
 21
70.4320551506125554
 31
-0.0000000000000156
210
0.0
220
1.0
230
-0.0000000000000002
  0
ARC
  5
1552
  8
0
  6
VERDECKT
 62
     1
 10
-332.5699455632486092
 20
77.395248537427662
 30
0.0
 40
23.0000000000034106
210
0.0
220
-0.0000000000000002
230
-1.0
 50
0.0000000000017048
 51
25.000000000001819
  0
ARC
  5
1553
  8
0
  6
VERDECKT
 62
     1
 10
-385.5699455632405943
 20
77.3952485374272356
 30
0.0
 40
23.0000000000046114
210
0.0
220
-0.0000000000000002
230
-1.0
 50
154.9999999999984084
 51
179.9999999999971863
  0
LINE
  5
1554
  8
0
  6
VERDECKT
 62
     1
 10
405.4640858270961985
 20
89.154763476518994
 30
-0.0000000000000198
 11
406.415024665087401
 21
87.1154685574658316
 31
-0.0000000000000193
210
0.0
220
1.0
230
-0.0000000000000002
  0
LINE
  5
1555
  8
0
  6
VERDECKT
 62
     1
 10
312.6758052993940282
 20
89.1547634765189656
 30
-0.0000000000000198
 11
311.7248664614028257
 21
87.1154685574658316
 31
-0.0000000000000193
210
0.0
220
1.0
230
-0.0000000000000002
  0
LINE
  5
1556
  8
0
  6
VERDECKT
 62
     1
 10
312.6758052993940282
 20
89.154763476518994
 30
-0.0000000000000198
 11
310.8631897253206944
 21
90.0000000000004547
 31
-0.00000000000002
210
0.0
220
1.0
230
-0.0000000000000002
  0
LINE
  5
1557
  8
0
  6
VERDECKT
 62
     1
 10
405.4640858270961985
 20
89.1547634765189656
 30
-0.0000000000000198
 11
407.2767014011694755
 21
90.0000000000004547
 31
-0.00000000000002
210
0.0
220
1.0
230
-0.0000000000000002
  0
ENDBLK
  5
1559
  8
0
  0
ENDSEC
  0
SECTION
  2
ENTITIES
  0
TEXT
  5
8F
  8
VOLL
 10
78.076754716981128
 20
31.025947764705851
 30
0.0
 40
1.8
  1

  7
GREEKS
  0
INSERT
  5
B3C
  8
ADSK_ASSOC_ENTITY_BACKUPS
  2
*S2
 10
0.0
 20
0.0
 30
0.0
  0
INSERT
  5
150E
  8
STEMPEL
  2
A$CEA457778
 10
139.4229025036659095
 20
-172.0589275799842994
 30
-23.3099689932173995
  0
INSERT
  5
155A
  8
STEMPEL
  2
A$C209BB4EC
 10
139.4229025036659948
 20
23.3338156028559105
 30
-23.3099689932173604
  0
VIEWPORT
  5
928
 67
     1
  8
0
 10
104.9325357368027056
 20
148.4488398705011889
 30
0.0
 40
533.9969448798291296
 41
299.1239570917758783
 68
     1
 69
     1
1001
ACAD
1000
MVIEW
1002
{
1070
    16
1010
0.0
1020
0.0
1030
0.0
1010
0.0
1020
0.0
1030
1.0
1040
0.0
1040
299.1239570917758783
1040
104.9325357368027056
1040
148.4488398705011889
1040
50.0
1040
0.0
1040
0.0
1070
     0
1070
  1500
1070
     1
1070
     1
1070
     0
1070
     0
1070
     0
1070
     0
1040
0.0
1040
0.0
1040
0.0
1040
10.0
1040
10.0
1040
10.0
1040
10.0
1070
     0
1002
{
1002
}
1002
}
  0
ENDSEC
  0
EOF
