  0
SECTION
  2
HEADER
  9
$ACADVER
  1
AC1009
  9
$INSBASE
 10
0.0
 20
0.0
 30
0.0
  9
$EXTMIN
 10
-55.004204023261309
 20
-210.009204254898691
 30
-0.0057368669726543
  9
$EXTMAX
 10
56.1417868029629972
 20
188.0037714681018031
 30
0.0086061759020026
  9
$LIMMIN
 10
0.0
 20
0.0
  9
$LIMMAX
 10
210.0
 20
297.0
  9
$ORTHOMODE
 70
     1
  9
$REGENMODE
 70
     1
  9
$FILLMODE
 70
     1
  9
$QTEXTMODE
 70
     0
  9
$MIRRTEXT
 70
     1
  9
$DRAGMODE
 70
     2
  9
$LTSCALE
 40
10.0
  9
$OSMODE
 70
  2559
  9
$ATTMODE
 70
     1
  9
$TEXTSIZE
 40
3.5
  9
$TRACEWID
 40
0.5
  9
$TEXTSTYLE
  7
STANDARD
  9
$CLAYER
  8
STEMPEL
  9
$CELTYPE
  6
BYLAYER
  9
$CECOLOR
 62
   256
  9
$DIMSCALE
 40
1.0
  9
$DIMASZ
 40
3.5
  9
$DIMEXO
 40
1.0
  9
$DIMDLI
 40
7.0
  9
$DIMRND
 40
0.0
  9
$DIMDLE
 40
0.0
  9
$DIMEXE
 40
1.0
  9
$DIMTP
 40
0.0
  9
$DIMTM
 40
0.0
  9
$DIMTXT
 40
3.5
  9
$DIMCEN
 40
1.5
  9
$DIMTSZ
 40
0.0
  9
$DIMTOL
 70
     0
  9
$DIMLIM
 70
     0
  9
$DIMTIH
 70
     0
  9
$DIMTOH
 70
     0
  9
$DIMSE1
 70
     0
  9
$DIMSE2
 70
     0
  9
$DIMTAD
 70
     1
  9
$DIMZIN
 70
     8
  9
$DIMBLK
  1

  9
$DIMASO
 70
     1
  9
$DIMSHO
 70
     0
  9
$DIMPOST
  1

  9
$DIMAPOST
  1

  9
$DIMALT
 70
     0
  9
$DIMALTD
 70
     2
  9
$DIMALTF
 40
25.3999999999999986
  9
$DIMLFAC
 40
1.0
  9
$DIMTOFL
 70
     1
  9
$DIMTVP
 40
0.0
  9
$DIMTIX
 70
     0
  9
$DIMSOXD
 70
     0
  9
$DIMSAH
 70
     0
  9
$DIMBLK1
  1

  9
$DIMBLK2
  1

  9
$DIMSTYLE
  2
STANDARD
  9
$DIMCLRD
 70
     0
  9
$DIMCLRE
 70
     0
  9
$DIMCLRT
 70
     1
  9
$DIMTFAC
 40
0.5142857142857143
  9
$DIMGAP
 40
1.5
  9
$LUNITS
 70
     2
  9
$LUPREC
 70
     2
  9
$SKETCHINC
 40
1.0
  9
$FILLETRAD
 40
8.0
  9
$AUNITS
 70
     0
  9
$AUPREC
 70
     0
  9
$MENU
  1
ACAD
  9
$ELEVATION
 40
0.0
  9
$PELEVATION
 40
0.0
  9
$THICKNESS
 40
0.0
  9
$LIMCHECK
 70
     0
  9
$BLIPMODE
 70
     0
  9
$CHAMFERA
 40
0.0
  9
$CHAMFERB
 40
0.0
  9
$SKPOLY
 70
     0
  9
$TDCREATE
 40
2455397.8646990740671754
  9
$TDUPDATE
 40
2458376.3347453698515892
  9
$TDINDWG
 40
0.0858834491
  9
$TDUSRTIMER
 40
0.0858834491
  9
$USRTIMER
 70
     1
  9
$ANGBASE
 50
0.0
  9
$ANGDIR
 70
     0
  9
$PDMODE
 70
     0
  9
$PDSIZE
 40
0.0
  9
$PLINEWID
 40
0.0
  9
$COORDS
 70
     1
  9
$SPLFRAME
 70
     0
  9
$SPLINETYPE
 70
     6
  9
$SPLINESEGS
 70
     8
  9
$ATTDIA
 70
     1
  9
$ATTREQ
 70
     1
  9
$HANDLING
 70
     1
  9
$HANDSEED
  5
D8E
  9
$SURFTAB1
 70
     6
  9
$SURFTAB2
 70
     6
  9
$SURFTYPE
 70
     6
  9
$SURFU
 70
     6
  9
$SURFV
 70
     6
  9
$UCSNAME
  2

  9
$UCSORG
 10
0.0
 20
0.0
 30
0.0
  9
$UCSXDIR
 10
1.0
 20
0.0
 30
0.0
  9
$UCSYDIR
 10
0.0
 20
1.0
 30
0.0
  9
$PUCSNAME
  2

  9
$PUCSORG
 10
0.0
 20
0.0
 30
0.0
  9
$PUCSXDIR
 10
1.0
 20
0.0
 30
0.0
  9
$PUCSYDIR
 10
0.0
 20
1.0
 30
0.0
  9
$USERI1
 70
     0
  9
$USERI2
 70
     0
  9
$USERI3
 70
     0
  9
$USERI4
 70
     0
  9
$USERI5
 70
     0
  9
$USERR1
 40
0.0
  9
$USERR2
 40
0.0
  9
$USERR3
 40
0.0
  9
$USERR4
 40
0.0
  9
$USERR5
 40
0.0
  9
$WORLDVIEW
 70
     1
  9
$SHADEDGE
 70
     3
  9
$SHADEDIF
 70
    70
  9
$TILEMODE
 70
     1
  9
$MAXACTVP
 70
    16
  9
$PLIMCHECK
 70
     0
  9
$PEXTMIN
 10
-0.1814272533727461
 20
-0.1740821181429624
 30
-0.0000000349181948
  9
$PEXTMAX
 10
23.6531375785155014
 20
33.3682484573418705
 30
0.0000000814935746
  9
$PLIMMIN
 10
-0.2500002402958907
 20
-0.2499999962453767
  9
$PLIMMAX
 10
10.7499995194082203
 20
8.2499997634587334
  9
$UNITMODE
 70
     0
  9
$VISRETAIN
 70
     0
  9
$PLINEGEN
 70
     0
  9
$PSLTSCALE
 70
     0
  0
ENDSEC
  0
SECTION
  2
TABLES
  0
TABLE
  2
VPORT
 70
     1
  0
VPORT
  2
*ACTIVE
 70
     0
 10
0.0
 20
0.0
 11
1.0
 21
1.0
 12
0.5687913898507873
 22
-77.5118335198632735
 13
0.0
 23
0.0
 14
1.0
 24
1.0
 15
10.0
 25
10.0
 16
-0.0000000000001523
 26
0.0
 36
685.9248612062089023
 17
0.0
 27
66.5091171264648438
 37
-0.0000000000000209
 40
400.0419288702714766
 41
1.868197278911564
 42
50.0
 43
0.0
 44
0.0
 50
0.0
 51
0.0
 71
     0
 72
  1500
 73
     1
 74
     0
 75
     0
 76
     0
 77
     0
 78
     0
  0
ENDTAB
  0
TABLE
  2
LTYPE
 70
     4
  0
LTYPE
  2
CONTINUOUS
 70
     0
  3
Solid line
 72
    65
 73
     0
 40
0.0
  0
LTYPE
  2
AUSGEZOGEN
 70
     0
  3
Ausgezogene Linie
 72
    65
 73
     0
 40
0.0
  0
LTYPE
  2
VERDECKT
 70
     0
  3
_ _ _ _ _ _ _ _ _ _ _ _ _ _ _ _ _ _ _ _ _ _ _
 72
    65
 73
     2
 40
0.375
 49
0.25
 49
-0.125
  0
ENDTAB
  0
TABLE
  2
LAYER
 70
    10
  0
LAYER
  2
0
 70
     0
 62
     7
  6
CONTINUOUS
  0
LAYER
  2
VOLL
 70
     0
 62
     1
  6
CONTINUOUS
  0
LAYER
  2
STEMPEL
 70
     0
 62
     3
  6
CONTINUOUS
  0
LAYER
  2
DEFPOINTS
 70
     0
 62
     7
  6
AUSGEZOGEN
  0
ENDTAB
  0
TABLE
  2
STYLE
 70
     2
  0
STYLE
  2
STANDARD
 70
     0
 40
0.0
 41
0.8
 50
0.0
 71
     0
 42
3.5
  3
simplex.shx
  4

  0
STYLE
  2
GREEKS
 70
     0
 40
0.0
 41
0.8
 50
0.0
 71
     0
 42
2.5
  3
SIMPLEX.shx
  4

  0
ENDTAB
  0
TABLE
  2
VIEW
 70
     1
  0
ENDTAB
  0
TABLE
  2
UCS
 70
     0
  0
ENDTAB
  0
TABLE
  2
APPID
 70
    10
  0
APPID
  2
ACAD
 70
     0
  0
APPID
  2
ACAD_NAV_VCDISPLAY
 70
     0
  0
APPID
  2
ACAD_PSEXT
 70
     0
  0
APPID
  2
ACAD_EXEMPT_FROM_CAD_STANDARDS
 70
     0
  0
APPID
  2
ACAD_MLEADERVER
 70
     0
  0
APPID
  2
ACAD_DSTYLE_DIMRADIAL_EXTENSION
 70
     0
  0
APPID
  2
ACADANNOMONITORALERTICONDI
 70
     0
  0
APPID
  2
ACAECLAYERSTANDARD
 70
     0
  0
APPID
  2
ACCMTRANSPARENCY
 70
     0
  0
APPID
  2
ACAD_OBJECT_CHANGE_GUID
 70
     0
  0
ENDTAB
  0
TABLE
  2
DIMSTYLE
 70
     1
  0
DIMSTYLE
  2
STANDARD
 70
     0
  3

  4

  5

  6

  7

 40
1.0
 41
0.18
 42
0.0625
 43
0.38
 44
0.18
 45
0.0
 46
0.0
 47
0.0
 48
0.0
140
0.18
141
0.09
142
0.0
143
25.3999999999999986
144
1.0
145
0.0
146
1.0
147
0.09
 71
     0
 72
     0
 73
     1
 74
     1
 75
     0
 76
     0
 77
     0
 78
     0
170
     0
171
     2
172
     0
173
     0
174
     0
175
     0
176
     0
177
     0
178
     0
  0
ENDTAB
  0
ENDSEC
  0
SECTION
  2
BLOCKS
  0
BLOCK
  8
0
  2
$MODEL_SPACE
 70
     0
 10
0.0
 20
0.0
 30
0.0
  3
$MODEL_SPACE
  1

  0
ENDBLK
  5
36
  8
0
  0
BLOCK
 67
     1
  8
0
  2
$PAPER_SPACE
 70
     0
 10
0.0
 20
0.0
 30
0.0
  3
$PAPER_SPACE
  1

  0
ENDBLK
  5
34
 67
     1
  8
0
  0
BLOCK
  8
0
  2
A$C1BC55C99
 70
     0
 10
0.0
 20
0.0
 30
0.0
  3
A$C1BC55C99
  1

  0
LINE
  5
CE8
  8
0
  6
CONTINUOUS
 62
     3
 10
-29.6066989995640206
 20
188.0000000000001137
 30
-0.0000000000000417
 11
29.6066989995642089
 21
188.0000000000001137
 31
-0.0000000000000417
210
0.0000000000000002
220
1.0
230
-0.0000000000000002
  0
LINE
  5
CE9
  8
0
  6
CONTINUOUS
 62
     3
 10
-39.9999999999998721
 20
110.000000000000199
 30
-0.0000000000000244
 11
39.9999999999999076
 21
110.0000000000000995
 31
-0.0000000000000244
210
0.0000000000000002
220
1.0
230
-0.0000000000000002
  0
ARC
  5
CEA
  8
0
  6
CONTINUOUS
 62
     3
 10
12.0003458496184106
 20
179.6174986573377907
 30
0.0
 40
19.5000000000085691
210
0.0
220
-0.0000000000000002
230
-1.0
 50
0.0000000000039439
 51
25.4594285688121182
  0
ARC
  5
CEB
  8
0
  6
CONTINUOUS
 62
     3
 10
-12.0003458496186095
 20
179.6174986573377907
 30
0.0
 40
19.5000000000085585
210
0.0
220
-0.0000000000000002
230
-1.0
 50
154.5405714311879137
 51
179.9999999999961062
  0
LINE
  5
CEC
  8
0
  6
CONTINUOUS
 62
     3
 10
31.5003458496270596
 20
179.6174986573390981
 30
-0.0000000000000399
 11
31.5003458496270596
 21
178.202035702101
 31
-0.0000000000000396
210
0.0000000000000002
220
1.0
230
-0.0000000000000002
  0
LINE
  5
CED
  8
0
  6
CONTINUOUS
 62
     3
 10
-31.5003458496268713
 20
179.6174986573392118
 30
-0.0000000000000399
 11
-31.5003458496268713
 21
178.202035702101
 31
-0.0000000000000396
210
0.0000000000000002
220
1.0
230
-0.0000000000000002
  0
ARC
  5
CEE
  8
0
  6
CONTINUOUS
 62
     3
 10
6.500345849628415
 20
178.1619999999994093
 30
0.0
 40
25.0000320571266386
210
0.0
220
-0.0000000000000002
230
-1.0
 50
340.5369005553113766
 51
0.0917549919733488
  0
ARC
  5
CEF
  8
0
  6
CONTINUOUS
 62
     3
 10
-6.5003458496283644
 20
178.1619999999994093
 30
0.0
 40
25.0000320571268801
210
0.0
220
-0.0000000000000002
230
-1.0
 50
179.9082450080267961
 51
199.4630994446885097
  0
ARC
  5
CF0
  8
0
  6
CONTINUOUS
 62
     3
 10
39.5003458496259725
 20
166.5000000000001137
 30
0.0
 40
9.9999999999989875
210
0.0
220
-0.0000000000000002
230
-1.0
 50
160.5369005553096997
 51
180.0000000000009095
  0
ARC
  5
CF1
  8
0
  6
CONTINUOUS
 62
     3
 10
-39.5003458496262922
 20
166.5
 30
0.0
 40
9.999999999999126
210
0.0
220
-0.0000000000000002
230
-1.0
 50
359.9999999999993179
 51
19.4630994446903287
  0
LINE
  5
CF2
  8
0
  6
CONTINUOUS
 62
     3
 10
29.5003458496271804
 20
166.4999999999998863
 30
-0.000000000000037
 11
29.5003458496271698
 21
155.4083269131959071
 31
-0.0000000000000345
210
0.0000000000000002
220
1.0
230
-0.0000000000000002
  0
LINE
  5
CF3
  8
0
  6
CONTINUOUS
 62
     3
 10
-29.5003458496269886
 20
166.4999999999998863
 30
-0.000000000000037
 11
-29.5003458496269886
 21
155.4083269131959071
 31
-0.0000000000000345
210
0.0000000000000002
220
1.0
230
-0.0000000000000002
  0
ARC
  5
CF4
  8
0
  6
CONTINUOUS
 62
     3
 10
17.5003458496266298
 20
155.408326913196106
 30
0.0
 40
12.0000000000003304
210
0.0
220
-0.0000000000000002
230
-1.0
 50
328.2116693829470933
 51
359.9999999999993747
  0
ARC
  5
CF5
  8
0
  6
CONTINUOUS
 62
     3
 10
-17.5003458496268998
 20
155.4083269131959923
 30
0.0
 40
12.0000000000002505
210
0.0
220
-0.0000000000000002
230
-1.0
 50
180.0000000000005969
 51
211.7883306170531057
  0
ARC
  5
CF6
  8
0
  6
CONTINUOUS
 62
     3
 10
34.5003458496253828
 20
144.8726731603437941
 30
0.0
 40
7.9999999999982938
210
0.0
220
-0.0000000000000002
230
-1.0
 50
148.2116693829482017
 51
180.0000000000042064
  0
ARC
  5
CF7
  8
0
  6
CONTINUOUS
 62
     3
 10
-34.5003458496255675
 20
144.8726731603437088
 30
0.0
 40
7.9999999999984217
210
0.0
220
-0.0000000000000002
230
-1.0
 50
359.9999999999960778
 51
31.7883306170519191
  0
LINE
  5
CF8
  8
0
  6
CONTINUOUS
 62
     3
 10
26.5003458496270596
 20
144.8726731603431972
 30
-0.0000000000000322
 11
26.500345849627049
 21
128.0695037644798902
 31
-0.0000000000000284
210
0.0000000000000002
220
1.0
230
-0.0000000000000002
  0
LINE
  5
CF9
  8
0
  6
CONTINUOUS
 62
     3
 10
-26.5003458496269815
 20
144.8726731603431972
 30
-0.0000000000000322
 11
-26.5003458496269992
 21
128.0695037644800038
 31
-0.0000000000000284
210
0.0000000000000002
220
1.0
230
-0.0000000000000002
  0
ARC
  5
CFA
  8
0
  6
CONTINUOUS
 62
     3
 10
34.5003458496266475
 20
128.0695037644798049
 30
0.0
 40
7.9999999999996367
210
0.0
220
-0.0000000000000002
230
-1.0
 50
179.9999999999990052
 51
221.9872124958164079
  0
ARC
  5
CFB
  8
0
  6
CONTINUOUS
 62
     3
 10
-34.5003458496267612
 20
128.0695037644798049
 30
0.0
 40
7.9999999999996891
210
0.0
220
-0.0000000000000002
230
-1.0
 50
318.0127875041840184
 51
0.0000000000008333
  0
LINE
  5
CFC
  8
0
  6
CONTINUOUS
 62
     3
 10
28.5539926796495784
 20
122.7177859115003997
 30
-0.0000000000000272
 11
39.9999999999998934
 21
110.0000000000000995
 31
-0.0000000000000244
210
0.0000000000000002
220
1.0
230
-0.0000000000000002
  0
LINE
  5
CFD
  8
0
  6
CONTINUOUS
 62
     3
 10
-28.5539926796495287
 20
122.7177859115004992
 30
-0.0000000000000272
 11
-39.9999999999998579
 21
110.000000000000199
 31
-0.0000000000000244
210
0.0000000000000002
220
1.0
230
-0.0000000000000002
  0
LINE
  5
CFE
  8
0
  6
CONTINUOUS
 62
     3
 10
-54.1251133647407414
 20
0.000000000000012
 30
0.0
 11
54.1251133647407414
 21
-0.000000000000012
 31
0.0
210
0.0000000000000002
220
1.0
230
-0.0000000000000002
  0
LINE
  5
CFF
  8
0
  6
CONTINUOUS
 62
     3
 10
-40.0000000000000284
 20
110.0000000000000995
 30
-0.0000000000000244
 11
40.0000000000000711
 21
110.0000000000000995
 31
-0.0000000000000244
210
0.0000000000000002
220
1.0
230
-0.0000000000000002
  0
ARC
  5
D00
  8
0
  6
CONTINUOUS
 62
     3
 10
42.9999999999997087
 20
77.1671842700028634
 30
0.0
 40
12.00000000000027
210
0.0
220
-0.0000000000000002
230
-1.0
 50
0.0000000000000127
 51
26.5650511770775388
  0
ARC
  5
D01
  8
0
  6
CONTINUOUS
 62
     3
 10
-42.9999999999997371
 20
77.167184270002835
 30
0.0
 40
12.00000000000027
210
0.0
220
-0.0000000000000002
230
-1.0
 50
153.4349488229223084
 51
179.999999999999801
  0
LINE
  5
D02
  8
0
  6
CONTINUOUS
 62
     3
 10
55.0000000000000071
 20
77.1671842700028634
 30
-0.0000000000000171
 11
55.0
 21
9.9999999999982698
 31
-0.0000000000000022
210
0.0000000000000002
220
1.0
230
-0.0000000000000002
  0
LINE
  5
D03
  8
0
  6
CONTINUOUS
 62
     3
 10
-54.9999999999999929
 20
77.167184270002906
 30
-0.0000000000000171
 11
-55.0
 21
9.9999999999982947
 31
-0.0000000000000022
210
0.0000000000000002
220
1.0
230
-0.0000000000000002
  0
LINE
  5
D04
  8
0
  6
CONTINUOUS
 62
     3
 10
-54.1251133647407201
 20
0.0000000000000147
 30
0.0
 11
-54.9999999999999218
 21
9.9999999999982983
 31
-0.0000000000000022
210
0.0000000000000002
220
1.0
230
-0.0000000000000002
  0
LINE
  5
D05
  8
0
  6
CONTINUOUS
 62
     3
 10
54.1251133647407201
 20
-0.0000000000000094
 30
0.0
 11
54.9999999999999218
 21
9.9999999999982734
 31
-0.0000000000000022
210
0.0000000000000002
220
1.0
230
-0.0000000000000002
  0
LINE
  5
D06
  8
0
  6
CONTINUOUS
 62
     3
 10
40.0000000000000711
 20
110.0000000000000995
 30
-0.0000000000000244
 11
53.7331262919990067
 21
82.5337474160023845
 31
-0.0000000000000183
210
0.0000000000000002
220
1.0
230
-0.0000000000000002
  0
LINE
  5
D07
  8
0
  6
CONTINUOUS
 62
     3
 10
-40.0000000000000284
 20
110.0000000000000995
 30
-0.0000000000000244
 11
-53.733126291998957
 21
82.5337474160024271
 31
-0.0000000000000183
210
0.0000000000000002
220
1.0
230
-0.0000000000000002
  0
LINE
  5
D08
  8
0
  6
VERDECKT
 62
     1
 10
27.4390514602788684
 20
121.7143388140668065
 30
-0.000000000000027
 11
37.9819563929388693
 21
110.0000000000000995
 31
-0.0000000000000244
210
0.0000000000000002
220
1.0
230
-0.0000000000000002
  0
LINE
  5
D09
  8
0
  6
VERDECKT
 62
     1
 10
-27.4390514602788187
 20
121.7143388140668065
 30
-0.000000000000027
 11
-37.9819563929388266
 21
110.000000000000199
 31
-0.0000000000000244
210
0.0000000000000002
220
1.0
230
-0.0000000000000002
  0
ARC
  5
D0A
  8
0
  6
VERDECKT
 62
     1
 10
34.5003458496269033
 20
128.0695037644798902
 30
0.0
 40
9.4999999999998899
210
0.0
220
-0.0000000000000002
230
-1.0
 50
179.9999999999996021
 51
221.9872124958158963
  0
ARC
  5
D0B
  8
0
  6
VERDECKT
 62
     1
 10
-34.5003458496269673
 20
128.0695037644798902
 30
0.0
 40
9.4999999999999236
210
0.0
220
-0.0000000000000002
230
-1.0
 50
318.0127875041840753
 51
0.0000000000001908
  0
LINE
  5
D0C
  8
0
  6
VERDECKT
 62
     1
 10
25.00034584962712
 20
144.8726731603431119
 30
-0.0000000000000322
 11
25.0003458496271094
 21
128.0695037644798902
 31
-0.0000000000000284
210
0.0000000000000002
220
1.0
230
-0.0000000000000002
  0
LINE
  5
D0D
  8
0
  6
VERDECKT
 62
     1
 10
-25.0003458496270383
 20
144.8726731603431119
 30
-0.0000000000000322
 11
-25.0003458496270596
 21
128.0695037644800038
 31
-0.0000000000000284
210
0.0000000000000002
220
1.0
230
-0.0000000000000002
  0
ARC
  5
D0E
  8
0
  6
VERDECKT
 62
     1
 10
34.5003458496261501
 20
144.8726731603437088
 30
0.0
 40
9.4999999999990177
210
0.0
220
-0.0000000000000002
230
-1.0
 50
148.2116693829499923
 51
180.0000000000032117
  0
ARC
  5
D0F
  8
0
  6
VERDECKT
 62
     1
 10
-34.5003458496262709
 20
144.8726731603435951
 30
0.0
 40
9.4999999999990692
210
0.0
220
-0.0000000000000002
230
-1.0
 50
359.9999999999968168
 51
31.788330617050601
  0
ARC
  5
D10
  8
0
  6
VERDECKT
 62
     1
 10
17.5003458496275606
 20
155.4083269131959923
 30
0.0
 40
10.4999999999995293
210
0.0
220
-0.0000000000000002
230
-1.0
 50
328.2116693829447058
 51
0.0000000000000127
  0
ARC
  5
D11
  8
0
  6
VERDECKT
 62
     1
 10
-17.5003458496277489
 20
155.4083269131959923
 30
0.0
 40
10.4999999999995204
210
0.0
220
-0.0000000000000002
230
-1.0
 50
180.0000000000003126
 51
211.7883306170556068
  0
LINE
  5
D12
  8
0
  6
VERDECKT
 62
     1
 10
28.0003458496272408
 20
166.4999999999998863
 30
-0.000000000000037
 11
28.0003458496272302
 21
155.4083269131959923
 31
-0.0000000000000345
210
0.0000000000000002
220
1.0
230
-0.0000000000000002
  0
LINE
  5
D13
  8
0
  6
VERDECKT
 62
     1
 10
-28.0003458496270383
 20
166.4999999999998863
 30
-0.000000000000037
 11
-28.000345849627049
 21
155.4083269131959923
 31
-0.0000000000000345
210
0.0000000000000002
220
1.0
230
-0.0000000000000002
  0
ARC
  5
D14
  8
0
  6
VERDECKT
 62
     1
 10
39.500345849625333
 20
166.5000000000003979
 30
0.0
 40
11.4999999999983409
210
0.0
220
-0.0000000000000002
230
-1.0
 50
160.5369005553110924
 51
180.0000000000025011
  0
ARC
  5
D15
  8
0
  6
VERDECKT
 62
     1
 10
-39.5003458496256172
 20
166.5000000000003979
 30
0.0
 40
11.4999999999984599
210
0.0
220
-0.0000000000000002
230
-1.0
 50
359.9999999999977831
 51
19.4630994446888685
  0
ARC
  5
D16
  8
0
  6
VERDECKT
 62
     1
 10
6.5003458496254556
 20
178.1620000000000914
 30
0.0
 40
23.5000320571296193
210
0.0
220
-0.0000000000000002
230
-1.0
 50
340.5369005553117745
 51
0.0946380447183053
  0
ARC
  5
D17
  8
0
  6
VERDECKT
 62
     1
 10
-6.5003458496258837
 20
178.1620000000000914
 30
0.0
 40
23.5000320571293884
210
0.0
220
-0.0000000000000002
230
-1.0
 50
179.9053619552817906
 51
199.4630994446885097
  0
LINE
  5
D18
  8
0
  6
VERDECKT
 62
     1
 10
30.0003458496270703
 20
179.6174986573390981
 30
-0.0000000000000399
 11
30.0003458496270703
 21
178.2008160540329129
 31
-0.0000000000000396
210
0.0000000000000002
220
1.0
230
-0.0000000000000002
  0
LINE
  5
D19
  8
0
  6
VERDECKT
 62
     1
 10
-30.0003458496268713
 20
179.6174986573392118
 30
-0.0000000000000399
 11
-30.0003458496268713
 21
178.2008160540329129
 31
-0.0000000000000396
210
0.0000000000000002
220
1.0
230
-0.0000000000000002
  0
ARC
  5
D1A
  8
0
  6
VERDECKT
 62
     1
 10
12.0003458496275695
 20
179.6174986573396097
 30
0.0
 40
17.9999999999992788
210
0.0
220
-0.0000000000000002
230
-1.0
 50
359.9999999999988063
 51
27.7551793916166183
  0
ARC
  5
D1B
  8
0
  6
VERDECKT
 62
     1
 10
-12.0003458496277808
 20
179.6174986573396097
 30
0.0
 40
17.9999999999992788
210
0.0
220
-0.0000000000000002
230
-1.0
 50
152.2448206083834918
 51
180.0000000000013074
  0
LINE
  5
D1C
  8
0
  6
VERDECKT
 62
     1
 10
-52.1174736896540409
 20
0.0000000000000258
 30
0.0
 11
-53.0
 21
10.0873218858169604
 31
-0.0000000000000022
210
0.0000000000000002
220
1.0
230
-0.0000000000000002
  0
LINE
  5
D1D
  8
0
  6
VERDECKT
 62
     1
 10
52.1174736896540409
 20
0.0000000000000026
 30
0.0
 11
53.0
 21
10.0873218858169391
 31
-0.0000000000000022
210
0.0000000000000002
220
1.0
230
-0.0000000000000002
  0
LINE
  5
D1E
  8
0
  6
VERDECKT
 62
     1
 10
53.0000000000000071
 20
77.1671842700028634
 30
-0.0000000000000171
 11
53.0
 21
10.0873218858169391
 31
-0.0000000000000022
210
0.0000000000000002
220
1.0
230
-0.0000000000000002
  0
LINE
  5
D1F
  8
0
  6
VERDECKT
 62
     1
 10
-52.9999999999999787
 20
77.167184270002906
 30
-0.0000000000000171
 11
-53.0
 21
10.0873218858169604
 31
-0.0000000000000022
210
0.0000000000000002
220
1.0
230
-0.0000000000000002
  0
ARC
  5
D20
  8
0
  6
VERDECKT
 62
     1
 10
42.9999999999995097
 20
77.1671842700027923
 30
0.0
 40
10.0000000000004707
210
0.0
220
-0.0000000000000002
230
-1.0
 50
0.0000000000006616
 51
26.5650511770760787
  0
ARC
  5
D21
  8
0
  6
VERDECKT
 62
     1
 10
-42.9999999999995381
 20
77.1671842700027639
 30
0.0
 40
10.0000000000004707
210
0.0
220
-0.0000000000000002
230
-1.0
 50
153.4349488229239
 51
179.9999999999992895
  0
LINE
  5
D22
  8
0
  6
VERDECKT
 62
     1
 10
37.763932022500363
 20
110.0000000000000995
 30
-0.0000000000000244
 11
51.94427190999928
 21
81.639320225002237
 31
-0.0000000000000181
210
0.0000000000000002
220
1.0
230
-0.0000000000000002
  0
LINE
  5
D23
  8
0
  6
VERDECKT
 62
     1
 10
-37.7639320225003132
 20
110.0000000000000995
 30
-0.0000000000000244
 11
-51.9442719099992303
 21
81.6393202250022796
 31
-0.0000000000000181
210
0.0000000000000002
220
1.0
230
-0.0000000000000002
  0
ENDBLK
  5
D25
  8
0
  0
BLOCK
  8
0
  2
A$C60395C5E
 70
     0
 10
0.0
 20
0.0
 30
0.0
  3
A$C60395C5E
  1

  0
CIRCLE
  5
D29
  8
0
  6
CONTINUOUS
 62
     3
 10
0.0000000000000967
 20
0.0000000000000168
 30
0.0
 40
31.5003458496270703
  0
CIRCLE
  5
D2A
  8
0
  6
CONTINUOUS
 62
     3
 10
0.0000000000000986
 20
0.0000000000000173
 30
0.0
 40
29.6066989995641201
  0
CIRCLE
  5
D2B
  8
0
  6
CONTINUOUS
 62
     3
 10
0.0000000000000244
 20
0.0000000000000126
 30
0.0
 40
39.9999999999998934
  0
CIRCLE
  5
D2C
  8
0
  6
CONTINUOUS
 62
     3
 10
0.0000000000000322
 20
0.0000000000000147
 30
0.0
 40
25.0003458496271698
  0
CIRCLE
  5
D2D
  8
0
  6
CONTINUOUS
 62
     3
 10
0.0000000000000986
 20
0.0000000000000173
 30
0.0
 40
27.9293656324097093
  0
CIRCLE
  5
D2E
  8
0
  6
CONTINUOUS
 62
     3
 10
0.0000000000000964
 20
0.0000000000000167
 30
0.0
 40
31.5003779067551513
  0
CIRCLE
  5
D2F
  8
0
  6
CONTINUOUS
 62
     3
 10
0.0000000000000171
 20
0.0000000000000105
 30
0.0
 40
55.0
  0
CIRCLE
  5
D30
  8
0
  6
CONTINUOUS
 62
     3
 10
0.0000000000000244
 20
0.0000000000000126
 30
0.0
 40
40.0000000000000568
  0
CIRCLE
  5
D31
  8
0
  6
VERDECKT
 62
     1
 10
0.0000000000000938
 20
0.000000000000016
 30
0.0
 40
29.5003458496270703
  0
CIRCLE
  5
D32
  8
0
  6
VERDECKT
 62
     1
 10
0.0000000000000322
 20
0.0000000000000147
 30
0.0
 40
26.5003458496271094
  0
CIRCLE
  5
D33
  8
0
  6
VERDECKT
 62
     1
 10
0.0000000000000244
 20
0.0000000000000126
 30
0.0
 40
37.9819563929388622
  0
CIRCLE
  5
D34
  8
0
  6
VERDECKT
 62
     1
 10
0.0000000000000938
 20
0.000000000000016
 30
0.0
 40
28.0003458496270703
  0
CIRCLE
  5
D35
  8
0
  6
VERDECKT
 62
     1
 10
0.0000000000000967
 20
0.0000000000000168
 30
0.0
 40
30.0003458496269602
  0
CIRCLE
  5
D36
  8
0
  6
VERDECKT
 62
     1
 10
0.0000000000000964
 20
0.0000000000000167
 30
0.0
 40
30.0003779067551797
  0
CIRCLE
  5
D37
  8
0
  6
VERDECKT
 62
     1
 10
0.0
 20
0.0000000000000058
 30
0.0
 40
54.1251133647407414
  0
CIRCLE
  5
D38
  8
0
  6
VERDECKT
 62
     1
 10
0.0
 20
0.0000000000000058
 30
0.0
 40
52.1174736896540409
  0
CIRCLE
  5
D39
  8
0
  6
VERDECKT
 62
     1
 10
0.0000000000000171
 20
0.0000000000000105
 30
0.0
 40
53.0
  0
CIRCLE
  5
D3A
  8
0
  6
VERDECKT
 62
     1
 10
0.0000000000000244
 20
0.0000000000000126
 30
0.0
 40
37.7639320225003416
  0
ENDBLK
  5
D3C
  8
0
  0
ENDSEC
  0
SECTION
  2
ENTITIES
  0
TEXT
  5
8F
  8
VOLL
 10
78.076754716981128
 20
31.025947764705851
 30
0.0
 40
1.8
  1

  7
GREEKS
  0
TEXT
  5
861
  8
VOLL
 10
325.957850268037987
 20
240.8281346467553021
 30
0.0
 40
1.8
  1

  7
GREEKS
  0
INSERT
  5
D26
  8
STEMPEL
  2
A$C1BC55C99
 10
0.0
 20
0.0
 30
0.0
  0
INSERT
  5
D3D
  8
STEMPEL
  2
A$C60395C5E
 10
-0.0000000000000122
 20
-155.0
 30
0.0
  0
VIEWPORT
  5
AEC
 67
     1
  8
0
 10
11.7348694062391097
 20
16.5965690138889812
 30
0.0
 40
66.3749794007719629
 41
33.8045213814024521
 68
     1
 69
     1
1001
ACAD
1000
MVIEW
1002
{
1070
    16
1010
0.0
1020
0.0
1030
0.0
1010
0.0
1020
0.0
1030
1.0
1040
0.0
1040
33.8045213814024521
1040
11.7348694062391097
1040
16.5965690138889812
1040
50.0
1040
0.0
1040
0.0
1070
     0
1070
  1500
1070
     1
1070
     1
1070
     0
1070
     0
1070
     0
1070
     0
1040
0.0
1040
0.0
1040
0.0
1040
10.0
1040
10.0
1040
10.0
1040
10.0
1070
     0
1002
{
1002
}
1002
}
  0
VIEWPORT
  5
AF0
 67
     1
  8
DEFPOINTS
 10
11.7359445314545798
 20
16.5971483681542296
 30
0.0
 40
23.8324846478828292
 41
33.5380962630593231
 68
     2
 69
     2
1001
ACAD
1000
MVIEW
1002
{
1070
    16
1010
307.5933107660576979
1020
80.0793154191311203
1030
-1.5612866210832539
1010
0.0
1020
0.0
1030
1405.6423530649199165
1040
0.0
1040
302.8333208296104999
1040
-200.7689205892635016
1040
70.526109667006466
1040
50.0
1040
0.0
1040
0.0
1070
     0
1070
  1500
1070
     1
1070
     0
1070
     0
1070
     0
1070
     0
1070
     0
1040
0.0
1040
0.0
1040
0.0
1040
1.0
1040
1.0
1040
10.0
1040
10.0
1070
     0
1002
{
1002
}
1002
}
  0
VIEWPORT
  5
B56
 67
     1
  8
DEFPOINTS
 10
19.3670250735692093
 20
27.0767083520459089
 30
0.0
 40
4.8487406947630802
 41
7.5258063212950637
 68
     3
 69
     3
1001
ACAD
1000
MVIEW
1002
{
1070
    16
1010
403.4441495670197924
1020
152.4387760852027043
1030
2.4838177108695798
1010
6.6895558056513664
1020
90.200817156443847
1030
311.9635338626732732
1040
3.050085082762652
1040
211.6641767404863117
1040
17.896555751337079
1040
0.0
1040
50.0
1040
0.0
1040
0.0
1070
     0
1070
  1500
1070
     1
1070
     0
1070
     0
1070
     0
1070
     0
1070
     0
1040
0.0
1040
0.0
1040
0.0
1040
1.0
1040
1.0
1040
10.0
1040
10.0
1070
     0
1002
{
1002
}
1002
}
  0
ENDSEC
  0
EOF
