  0
SECTION
  2
HEADER
  9
$ACADVER
  1
AC1009
  9
$INSBASE
 10
0.0
 20
0.0
 30
0.0
  9
$EXTMIN
 10
-0.026658466046456
 20
-0.0090630292066862
 30
-0.0101469006510797
  9
$EXTMAX
 10
141.0073859459980099
 20
282.8696600988852197
 30
0.011433611335633
  9
$LIMMIN
 10
0.0
 20
0.0
  9
$LIMMAX
 10
210.0
 20
297.0
  9
$ORTHOMODE
 70
     1
  9
$REGENMODE
 70
     1
  9
$FILLMODE
 70
     1
  9
$QTEXTMODE
 70
     0
  9
$MIRRTEXT
 70
     1
  9
$DRAGMODE
 70
     2
  9
$LTSCALE
 40
10.0
  9
$OSMODE
 70
    39
  9
$ATTMODE
 70
     1
  9
$TEXTSIZE
 40
3.5
  9
$TRACEWID
 40
0.5
  9
$TEXTSTYLE
  7
STANDARD
  9
$CLAYER
  8
DEFPOINTS
  9
$CELTYPE
  6
BYLAYER
  9
$CECOLOR
 62
   256
  9
$DIMSCALE
 40
1.0
  9
$DIMASZ
 40
3.5
  9
$DIMEXO
 40
1.0
  9
$DIMDLI
 40
7.0
  9
$DIMRND
 40
0.0
  9
$DIMDLE
 40
0.0
  9
$DIMEXE
 40
1.0
  9
$DIMTP
 40
0.0
  9
$DIMTM
 40
0.0
  9
$DIMTXT
 40
3.5
  9
$DIMCEN
 40
1.5
  9
$DIMTSZ
 40
0.0
  9
$DIMTOL
 70
     0
  9
$DIMLIM
 70
     0
  9
$DIMTIH
 70
     0
  9
$DIMTOH
 70
     0
  9
$DIMSE1
 70
     0
  9
$DIMSE2
 70
     0
  9
$DIMTAD
 70
     1
  9
$DIMZIN
 70
     8
  9
$DIMBLK
  1

  9
$DIMASO
 70
     1
  9
$DIMSHO
 70
     0
  9
$DIMPOST
  1

  9
$DIMAPOST
  1

  9
$DIMALT
 70
     0
  9
$DIMALTD
 70
     2
  9
$DIMALTF
 40
25.3999999999999986
  9
$DIMLFAC
 40
1.0
  9
$DIMTOFL
 70
     1
  9
$DIMTVP
 40
0.0
  9
$DIMTIX
 70
     0
  9
$DIMSOXD
 70
     0
  9
$DIMSAH
 70
     0
  9
$DIMBLK1
  1

  9
$DIMBLK2
  1

  9
$DIMSTYLE
  2
STANDARD
  9
$DIMCLRD
 70
     0
  9
$DIMCLRE
 70
     0
  9
$DIMCLRT
 70
     1
  9
$DIMTFAC
 40
0.5142857142857143
  9
$DIMGAP
 40
1.5
  9
$LUNITS
 70
     2
  9
$LUPREC
 70
     2
  9
$SKETCHINC
 40
1.0
  9
$FILLETRAD
 40
0.0
  9
$AUNITS
 70
     0
  9
$AUPREC
 70
     0
  9
$MENU
  1
ACAD
  9
$ELEVATION
 40
0.0
  9
$PELEVATION
 40
0.0
  9
$THICKNESS
 40
0.0
  9
$LIMCHECK
 70
     0
  9
$BLIPMODE
 70
     0
  9
$CHAMFERA
 40
0.0
  9
$CHAMFERB
 40
0.0
  9
$SKPOLY
 70
     0
  9
$TDCREATE
 40
2455397.8646990740671754
  9
$TDUPDATE
 40
2458418.3481250000186265
  9
$TDINDWG
 40
0.0606550579
  9
$TDUSRTIMER
 40
0.0606550579
  9
$USRTIMER
 70
     1
  9
$ANGBASE
 50
0.0
  9
$ANGDIR
 70
     0
  9
$PDMODE
 70
     0
  9
$PDSIZE
 40
0.0
  9
$PLINEWID
 40
0.0
  9
$COORDS
 70
     1
  9
$SPLFRAME
 70
     0
  9
$SPLINETYPE
 70
     6
  9
$SPLINESEGS
 70
     8
  9
$ATTDIA
 70
     1
  9
$ATTREQ
 70
     1
  9
$HANDLING
 70
     1
  9
$HANDSEED
  5
C89
  9
$SURFTAB1
 70
     6
  9
$SURFTAB2
 70
     6
  9
$SURFTYPE
 70
     6
  9
$SURFU
 70
     6
  9
$SURFV
 70
     6
  9
$UCSNAME
  2

  9
$UCSORG
 10
0.0
 20
0.0
 30
0.0
  9
$UCSXDIR
 10
1.0
 20
0.0
 30
0.0
  9
$UCSYDIR
 10
0.0
 20
1.0
 30
0.0
  9
$PUCSNAME
  2

  9
$PUCSORG
 10
0.0
 20
0.0
 30
0.0
  9
$PUCSXDIR
 10
1.0
 20
0.0
 30
0.0
  9
$PUCSYDIR
 10
0.0
 20
1.0
 30
0.0
  9
$USERI1
 70
     0
  9
$USERI2
 70
     0
  9
$USERI3
 70
     0
  9
$USERI4
 70
     0
  9
$USERI5
 70
     0
  9
$USERR1
 40
0.0
  9
$USERR2
 40
0.0
  9
$USERR3
 40
0.0
  9
$USERR4
 40
0.0
  9
$USERR5
 40
0.0
  9
$WORLDVIEW
 70
     1
  9
$SHADEDGE
 70
     3
  9
$SHADEDIF
 70
    70
  9
$TILEMODE
 70
     1
  9
$MAXACTVP
 70
    16
  9
$PLIMCHECK
 70
     0
  9
$PEXTMIN
 10
-0.2277201814444396
 20
-0.2429868189374673
 30
-0.0000000000112498
  9
$PEXTMAX
 10
13.9265855415560793
 20
19.7322391344727492
 30
0.0000000000002956
  9
$PLIMMIN
 10
-0.2500002402958907
 20
-0.2499999962453767
  9
$PLIMMAX
 10
10.7499995194082203
 20
8.2499997634587334
  9
$UNITMODE
 70
     0
  9
$VISRETAIN
 70
     0
  9
$PLINEGEN
 70
     0
  9
$PSLTSCALE
 70
     0
  0
ENDSEC
  0
SECTION
  2
TABLES
  0
TABLE
  2
VPORT
 70
     1
  0
VPORT
  2
*ACTIVE
 70
     0
 10
0.0
 20
0.0
 11
1.0
 21
1.0
 12
70.4903637399758338
 22
141.4302985348392099
 13
0.0
 23
0.0
 14
1.0
 24
1.0
 15
10.0
 25
10.0
 16
-0.0000000000000012
 26
0.0
 36
5.5852494427615742
 17
0.0
 27
0.0
 37
0.0
 40
285.1387395578768746
 41
2.0800000000000001
 42
50.0
 43
0.0
 44
0.0
 50
0.0
 51
0.0
 71
     0
 72
  1500
 73
     1
 74
     0
 75
     0
 76
     0
 77
     0
 78
     0
  0
ENDTAB
  0
TABLE
  2
LTYPE
 70
     2
  0
LTYPE
  2
CONTINUOUS
 70
     0
  3
Solid line
 72
    65
 73
     0
 40
0.0
  0
LTYPE
  2
VERDECKT
 70
     0
  3
Verdeckt __ __ __ __ __ __ __ __ __ __ __ __ __
 72
    65
 73
     2
 40
0.375
 49
0.25
 49
-0.125
  0
ENDTAB
  0
TABLE
  2
LAYER
 70
     3
  0
LAYER
  2
0
 70
     0
 62
     7
  6
CONTINUOUS
  0
LAYER
  2
DEFPOINTS
 70
     0
 62
     7
  6
CONTINUOUS
  0
LAYER
  2
VOLL
 70
     0
 62
     1
  6
CONTINUOUS
  0
ENDTAB
  0
TABLE
  2
STYLE
 70
     3
  0
STYLE
  2
STANDARD
 70
     0
 40
0.0
 41
0.8
 50
0.0
 71
     0
 42
3.5
  3
simplex.shx
  4

  0
STYLE
  2
ANNOTATIVE
 70
     0
 40
0.0
 41
1.0
 50
0.0
 71
     0
 42
0.2
  3
txt
  4

  0
STYLE
  2
GREEKS
 70
     0
 40
0.0
 41
0.8
 50
0.0
 71
     0
 42
2.5
  3
SIMPLEX.shx
  4

  0
ENDTAB
  0
TABLE
  2
VIEW
 70
     0
  0
ENDTAB
  0
TABLE
  2
UCS
 70
     0
  0
ENDTAB
  0
TABLE
  2
APPID
 70
    11
  0
APPID
  2
ACAD
 70
     0
  0
APPID
  2
ACADANNOTATIVE
 70
     0
  0
APPID
  2
ACAECLAYERSTANDARD
 70
     0
  0
APPID
  2
ACCMTRANSPARENCY
 70
     0
  0
APPID
  2
ACAD_NAV_VCDISPLAY
 70
     0
  0
APPID
  2
ACAD_STEPID
 70
     0
  0
APPID
  2
ACAD_ASSOCPERSSUBENTMANAGER
 70
     0
  0
APPID
  2
ACAD_PSEXT
 70
     0
  0
APPID
  2
ACAD_MLEADERVER
 70
     0
  0
APPID
  2
ACAD_OBJECT_CHANGE_GUID
 70
     0
  0
APPID
  2
ACAD_EXEMPT_FROM_CAD_STANDARDS
 70
     0
  0
ENDTAB
  0
TABLE
  2
DIMSTYLE
 70
     2
  0
DIMSTYLE
  2
STANDARD
 70
     0
  3

  4

  5

  6

  7

 40
1.0
 41
0.18
 42
0.0625
 43
0.38
 44
0.18
 45
0.0
 46
0.0
 47
0.0
 48
0.0
140
0.18
141
0.09
142
0.0
143
25.3999999999999986
144
1.0
145
0.0
146
1.0
147
0.09
 71
     0
 72
     0
 73
     1
 74
     1
 75
     0
 76
     0
 77
     0
 78
     0
170
     0
171
     2
172
     0
173
     0
174
     0
175
     0
176
     0
177
     0
178
     0
  0
DIMSTYLE
  2
ANNOTATIVE
 70
     0
  3

  4

  5

  6

  7

 40
1.0
 41
0.18
 42
0.0625
 43
0.38
 44
0.18
 45
0.0
 46
0.0
 47
0.0
 48
0.0
140
0.18
141
0.09
142
0.0
143
25.3999999999999986
144
1.0
145
0.0
146
1.0
147
0.09
 71
     0
 72
     0
 73
     1
 74
     1
 75
     0
 76
     0
 77
     0
 78
     0
170
     0
171
     2
172
     0
173
     0
174
     0
175
     0
176
     0
177
     0
178
     0
  0
ENDTAB
  0
ENDSEC
  0
SECTION
  2
BLOCKS
  0
BLOCK
  8
0
  2
$MODEL_SPACE
 70
     0
 10
0.0
 20
0.0
 30
0.0
  3
$MODEL_SPACE
  1

  0
ENDBLK
  5
C01
  8
0
  0
BLOCK
 67
     1
  8
0
  2
$PAPER_SPACE
 70
     0
 10
0.0
 20
0.0
 30
0.0
  3
$PAPER_SPACE
  1

  0
ENDBLK
  5
BFD
 67
     1
  8
0
  0
BLOCK
  8
0
  2
A$C0B7E166B
 70
     0
 10
0.0
 20
0.0
 30
0.0
  3
A$C0B7E166B
  1

  0
LINE
  5
9DF
  8
0
  6
CONTINUOUS
 62
     3
 10
388.2621453751517038
 20
-76.3952485374270225
 30
0.0
 11
519.8623267587365717
 21
-76.3952485374270225
 31
0.0
210
0.0
220
1.0
230
0.0
  0
LINE
  5
9E0
  8
0
  6
CONTINUOUS
 62
     3
 10
383.5622360669443083
 20
3.6047514625729762
 30
0.0
 11
524.5622360669442514
 21
3.6047514625729762
 31
0.0
210
0.0
220
1.0
230
0.0
  0
LINE
  5
9E1
  8
0
  6
CONTINUOUS
 62
     3
 10
383.5622360669443083
 20
5.604751462573005
 30
0.0
 11
524.5622360669442514
 21
5.604751462573005
 31
0.0
210
0.0
220
1.0
230
0.0
  0
LINE
  5
9E2
  8
0
  6
CONTINUOUS
 62
     3
 10
520.5622360669442514
 20
3.6047514625729482
 30
0.0
 11
520.5622360669442514
 21
-68.3952485374270225
 31
0.0
210
0.0
220
1.0
230
0.0
  0
LINE
  5
9E3
  8
0
  6
CONTINUOUS
 62
     3
 10
387.5622360669443083
 20
3.6047514625729482
 30
0.0
 11
387.5622360669443083
 21
-68.3952485374270225
 31
0.0
210
0.0
220
1.0
230
0.0
  0
LINE
  5
9E4
  8
0
  6
CONTINUOUS
 62
     3
 10
388.2621453751517038
 20
-76.3952485374270225
 30
0.0
 11
387.5622360669443083
 21
-68.3952485374270225
 31
0.0
210
0.0
220
1.0
230
0.0
  0
LINE
  5
9E5
  8
0
  6
CONTINUOUS
 62
     3
 10
519.8623267587365717
 20
-76.3952485374270225
 30
0.0
 11
520.5622360669442514
 21
-68.3952485374270225
 31
0.0
210
0.0
220
1.0
230
0.0
  0
LINE
  5
9E6
  8
0
  6
CONTINUOUS
 62
     3
 10
524.5622360669442514
 20
5.604751462573005
 30
0.0
 11
524.5622360669442514
 21
3.6047514625729762
 31
0.0
210
0.0
220
1.0
230
0.0
  0
LINE
  5
9E7
  8
0
  6
CONTINUOUS
 62
     3
 10
383.5622360669443083
 20
5.604751462573005
 30
0.0
 11
383.5622360669443083
 21
3.6047514625729762
 31
0.0
210
0.0
220
1.0
230
0.0
  0
LINE
  5
9E8
  8
0
  6
CONTINUOUS
 62
     3
 10
398.3554802290191788
 20
12.6047514625729793
 30
0.0
 11
509.7689919048693241
 21
12.6047514625729793
 31
0.0
210
0.0
220
1.0
230
0.0
  0
LINE
  5
9E9
  8
0
  6
CONTINUOUS
 62
     3
 10
509.7689919048693241
 20
12.6047514625729793
 30
0.0
 11
510.7199307428596171
 21
10.5654565435210994
 31
0.0
210
0.0
220
1.0
230
0.0
  0
LINE
  5
9EA
  8
0
  6
CONTINUOUS
 62
     3
 10
398.3554802290191788
 20
12.6047514625729793
 30
0.0
 11
397.4045413910287152
 21
10.5654565435210994
 31
0.0
210
0.0
220
1.0
230
0.0
  0
ARC
  5
9EB
  8
0
  6
CONTINUOUS
 62
     3
 10
-420.0622360669768796
 20
-0.0000000000105977
 30
0.0
 40
25.0000000000350795
210
0.0
220
0.0
230
-1.0
 50
20.1330287273232003
 51
24.9999999999984084
  0
ARC
  5
9EC
  8
0
  6
CONTINUOUS
 62
     3
 10
-488.0622360669116802
 20
-0.000000000010445
 30
0.0
 40
25.0000000000346603
210
0.0
220
0.0
230
-1.0
 50
155.0000000000015064
 51
159.8669712726768068
  0
ARC
  5
9ED
  8
0
  6
CONTINUOUS
 62
     3
 10
-396.5426761859332032
 20
4.5522076386347852
 30
0.0
 40
4.0528170554968197
210
0.0
220
0.0
230
-1.0
 50
15.0526606600203596
 51
89.9999999999992042
  0
ARC
  5
9EE
  8
0
  6
CONTINUOUS
 62
     3
 10
-511.581795947955527
 20
4.5522076386349202
 30
0.0
 40
4.052817055496643
210
0.0
220
0.0
230
-1.0
 50
89.9999999999976126
 51
164.9473393399806014
  0
LINE
  5
9EF
  8
0
  6
CONTINUOUS
 62
     3
 10
511.5817959479552997
 20
8.6050246941315631
 30
0.0
 11
396.5426761859330895
 21
8.6050246941315631
 31
0.0
210
0.0
220
1.0
230
0.0
  0
LINE
  5
9F0
  8
0
  6
VERDECKT
 62
     1
 10
390.7716949690101274
 20
-76.3952485374270225
 30
0.0
 11
390.0622360669440809
 21
-68.2860961801557664
 31
0.0
210
0.0
220
1.0
230
0.0
  0
LINE
  5
9F1
  8
0
  6
VERDECKT
 62
     1
 10
517.3527771648783755
 20
-76.3952485374270225
 30
0.0
 11
518.0622360669443651
 21
-68.2860961801557664
 31
0.0
210
0.0
220
1.0
230
0.0
  0
LINE
  5
9F2
  8
0
  6
VERDECKT
 62
     1
 10
518.0622360669442514
 20
3.604751462573005
 30
0.0
 11
518.0622360669442514
 21
-68.2860961801557664
 31
0.0
210
0.0
220
1.0
230
0.0
  0
LINE
  5
9F3
  8
0
  6
VERDECKT
 62
     1
 10
390.0622360669443083
 20
3.6047514625729482
 30
0.0
 11
390.0622360669443083
 21
-68.2860961801557664
 31
0.0
210
0.0
220
1.0
230
0.0
  0
LINE
  5
9F4
  8
0
  6
VERDECKT
 62
     1
 10
514.0622360669442514
 20
5.6047514625729757
 30
0.0
 11
514.0622360669442514
 21
3.6047514625729482
 31
0.0
210
0.0
220
1.0
230
0.0
  0
LINE
  5
9F5
  8
0
  6
VERDECKT
 62
     1
 10
394.0622360669443083
 20
5.6047514625729757
 30
0.0
 11
394.0622360669443083
 21
3.6047514625729482
 31
0.0
210
0.0
220
1.0
230
0.0
  0
LINE
  5
9F6
  8
0
  6
VERDECKT
 62
     1
 10
396.5897361517800164
 20
8.6047514625730344
 30
0.0
 11
511.5347359821083728
 21
8.6047514625730344
 31
0.0
210
0.0
220
1.0
230
0.0
  0
LINE
  5
9F7
  8
0
  6
VERDECKT
 62
     1
 10
403.0622360669440809
 20
-72.3952485374270225
 30
0.0
 11
505.0622360669443083
 21
-72.3952485374270225
 31
0.0
210
0.0
220
1.0
230
0.0
  0
POLYLINE
  5
9F8
  8
0
  6
VERDECKT
 62
     1
 66
     1
 10
0.0
 20
0.0
 30
0.0
 70
     8
  0
VERTEX
  5
A8D
  8
0
 62
     1
 10
396.589999999999975
 20
8.6047499999999992
 30
0.0
 70
    32
  0
VERTEX
  5
A8E
  8
0
 62
     1
 10
396.589999999999975
 20
8.6047499999999992
 30
0.0
 70
    32
  0
VERTEX
  5
A8F
  8
0
 62
     1
 10
396.589999999999975
 20
8.6047499999999992
 30
0.0
 70
    32
  0
VERTEX
  5
A90
  8
0
 62
     1
 10
396.589999999999975
 20
8.6047499999999992
 30
0.0
 70
    32
  0
VERTEX
  5
A91
  8
0
 62
     1
 10
396.589999999999975
 20
8.6047499999999992
 30
0.0
 70
    32
  0
VERTEX
  5
A92
  8
0
 62
     1
 10
396.589999999999975
 20
8.6047499999999992
 30
0.0
 70
    32
  0
VERTEX
  5
A93
  8
0
 62
     1
 10
396.589999999999975
 20
8.6047499999999992
 30
0.0
 70
    32
  0
VERTEX
  5
A94
  8
0
 62
     1
 10
396.589999999999975
 20
8.6047499999999992
 30
0.0
 70
    32
  0
VERTEX
  5
A95
  8
0
 62
     1
 10
396.589999999999975
 20
8.6047499999999992
 30
0.0
 70
    32
  0
VERTEX
  5
A96
  8
0
 62
     1
 10
396.589999999999975
 20
8.6047499999999992
 30
0.0
 70
    32
  0
VERTEX
  5
A97
  8
0
 62
     1
 10
396.589999999999975
 20
8.6047499999999992
 30
0.0
 70
    32
  0
VERTEX
  5
A98
  8
0
 62
     1
 10
396.589999999999975
 20
8.6047499999999992
 30
0.0
 70
    32
  0
VERTEX
  5
A99
  8
0
 62
     1
 10
396.589999999999975
 20
8.6047499999999992
 30
0.0
 70
    32
  0
VERTEX
  5
A9A
  8
0
 62
     1
 10
396.589999999999975
 20
8.6047499999999992
 30
0.0
 70
    32
  0
VERTEX
  5
A9B
  8
0
 62
     1
 10
396.589999999999975
 20
8.6047499999999992
 30
0.0
 70
    32
  0
VERTEX
  5
A9C
  8
0
 62
     1
 10
396.589999999999975
 20
8.6047499999999992
 30
0.0
 70
    32
  0
VERTEX
  5
A9D
  8
0
 62
     1
 10
396.589999999999975
 20
8.6047499999999992
 30
0.0
 70
    32
  0
VERTEX
  5
A9E
  8
0
 62
     1
 10
396.589999999999975
 20
8.6047499999999992
 30
0.0
 70
    32
  0
VERTEX
  5
A9F
  8
0
 62
     1
 10
396.589999999999975
 20
8.6047499999999992
 30
0.0
 70
    32
  0
VERTEX
  5
AA0
  8
0
 62
     1
 10
396.589999999999975
 20
8.6047499999999992
 30
0.0
 70
    32
  0
VERTEX
  5
AA1
  8
0
 62
     1
 10
396.589999999999975
 20
8.6047499999999992
 30
0.0
 70
    32
  0
VERTEX
  5
AA2
  8
0
 62
     1
 10
396.589999999999975
 20
8.6047499999999992
 30
0.0
 70
    32
  0
VERTEX
  5
AA3
  8
0
 62
     1
 10
396.589999999999975
 20
8.6047499999999992
 30
0.0
 70
    32
  0
VERTEX
  5
AA4
  8
0
 62
     1
 10
396.589999999999975
 20
8.6047499999999992
 30
0.0
 70
    32
  0
VERTEX
  5
AA5
  8
0
 62
     1
 10
396.589999999999975
 20
8.6047499999999992
 30
0.0
 70
    32
  0
VERTEX
  5
AA6
  8
0
 62
     1
 10
396.589999999999975
 20
8.6047499999999992
 30
0.0
 70
    32
  0
VERTEX
  5
AA7
  8
0
 62
     1
 10
396.589999999999975
 20
8.6047499999999992
 30
0.0
 70
    32
  0
VERTEX
  5
AA8
  8
0
 62
     1
 10
396.589999999999975
 20
8.6047499999999992
 30
0.0
 70
    32
  0
VERTEX
  5
AA9
  8
0
 62
     1
 10
396.589999999999975
 20
8.6047499999999992
 30
0.0
 70
    32
  0
VERTEX
  5
AAA
  8
0
 62
     1
 10
396.589999999999975
 20
8.6047499999999992
 30
0.0
 70
    32
  0
VERTEX
  5
AAB
  8
0
 62
     1
 10
396.589999999999975
 20
8.6047499999999992
 30
0.0
 70
    32
  0
VERTEX
  5
AAC
  8
0
 62
     1
 10
396.589999999999975
 20
8.6047499999999992
 30
0.0
 70
    32
  0
VERTEX
  5
AAD
  8
0
 62
     1
 10
396.589999999999975
 20
8.6047499999999992
 30
0.0
 70
    32
  0
VERTEX
  5
AAE
  8
0
 62
     1
 10
396.589999999999975
 20
8.6047499999999992
 30
0.0
 70
    32
  0
VERTEX
  5
AAF
  8
0
 62
     1
 10
396.589999999999975
 20
8.6047499999999992
 30
0.0
 70
    32
  0
VERTEX
  5
AB0
  8
0
 62
     1
 10
396.589999999999975
 20
8.6047499999999992
 30
0.0
 70
    32
  0
VERTEX
  5
AB1
  8
0
 62
     1
 10
396.589999999999975
 20
8.6047499999999992
 30
0.0
 70
    32
  0
VERTEX
  5
AB2
  8
0
 62
     1
 10
396.589999999999975
 20
8.6047499999999992
 30
0.0
 70
    32
  0
VERTEX
  5
AB3
  8
0
 62
     1
 10
396.589999999999975
 20
8.6047499999999992
 30
0.0
 70
    32
  0
VERTEX
  5
AB4
  8
0
 62
     1
 10
396.589999999999975
 20
8.6047499999999992
 30
0.0
 70
    32
  0
VERTEX
  5
AB5
  8
0
 62
     1
 10
396.589999999999975
 20
8.6047499999999992
 30
0.0
 70
    32
  0
VERTEX
  5
AB6
  8
0
 62
     1
 10
396.589999999999975
 20
8.6047499999999992
 30
0.0
 70
    32
  0
VERTEX
  5
AB7
  8
0
 62
     1
 10
396.589999999999975
 20
8.6047499999999992
 30
0.0
 70
    32
  0
VERTEX
  5
AB8
  8
0
 62
     1
 10
396.589999999999975
 20
8.6047499999999992
 30
0.0
 70
    32
  0
VERTEX
  5
AB9
  8
0
 62
     1
 10
396.589999999999975
 20
8.6047499999999992
 30
0.0
 70
    32
  0
VERTEX
  5
ABA
  8
0
 62
     1
 10
396.589999999999975
 20
8.6047499999999992
 30
0.0
 70
    32
  0
VERTEX
  5
ABB
  8
0
 62
     1
 10
396.589999999999975
 20
8.6047499999999992
 30
0.0
 70
    32
  0
VERTEX
  5
ABC
  8
0
 62
     1
 10
396.589999999999975
 20
8.6047499999999992
 30
0.0
 70
    32
  0
VERTEX
  5
ABD
  8
0
 62
     1
 10
396.589999999999975
 20
8.6047499999999992
 30
0.0
 70
    32
  0
VERTEX
  5
ABE
  8
0
 62
     1
 10
396.589999999999975
 20
8.6047499999999992
 30
0.0
 70
    32
  0
VERTEX
  5
ABF
  8
0
 62
     1
 10
396.589999999999975
 20
8.6047499999999992
 30
0.0
 70
    32
  0
VERTEX
  5
AC0
  8
0
 62
     1
 10
396.589999999999975
 20
8.6047499999999992
 30
0.0
 70
    32
  0
VERTEX
  5
AC1
  8
0
 62
     1
 10
396.589999999999975
 20
8.6047499999999992
 30
0.0
 70
    32
  0
VERTEX
  5
AC2
  8
0
 62
     1
 10
396.589999999999975
 20
8.6047499999999992
 30
0.0
 70
    32
  0
VERTEX
  5
AC3
  8
0
 62
     1
 10
396.589999999999975
 20
8.6047499999999992
 30
0.0
 70
    32
  0
VERTEX
  5
AC4
  8
0
 62
     1
 10
396.589999999999975
 20
8.6047499999999992
 30
0.0
 70
    32
  0
VERTEX
  5
AC5
  8
0
 62
     1
 10
396.589999999999975
 20
8.6047499999999992
 30
0.0
 70
    32
  0
VERTEX
  5
AC6
  8
0
 62
     1
 10
396.589999999999975
 20
8.6047499999999992
 30
0.0
 70
    32
  0
VERTEX
  5
AC7
  8
0
 62
     1
 10
396.589999999999975
 20
8.6047499999999992
 30
0.0
 70
    32
  0
VERTEX
  5
AC8
  8
0
 62
     1
 10
396.589999999999975
 20
8.6047499999999992
 30
0.0
 70
    32
  0
VERTEX
  5
AC9
  8
0
 62
     1
 10
396.589999999999975
 20
8.6047499999999992
 30
0.0
 70
    32
  0
VERTEX
  5
ACA
  8
0
 62
     1
 10
396.589999999999975
 20
8.6047499999999992
 30
0.0
 70
    32
  0
VERTEX
  5
ACB
  8
0
 62
     1
 10
396.589999999999975
 20
8.6047499999999992
 30
0.0
 70
    32
  0
VERTEX
  5
ACC
  8
0
 62
     1
 10
396.589999999999975
 20
8.6047499999999992
 30
0.0
 70
    32
  0
VERTEX
  5
ACD
  8
0
 62
     1
 10
396.589999999999975
 20
8.6047499999999992
 30
0.0
 70
    32
  0
VERTEX
  5
ACE
  8
0
 62
     1
 10
396.589999999999975
 20
8.6047499999999992
 30
0.0
 70
    32
  0
VERTEX
  5
ACF
  8
0
 62
     1
 10
396.589999999999975
 20
8.6047499999999992
 30
0.0
 70
    32
  0
VERTEX
  5
AD0
  8
0
 62
     1
 10
396.589999999999975
 20
8.6047499999999992
 30
0.0
 70
    32
  0
VERTEX
  5
AD1
  8
0
 62
     1
 10
396.589999999999975
 20
8.6047499999999992
 30
0.0
 70
    32
  0
VERTEX
  5
AD2
  8
0
 62
     1
 10
396.589999999999975
 20
8.6047499999999992
 30
0.0
 70
    32
  0
VERTEX
  5
AD3
  8
0
 62
     1
 10
396.589999999999975
 20
8.6047499999999992
 30
0.0
 70
    32
  0
VERTEX
  5
AD4
  8
0
 62
     1
 10
396.589999999999975
 20
8.6047499999999992
 30
0.0
 70
    32
  0
VERTEX
  5
AD5
  8
0
 62
     1
 10
396.589999999999975
 20
8.6047499999999992
 30
0.0
 70
    32
  0
VERTEX
  5
AD6
  8
0
 62
     1
 10
396.589999999999975
 20
8.6047499999999992
 30
0.0
 70
    32
  0
VERTEX
  5
AD7
  8
0
 62
     1
 10
396.589999999999975
 20
8.6047499999999992
 30
0.0
 70
    32
  0
VERTEX
  5
AD8
  8
0
 62
     1
 10
396.589999999999975
 20
8.6047499999999992
 30
0.0
 70
    32
  0
VERTEX
  5
AD9
  8
0
 62
     1
 10
396.589999999999975
 20
8.6047499999999992
 30
0.0
 70
    32
  0
VERTEX
  5
ADA
  8
0
 62
     1
 10
396.589999999999975
 20
8.6047499999999992
 30
0.0
 70
    32
  0
VERTEX
  5
ADB
  8
0
 62
     1
 10
396.589999999999975
 20
8.6047499999999992
 30
0.0
 70
    32
  0
VERTEX
  5
ADC
  8
0
 62
     1
 10
396.589999999999975
 20
8.6047499999999992
 30
0.0
 70
    32
  0
VERTEX
  5
ADD
  8
0
 62
     1
 10
396.589999999999975
 20
8.6047499999999992
 30
0.0
 70
    32
  0
VERTEX
  5
ADE
  8
0
 62
     1
 10
396.589999999999975
 20
8.6047499999999992
 30
0.0
 70
    32
  0
VERTEX
  5
ADF
  8
0
 62
     1
 10
396.589999999999975
 20
8.6047499999999992
 30
0.0
 70
    32
  0
VERTEX
  5
AE0
  8
0
 62
     1
 10
396.589999999999975
 20
8.6047499999999992
 30
0.0
 70
    32
  0
VERTEX
  5
AE1
  8
0
 62
     1
 10
396.589999999999975
 20
8.6047499999999992
 30
0.0
 70
    32
  0
VERTEX
  5
AE2
  8
0
 62
     1
 10
396.589999999999975
 20
8.6047499999999992
 30
0.0
 70
    32
  0
VERTEX
  5
AE3
  8
0
 62
     1
 10
396.589999999999975
 20
8.6047499999999992
 30
0.0
 70
    32
  0
VERTEX
  5
AE4
  8
0
 62
     1
 10
396.589999999999975
 20
8.6047499999999992
 30
0.0
 70
    32
  0
VERTEX
  5
AE5
  8
0
 62
     1
 10
396.589999999999975
 20
8.6047499999999992
 30
0.0
 70
    32
  0
VERTEX
  5
AE6
  8
0
 62
     1
 10
396.589999999999975
 20
8.6047499999999992
 30
0.0
 70
    32
  0
VERTEX
  5
AE7
  8
0
 62
     1
 10
396.589999999999975
 20
8.6047499999999992
 30
0.0
 70
    32
  0
VERTEX
  5
AE8
  8
0
 62
     1
 10
396.589999999999975
 20
8.6047499999999992
 30
0.0
 70
    32
  0
VERTEX
  5
AE9
  8
0
 62
     1
 10
396.589999999999975
 20
8.6047499999999992
 30
0.0
 70
    32
  0
VERTEX
  5
AEA
  8
0
 62
     1
 10
396.589999999999975
 20
8.6047499999999992
 30
0.0
 70
    32
  0
VERTEX
  5
AEB
  8
0
 62
     1
 10
396.589999999999975
 20
8.6047499999999992
 30
0.0
 70
    32
  0
VERTEX
  5
AEC
  8
0
 62
     1
 10
396.589999999999975
 20
8.6047499999999992
 30
0.0
 70
    32
  0
VERTEX
  5
AED
  8
0
 62
     1
 10
396.589999999999975
 20
8.6047499999999992
 30
0.0
 70
    32
  0
VERTEX
  5
AEE
  8
0
 62
     1
 10
396.589999999999975
 20
8.6047499999999992
 30
0.0
 70
    32
  0
VERTEX
  5
AEF
  8
0
 62
     1
 10
396.589999999999975
 20
8.6047499999999992
 30
0.0
 70
    32
  0
VERTEX
  5
AF0
  8
0
 62
     1
 10
396.589999999999975
 20
8.6047499999999992
 30
0.0
 70
    32
  0
VERTEX
  5
AF1
  8
0
 62
     1
 10
396.589999999999975
 20
8.6047499999999992
 30
0.0
 70
    32
  0
VERTEX
  5
AF2
  8
0
 62
     1
 10
396.589999999999975
 20
8.6047499999999992
 30
0.0
 70
    32
  0
VERTEX
  5
AF3
  8
0
 62
     1
 10
396.589999999999975
 20
8.6047499999999992
 30
0.0
 70
    32
  0
VERTEX
  5
AF4
  8
0
 62
     1
 10
396.589999999999975
 20
8.6047499999999992
 30
0.0
 70
    32
  0
VERTEX
  5
AF5
  8
0
 62
     1
 10
396.589999999999975
 20
8.6047499999999992
 30
0.0
 70
    32
  0
VERTEX
  5
AF6
  8
0
 62
     1
 10
396.589999999999975
 20
8.6047499999999992
 30
0.0
 70
    32
  0
VERTEX
  5
AF7
  8
0
 62
     1
 10
396.589999999999975
 20
8.6047499999999992
 30
0.0
 70
    32
  0
VERTEX
  5
AF8
  8
0
 62
     1
 10
396.589999999999975
 20
8.6047499999999992
 30
0.0
 70
    32
  0
VERTEX
  5
AF9
  8
0
 62
     1
 10
396.589999999999975
 20
8.6047499999999992
 30
0.0
 70
    32
  0
VERTEX
  5
AFA
  8
0
 62
     1
 10
396.589999999999975
 20
8.6047499999999992
 30
0.0
 70
    32
  0
VERTEX
  5
AFB
  8
0
 62
     1
 10
396.589999999999975
 20
8.6047499999999992
 30
0.0
 70
    32
  0
VERTEX
  5
AFC
  8
0
 62
     1
 10
396.589999999999975
 20
8.6047499999999992
 30
0.0
 70
    32
  0
VERTEX
  5
AFD
  8
0
 62
     1
 10
396.589999999999975
 20
8.6047499999999992
 30
0.0
 70
    32
  0
VERTEX
  5
AFE
  8
0
 62
     1
 10
396.589999999999975
 20
8.6047499999999992
 30
0.0
 70
    32
  0
VERTEX
  5
AFF
  8
0
 62
     1
 10
396.589999999999975
 20
8.6047499999999992
 30
0.0
 70
    32
  0
VERTEX
  5
B00
  8
0
 62
     1
 10
396.589999999999975
 20
8.6047499999999992
 30
0.0
 70
    32
  0
VERTEX
  5
B01
  8
0
 62
     1
 10
396.589999999999975
 20
8.6047499999999992
 30
0.0
 70
    32
  0
VERTEX
  5
B02
  8
0
 62
     1
 10
396.589999999999975
 20
8.6047499999999992
 30
0.0
 70
    32
  0
VERTEX
  5
B03
  8
0
 62
     1
 10
396.589999999999975
 20
8.6047499999999992
 30
0.0
 70
    32
  0
VERTEX
  5
B04
  8
0
 62
     1
 10
396.589999999999975
 20
8.6047499999999992
 30
0.0
 70
    32
  0
VERTEX
  5
B05
  8
0
 62
     1
 10
396.589999999999975
 20
8.6047499999999992
 30
0.0
 70
    32
  0
VERTEX
  5
B06
  8
0
 62
     1
 10
396.589999999999975
 20
8.6047499999999992
 30
0.0
 70
    32
  0
VERTEX
  5
B07
  8
0
 62
     1
 10
396.589999999999975
 20
8.6047499999999992
 30
0.0
 70
    32
  0
VERTEX
  5
B08
  8
0
 62
     1
 10
396.589999999999975
 20
8.6047499999999992
 30
0.0
 70
    32
  0
VERTEX
  5
B09
  8
0
 62
     1
 10
396.589999999999975
 20
8.6047499999999992
 30
0.0
 70
    32
  0
VERTEX
  5
B0A
  8
0
 62
     1
 10
396.589999999999975
 20
8.6047499999999992
 30
0.0
 70
    32
  0
VERTEX
  5
B0B
  8
0
 62
     1
 10
396.589999999999975
 20
8.6047499999999992
 30
0.0
 70
    32
  0
VERTEX
  5
B0C
  8
0
 62
     1
 10
396.589999999999975
 20
8.6047499999999992
 30
0.0
 70
    32
  0
VERTEX
  5
B0D
  8
0
 62
     1
 10
396.589999999999975
 20
8.6047499999999992
 30
0.0
 70
    32
  0
SEQEND
  5
B0E
  8
0
 62
     1
  0
POLYLINE
  5
9F9
  8
0
  6
VERDECKT
 62
     1
 66
     1
 10
0.0
 20
0.0
 30
0.0
 70
     8
  0
VERTEX
  5
B0F
  8
0
 62
     1
 10
511.535000000000025
 20
8.6050199999999997
 30
0.0
 70
    32
  0
VERTEX
  5
B10
  8
0
 62
     1
 10
511.535000000000025
 20
8.6050199999999997
 30
0.0
 70
    32
  0
VERTEX
  5
B11
  8
0
 62
     1
 10
511.535000000000025
 20
8.6050199999999997
 30
0.0
 70
    32
  0
VERTEX
  5
B12
  8
0
 62
     1
 10
511.535000000000025
 20
8.6050199999999997
 30
0.0
 70
    32
  0
VERTEX
  5
B13
  8
0
 62
     1
 10
511.535000000000025
 20
8.6050199999999997
 30
0.0
 70
    32
  0
VERTEX
  5
B14
  8
0
 62
     1
 10
511.535000000000025
 20
8.6050199999999997
 30
0.0
 70
    32
  0
VERTEX
  5
B15
  8
0
 62
     1
 10
511.535000000000025
 20
8.6050199999999997
 30
0.0
 70
    32
  0
VERTEX
  5
B16
  8
0
 62
     1
 10
511.535000000000025
 20
8.6050199999999997
 30
0.0
 70
    32
  0
VERTEX
  5
B17
  8
0
 62
     1
 10
511.535000000000025
 20
8.6050199999999997
 30
0.0
 70
    32
  0
VERTEX
  5
B18
  8
0
 62
     1
 10
511.535000000000025
 20
8.6050199999999997
 30
0.0
 70
    32
  0
VERTEX
  5
B19
  8
0
 62
     1
 10
511.535000000000025
 20
8.6050199999999997
 30
0.0
 70
    32
  0
VERTEX
  5
B1A
  8
0
 62
     1
 10
511.535000000000025
 20
8.6050199999999997
 30
0.0
 70
    32
  0
VERTEX
  5
B1B
  8
0
 62
     1
 10
511.535000000000025
 20
8.6050199999999997
 30
0.0
 70
    32
  0
VERTEX
  5
B1C
  8
0
 62
     1
 10
511.535000000000025
 20
8.6050199999999997
 30
0.0
 70
    32
  0
VERTEX
  5
B1D
  8
0
 62
     1
 10
511.535000000000025
 20
8.6050199999999997
 30
0.0
 70
    32
  0
VERTEX
  5
B1E
  8
0
 62
     1
 10
511.535000000000025
 20
8.6050199999999997
 30
0.0
 70
    32
  0
VERTEX
  5
B1F
  8
0
 62
     1
 10
511.535000000000025
 20
8.6050199999999997
 30
0.0
 70
    32
  0
VERTEX
  5
B20
  8
0
 62
     1
 10
511.535000000000025
 20
8.6050199999999997
 30
0.0
 70
    32
  0
VERTEX
  5
B21
  8
0
 62
     1
 10
511.535000000000025
 20
8.6050199999999997
 30
0.0
 70
    32
  0
VERTEX
  5
B22
  8
0
 62
     1
 10
511.535000000000025
 20
8.6050199999999997
 30
0.0
 70
    32
  0
VERTEX
  5
B23
  8
0
 62
     1
 10
511.535000000000025
 20
8.6050199999999997
 30
0.0
 70
    32
  0
VERTEX
  5
B24
  8
0
 62
     1
 10
511.535000000000025
 20
8.6050199999999997
 30
0.0
 70
    32
  0
VERTEX
  5
B25
  8
0
 62
     1
 10
511.535000000000025
 20
8.6050199999999997
 30
0.0
 70
    32
  0
VERTEX
  5
B26
  8
0
 62
     1
 10
511.535000000000025
 20
8.6050199999999997
 30
0.0
 70
    32
  0
VERTEX
  5
B27
  8
0
 62
     1
 10
511.535000000000025
 20
8.6050199999999997
 30
0.0
 70
    32
  0
VERTEX
  5
B28
  8
0
 62
     1
 10
511.535000000000025
 20
8.6050199999999997
 30
0.0
 70
    32
  0
VERTEX
  5
B29
  8
0
 62
     1
 10
511.535000000000025
 20
8.6050199999999997
 30
0.0
 70
    32
  0
VERTEX
  5
B2A
  8
0
 62
     1
 10
511.535000000000025
 20
8.6050199999999997
 30
0.0
 70
    32
  0
VERTEX
  5
B2B
  8
0
 62
     1
 10
511.535000000000025
 20
8.6050199999999997
 30
0.0
 70
    32
  0
VERTEX
  5
B2C
  8
0
 62
     1
 10
511.535000000000025
 20
8.6050199999999997
 30
0.0
 70
    32
  0
VERTEX
  5
B2D
  8
0
 62
     1
 10
511.535000000000025
 20
8.6050199999999997
 30
0.0
 70
    32
  0
VERTEX
  5
B2E
  8
0
 62
     1
 10
511.535000000000025
 20
8.6050199999999997
 30
0.0
 70
    32
  0
VERTEX
  5
B2F
  8
0
 62
     1
 10
511.535000000000025
 20
8.6050199999999997
 30
0.0
 70
    32
  0
VERTEX
  5
B30
  8
0
 62
     1
 10
511.535000000000025
 20
8.6050199999999997
 30
0.0
 70
    32
  0
VERTEX
  5
B31
  8
0
 62
     1
 10
511.535000000000025
 20
8.6050199999999997
 30
0.0
 70
    32
  0
VERTEX
  5
B32
  8
0
 62
     1
 10
511.535000000000025
 20
8.6050199999999997
 30
0.0
 70
    32
  0
VERTEX
  5
B33
  8
0
 62
     1
 10
511.535000000000025
 20
8.6050199999999997
 30
0.0
 70
    32
  0
VERTEX
  5
B34
  8
0
 62
     1
 10
511.535000000000025
 20
8.6050199999999997
 30
0.0
 70
    32
  0
VERTEX
  5
B35
  8
0
 62
     1
 10
511.535000000000025
 20
8.6050199999999997
 30
0.0
 70
    32
  0
VERTEX
  5
B36
  8
0
 62
     1
 10
511.535000000000025
 20
8.6050199999999997
 30
0.0
 70
    32
  0
VERTEX
  5
B37
  8
0
 62
     1
 10
511.535000000000025
 20
8.6050199999999997
 30
0.0
 70
    32
  0
VERTEX
  5
B38
  8
0
 62
     1
 10
511.535000000000025
 20
8.6050199999999997
 30
0.0
 70
    32
  0
VERTEX
  5
B39
  8
0
 62
     1
 10
511.535000000000025
 20
8.6050199999999997
 30
0.0
 70
    32
  0
VERTEX
  5
B3A
  8
0
 62
     1
 10
511.535000000000025
 20
8.6050199999999997
 30
0.0
 70
    32
  0
VERTEX
  5
B3B
  8
0
 62
     1
 10
511.535000000000025
 20
8.6050199999999997
 30
0.0
 70
    32
  0
VERTEX
  5
B3C
  8
0
 62
     1
 10
511.535000000000025
 20
8.6050199999999997
 30
0.0
 70
    32
  0
VERTEX
  5
B3D
  8
0
 62
     1
 10
511.535000000000025
 20
8.6050199999999997
 30
0.0
 70
    32
  0
VERTEX
  5
B3E
  8
0
 62
     1
 10
511.535000000000025
 20
8.6050199999999997
 30
0.0
 70
    32
  0
VERTEX
  5
B3F
  8
0
 62
     1
 10
511.535000000000025
 20
8.6050199999999997
 30
0.0
 70
    32
  0
VERTEX
  5
B40
  8
0
 62
     1
 10
511.535000000000025
 20
8.6050199999999997
 30
0.0
 70
    32
  0
VERTEX
  5
B41
  8
0
 62
     1
 10
511.535000000000025
 20
8.6050199999999997
 30
0.0
 70
    32
  0
VERTEX
  5
B42
  8
0
 62
     1
 10
511.535000000000025
 20
8.6050199999999997
 30
0.0
 70
    32
  0
VERTEX
  5
B43
  8
0
 62
     1
 10
511.535000000000025
 20
8.6050199999999997
 30
0.0
 70
    32
  0
VERTEX
  5
B44
  8
0
 62
     1
 10
511.535000000000025
 20
8.6050199999999997
 30
0.0
 70
    32
  0
VERTEX
  5
B45
  8
0
 62
     1
 10
511.535000000000025
 20
8.6050199999999997
 30
0.0
 70
    32
  0
VERTEX
  5
B46
  8
0
 62
     1
 10
511.535000000000025
 20
8.6050199999999997
 30
0.0
 70
    32
  0
VERTEX
  5
B47
  8
0
 62
     1
 10
511.535000000000025
 20
8.6050199999999997
 30
0.0
 70
    32
  0
VERTEX
  5
B48
  8
0
 62
     1
 10
511.535000000000025
 20
8.6050199999999997
 30
0.0
 70
    32
  0
VERTEX
  5
B49
  8
0
 62
     1
 10
511.535000000000025
 20
8.6050199999999997
 30
0.0
 70
    32
  0
VERTEX
  5
B4A
  8
0
 62
     1
 10
511.535000000000025
 20
8.6050199999999997
 30
0.0
 70
    32
  0
VERTEX
  5
B4B
  8
0
 62
     1
 10
511.535000000000025
 20
8.6050199999999997
 30
0.0
 70
    32
  0
VERTEX
  5
B4C
  8
0
 62
     1
 10
511.535000000000025
 20
8.6050199999999997
 30
0.0
 70
    32
  0
VERTEX
  5
B4D
  8
0
 62
     1
 10
511.535000000000025
 20
8.6050199999999997
 30
0.0
 70
    32
  0
VERTEX
  5
B4E
  8
0
 62
     1
 10
511.535000000000025
 20
8.6050199999999997
 30
0.0
 70
    32
  0
VERTEX
  5
B4F
  8
0
 62
     1
 10
511.535000000000025
 20
8.6050199999999997
 30
0.0
 70
    32
  0
VERTEX
  5
B50
  8
0
 62
     1
 10
511.535000000000025
 20
8.6050199999999997
 30
0.0
 70
    32
  0
VERTEX
  5
B51
  8
0
 62
     1
 10
511.535000000000025
 20
8.6050199999999997
 30
0.0
 70
    32
  0
VERTEX
  5
B52
  8
0
 62
     1
 10
511.535000000000025
 20
8.6050199999999997
 30
0.0
 70
    32
  0
VERTEX
  5
B53
  8
0
 62
     1
 10
511.535000000000025
 20
8.6050199999999997
 30
0.0
 70
    32
  0
VERTEX
  5
B54
  8
0
 62
     1
 10
511.535000000000025
 20
8.6050199999999997
 30
0.0
 70
    32
  0
VERTEX
  5
B55
  8
0
 62
     1
 10
511.535000000000025
 20
8.6050199999999997
 30
0.0
 70
    32
  0
VERTEX
  5
B56
  8
0
 62
     1
 10
511.535000000000025
 20
8.6050199999999997
 30
0.0
 70
    32
  0
VERTEX
  5
B57
  8
0
 62
     1
 10
511.535000000000025
 20
8.6050199999999997
 30
0.0
 70
    32
  0
VERTEX
  5
B58
  8
0
 62
     1
 10
511.535000000000025
 20
8.6050199999999997
 30
0.0
 70
    32
  0
VERTEX
  5
B59
  8
0
 62
     1
 10
511.535000000000025
 20
8.6050199999999997
 30
0.0
 70
    32
  0
VERTEX
  5
B5A
  8
0
 62
     1
 10
511.535000000000025
 20
8.6050199999999997
 30
0.0
 70
    32
  0
VERTEX
  5
B5B
  8
0
 62
     1
 10
511.535000000000025
 20
8.6050199999999997
 30
0.0
 70
    32
  0
VERTEX
  5
B5C
  8
0
 62
     1
 10
511.535000000000025
 20
8.6050199999999997
 30
0.0
 70
    32
  0
VERTEX
  5
B5D
  8
0
 62
     1
 10
511.535000000000025
 20
8.6050199999999997
 30
0.0
 70
    32
  0
VERTEX
  5
B5E
  8
0
 62
     1
 10
511.535000000000025
 20
8.6050199999999997
 30
0.0
 70
    32
  0
VERTEX
  5
B5F
  8
0
 62
     1
 10
511.535000000000025
 20
8.6050199999999997
 30
0.0
 70
    32
  0
VERTEX
  5
B60
  8
0
 62
     1
 10
511.535000000000025
 20
8.6050199999999997
 30
0.0
 70
    32
  0
VERTEX
  5
B61
  8
0
 62
     1
 10
511.535000000000025
 20
8.6050199999999997
 30
0.0
 70
    32
  0
VERTEX
  5
B62
  8
0
 62
     1
 10
511.535000000000025
 20
8.6050199999999997
 30
0.0
 70
    32
  0
VERTEX
  5
B63
  8
0
 62
     1
 10
511.535000000000025
 20
8.6050199999999997
 30
0.0
 70
    32
  0
VERTEX
  5
B64
  8
0
 62
     1
 10
511.535000000000025
 20
8.6050199999999997
 30
0.0
 70
    32
  0
VERTEX
  5
B65
  8
0
 62
     1
 10
511.535000000000025
 20
8.6050199999999997
 30
0.0
 70
    32
  0
VERTEX
  5
B66
  8
0
 62
     1
 10
511.535000000000025
 20
8.6050199999999997
 30
0.0
 70
    32
  0
VERTEX
  5
B67
  8
0
 62
     1
 10
511.535000000000025
 20
8.6050199999999997
 30
0.0
 70
    32
  0
VERTEX
  5
B68
  8
0
 62
     1
 10
511.535000000000025
 20
8.6050199999999997
 30
0.0
 70
    32
  0
VERTEX
  5
B69
  8
0
 62
     1
 10
511.535000000000025
 20
8.6050199999999997
 30
0.0
 70
    32
  0
VERTEX
  5
B6A
  8
0
 62
     1
 10
511.535000000000025
 20
8.6050199999999997
 30
0.0
 70
    32
  0
VERTEX
  5
B6B
  8
0
 62
     1
 10
511.535000000000025
 20
8.6050199999999997
 30
0.0
 70
    32
  0
VERTEX
  5
B6C
  8
0
 62
     1
 10
511.535000000000025
 20
8.6050199999999997
 30
0.0
 70
    32
  0
VERTEX
  5
B6D
  8
0
 62
     1
 10
511.535000000000025
 20
8.6050199999999997
 30
0.0
 70
    32
  0
VERTEX
  5
B6E
  8
0
 62
     1
 10
511.535000000000025
 20
8.6050199999999997
 30
0.0
 70
    32
  0
VERTEX
  5
B6F
  8
0
 62
     1
 10
511.535000000000025
 20
8.6050199999999997
 30
0.0
 70
    32
  0
VERTEX
  5
B70
  8
0
 62
     1
 10
511.535000000000025
 20
8.6050199999999997
 30
0.0
 70
    32
  0
VERTEX
  5
B71
  8
0
 62
     1
 10
511.535000000000025
 20
8.6050199999999997
 30
0.0
 70
    32
  0
VERTEX
  5
B72
  8
0
 62
     1
 10
511.535000000000025
 20
8.6050199999999997
 30
0.0
 70
    32
  0
VERTEX
  5
B73
  8
0
 62
     1
 10
511.535000000000025
 20
8.6050199999999997
 30
0.0
 70
    32
  0
VERTEX
  5
B74
  8
0
 62
     1
 10
511.535000000000025
 20
8.6050199999999997
 30
0.0
 70
    32
  0
VERTEX
  5
B75
  8
0
 62
     1
 10
511.535000000000025
 20
8.6050199999999997
 30
0.0
 70
    32
  0
VERTEX
  5
B76
  8
0
 62
     1
 10
511.535000000000025
 20
8.6050199999999997
 30
0.0
 70
    32
  0
VERTEX
  5
B77
  8
0
 62
     1
 10
511.535000000000025
 20
8.6050199999999997
 30
0.0
 70
    32
  0
VERTEX
  5
B78
  8
0
 62
     1
 10
511.535000000000025
 20
8.6050199999999997
 30
0.0
 70
    32
  0
VERTEX
  5
B79
  8
0
 62
     1
 10
511.535000000000025
 20
8.6050199999999997
 30
0.0
 70
    32
  0
VERTEX
  5
B7A
  8
0
 62
     1
 10
511.535000000000025
 20
8.6050199999999997
 30
0.0
 70
    32
  0
VERTEX
  5
B7B
  8
0
 62
     1
 10
511.535000000000025
 20
8.6050199999999997
 30
0.0
 70
    32
  0
VERTEX
  5
B7C
  8
0
 62
     1
 10
511.535000000000025
 20
8.6050199999999997
 30
0.0
 70
    32
  0
VERTEX
  5
B7D
  8
0
 62
     1
 10
511.535000000000025
 20
8.6050199999999997
 30
0.0
 70
    32
  0
VERTEX
  5
B7E
  8
0
 62
     1
 10
511.535000000000025
 20
8.6050199999999997
 30
0.0
 70
    32
  0
VERTEX
  5
B7F
  8
0
 62
     1
 10
511.535000000000025
 20
8.6050199999999997
 30
0.0
 70
    32
  0
VERTEX
  5
B80
  8
0
 62
     1
 10
511.535000000000025
 20
8.6050199999999997
 30
0.0
 70
    32
  0
VERTEX
  5
B81
  8
0
 62
     1
 10
511.535000000000025
 20
8.6050199999999997
 30
0.0
 70
    32
  0
VERTEX
  5
B82
  8
0
 62
     1
 10
511.535000000000025
 20
8.6050199999999997
 30
0.0
 70
    32
  0
VERTEX
  5
B83
  8
0
 62
     1
 10
511.535000000000025
 20
8.6050199999999997
 30
0.0
 70
    32
  0
VERTEX
  5
B84
  8
0
 62
     1
 10
511.535000000000025
 20
8.6050199999999997
 30
0.0
 70
    32
  0
VERTEX
  5
B85
  8
0
 62
     1
 10
511.535000000000025
 20
8.6050199999999997
 30
0.0
 70
    32
  0
VERTEX
  5
B86
  8
0
 62
     1
 10
511.535000000000025
 20
8.6050199999999997
 30
0.0
 70
    32
  0
VERTEX
  5
B87
  8
0
 62
     1
 10
511.535000000000025
 20
8.6050199999999997
 30
0.0
 70
    32
  0
VERTEX
  5
B88
  8
0
 62
     1
 10
511.535000000000025
 20
8.6050199999999997
 30
0.0
 70
    32
  0
VERTEX
  5
B89
  8
0
 62
     1
 10
511.535000000000025
 20
8.6050199999999997
 30
0.0
 70
    32
  0
VERTEX
  5
B8A
  8
0
 62
     1
 10
511.535000000000025
 20
8.6050199999999997
 30
0.0
 70
    32
  0
VERTEX
  5
B8B
  8
0
 62
     1
 10
511.535000000000025
 20
8.6050199999999997
 30
0.0
 70
    32
  0
VERTEX
  5
B8C
  8
0
 62
     1
 10
511.535000000000025
 20
8.6050199999999997
 30
0.0
 70
    32
  0
VERTEX
  5
B8D
  8
0
 62
     1
 10
511.535000000000025
 20
8.6050199999999997
 30
0.0
 70
    32
  0
VERTEX
  5
B8E
  8
0
 62
     1
 10
511.535000000000025
 20
8.6050199999999997
 30
0.0
 70
    32
  0
VERTEX
  5
B8F
  8
0
 62
     1
 10
511.535000000000025
 20
8.6050199999999997
 30
0.0
 70
    32
  0
SEQEND
  5
B90
  8
0
 62
     1
  0
ARC
  5
9FA
  8
0
  6
VERDECKT
 62
     1
 10
-420.0622360669497084
 20
0.0000000000001315
 30
0.0
 40
25.0000000000057909
210
0.0
220
0.0
230
-1.0
 50
359.9994277395792892
 51
12.9552552713973004
  0
ARC
  5
9FB
  8
0
  6
VERDECKT
 62
     1
 10
-488.0622360669298132
 20
-0.0000000000008782
 30
0.0
 40
25.0000000000146017
210
0.0
220
0.0
230
-1.0
 50
167.0447447286049965
 51
180.0005722604184086
  0
LINE
  5
9FC
  8
0
  6
VERDECKT
 62
     1
 10
395.0623267562446017
 20
-18.1622485419804285
 30
0.0
 11
395.0622360681909981
 21
-0.0002496957128812
 31
0.0
210
0.0
220
1.0
230
0.0
  0
LINE
  5
9FD
  8
0
  6
VERDECKT
 62
     1
 10
513.0621453776440148
 20
-18.1622485419804285
 30
0.0
 11
513.0622360656975616
 21
-0.0002496957128812
 31
0.0
210
0.0
220
1.0
230
0.0
  0
ARC
  5
9FE
  8
0
  6
VERDECKT
 62
     1
 10
-420.062236066945502
 20
-18.162248537426791
 30
0.0
 40
24.9999093107010815
210
0.0
220
0.0
230
-1.0
 50
333.1122293409804911
 51
359.9999999895637757
  0
ARC
  5
9FF
  8
0
  6
VERDECKT
 62
     1
 10
-488.0622360669437967
 20
-18.1622485374271605
 30
0.0
 40
24.9999093107000014
210
0.0
220
0.0
230
-1.0
 50
180.0000000104352011
 51
206.8877706590197079
  0
ARC
  5
A00
  8
0
  6
VERDECKT
 62
     1
 10
-387.0622360669440241
 20
-34.8952485374272214
 30
0.0
 40
12.0000000000001208
210
0.0
220
0.0
230
-1.0
 50
153.1122293409802069
 51
179.9999999999996874
  0
ARC
  5
A01
  8
0
  6
VERDECKT
 62
     1
 10
-521.0622360669442514
 20
-34.8952485374272214
 30
0.0
 40
12.0000000000001101
210
0.0
220
0.0
230
-1.0
 50
0.0000000000002417
 51
26.8877706590197185
  0
LINE
  5
A02
  8
0
  6
VERDECKT
 62
     1
 10
509.0622360669440241
 20
-34.8952485374271717
 30
0.0
 11
509.0622360669440241
 21
-50.46775966047921
 31
0.0
210
0.0
220
1.0
230
0.0
  0
LINE
  5
A03
  8
0
  6
VERDECKT
 62
     1
 10
399.0622360669440809
 20
-34.8952485374271717
 30
0.0
 11
399.0622360669440809
 21
-50.46775966047921
 31
0.0
210
0.0
220
1.0
230
0.0
  0
ARC
  5
A04
  8
0
  6
VERDECKT
 62
     1
 10
-414.062236066945502
 20
-50.4677596604790892
 30
0.0
 40
15.0000000000013607
210
0.0
220
0.0
230
-1.0
 50
325.6988472432097979
 51
359.9999999999996021
  0
ARC
  5
A05
  8
0
  6
VERDECKT
 62
     1
 10
-494.0622360669427167
 20
-50.4677596604790892
 30
0.0
 40
15.0000000000013607
210
0.0
220
0.0
230
-1.0
 50
180.0000000000003979
 51
214.3011527567900032
  0
ARC
  5
A06
  8
0
  6
VERDECKT
 62
     1
 10
-395.0622360669443083
 20
-63.4292410572951226
 30
0.0
 40
7.9999999999998836
210
0.0
220
0.0
230
-1.0
 50
145.698847243209201
 51
180.000000000000199
  0
ARC
  5
A07
  8
0
  6
VERDECKT
 62
     1
 10
-513.0622360669441377
 20
-63.4292410572950871
 30
0.0
 40
7.99999999999977
210
0.0
220
0.0
230
-1.0
 50
0.0
 51
34.3011527567914101
  0
LINE
  5
A08
  8
0
  6
VERDECKT
 62
     1
 10
505.0622360669443083
 20
-63.4292410572951297
 30
0.0
 11
505.0622360669443083
 21
-72.3952485374270225
 31
0.0
210
0.0
220
1.0
230
0.0
  0
LINE
  5
A09
  8
0
  6
VERDECKT
 62
     1
 10
403.0622360669440809
 20
-63.4292410572951297
 30
0.0
 11
403.0622360669440809
 21
-72.3952485374270225
 31
0.0
210
0.0
220
1.0
230
0.0
  0
LINE
  5
A0A
  8
0
  6
VERDECKT
 62
     1
 10
503.0622360669440809
 20
-63.4292410572951297
 30
0.0
 11
503.0622360669440809
 21
-72.3952485374269941
 31
0.0
210
0.0
220
1.0
230
0.0
  0
LINE
  5
A0B
  8
0
  6
VERDECKT
 62
     1
 10
405.0622360669440241
 20
-63.4292410572951297
 30
0.0
 11
405.0622360669440241
 21
-72.3952485374269941
 31
0.0
210
0.0
220
1.0
230
0.0
  0
ARC
  5
A0C
  8
0
  6
VERDECKT
 62
     1
 10
-395.0622360669440241
 20
-63.4292410572951866
 30
0.0
 40
10.0000000000000604
210
0.0
220
0.0
230
-1.0
 50
145.6988472432088884
 51
179.9999999999996874
  0
ARC
  5
A0D
  8
0
  6
VERDECKT
 62
     1
 10
-513.0622360669442514
 20
-63.4292410572951866
 30
0.0
 40
10.0000000000000497
210
0.0
220
0.0
230
-1.0
 50
0.0000000000002417
 51
34.3011527567911116
  0
ARC
  5
A0E
  8
0
  6
VERDECKT
 62
     1
 10
-414.0622360669449904
 20
-50.4677596604791816
 30
0.0
 40
13.0000000000008509
210
0.0
220
0.0
230
-1.0
 50
325.6988472432092863
 51
0.0000000000004071
  0
ARC
  5
A0F
  8
0
  6
VERDECKT
 62
     1
 10
-494.0622360669435125
 20
-50.4677596604791816
 30
0.0
 40
13.0000000000008509
210
0.0
220
0.0
230
-1.0
 50
179.9999999999996021
 51
214.301152756790799
  0
LINE
  5
A10
  8
0
  6
VERDECKT
 62
     1
 10
507.0622360669440809
 20
-34.8952485374270296
 30
0.0
 11
507.0622360669440809
 21
-50.4677596604790892
 31
0.0
210
0.0
220
1.0
230
0.0
  0
LINE
  5
A11
  8
0
  6
VERDECKT
 62
     1
 10
401.0622360669440241
 20
-34.8952485374270296
 30
0.0
 11
401.0622360669440241
 21
-50.4677596604790892
 31
0.0
210
0.0
220
1.0
230
0.0
  0
ARC
  5
A12
  8
0
  6
VERDECKT
 62
     1
 10
-387.062236066944422
 20
-34.895248537426987
 30
0.0
 40
13.9999999999998206
210
0.0
220
0.0
230
-1.0
 50
153.274827245339111
 51
180.0000000000001137
  0
ARC
  5
A13
  8
0
  6
VERDECKT
 62
     1
 10
-521.0622360669441377
 20
-34.8952485374270012
 30
0.0
 40
13.9999999999998899
210
0.0
220
0.0
230
-1.0
 50
359.9999999999998863
 51
26.7251727546609317
  0
ARC
  5
A14
  8
0
  6
VERDECKT
 62
     1
 10
-420.0622360669462978
 20
-18.1622485374265317
 30
0.0
 40
23.0000000000020997
210
0.0
220
0.0
230
-1.0
 50
333.0132567871705191
 51
359.9999999999997158
  0
ARC
  5
A15
  8
0
  6
VERDECKT
 62
     1
 10
-488.0622360669420914
 20
-18.1622485374265317
 30
0.0
 40
23.0000000000020997
210
0.0
220
0.0
230
-1.0
 50
180.0000000000001137
 51
206.9867432128293956
  0
LINE
  5
A16
  8
0
  6
VERDECKT
 62
     1
 10
511.0622360669440809
 20
0.0000000000003126
 30
0.0
 11
511.0622360669440809
 21
-18.1622485374266205
 31
0.0
210
0.0
220
1.0
230
0.0
  0
LINE
  5
A17
  8
0
  6
VERDECKT
 62
     1
 10
397.0622360669440809
 20
0.0000000000003126
 30
0.0
 11
397.0622360669440809
 21
-18.1622485374266205
 31
0.0
210
0.0
220
1.0
230
0.0
  0
ARC
  5
A18
  8
0
  6
VERDECKT
 62
     1
 10
-420.0622360669519821
 20
0.0000000000001297
 30
0.0
 40
23.0000000000077911
210
0.0
220
0.0
230
-1.0
 50
0.000000000000458
 51
24.9999999999994387
  0
ARC
  5
A19
  8
0
  6
VERDECKT
 62
     1
 10
-488.062236066936407
 20
0.0000000000001266
 30
0.0
 40
23.0000000000077911
210
0.0
220
0.0
230
-1.0
 50
155.0000000000005116
 51
179.9999999999994884
  0
LINE
  5
A1A
  8
0
  6
VERDECKT
 62
     1
 10
507.5622360669440809
 20
12.6047514625730397
 30
0.0
 11
508.907315168786397
 21
9.7202200200393118
 31
0.0
210
0.0
220
1.0
230
0.0
  0
LINE
  5
A1B
  8
0
  6
VERDECKT
 62
     1
 10
400.5622360669440241
 20
12.6047514625730397
 30
0.0
 11
399.2171569651018217
 21
9.7202200200393118
 31
0.0
210
0.0
220
1.0
230
0.0
  0
ARC
  5
A1C
  8
0
  6
VERDECKT
 62
     1
 10
-396.5426761859328053
 20
4.5522076385740444
 30
0.0
 40
4.0528170555575187
210
0.0
220
0.0
230
-1.0
 50
90.0000000000056133
 51
90.6653145171276265
  0
ARC
  5
A1D
  8
0
  6
VERDECKT
 62
     1
 10
-511.5817959479552997
 20
4.5522076386267374
 30
0.0
 40
4.0528170555048231
210
0.0
220
0.0
230
-1.0
 50
89.3346854828702135
 51
90.00000000000081
  0
ENDBLK
  5
A1F
  8
0
  0
BLOCK
  8
0
  2
A$C5C121931
 70
     0
 10
0.0
 20
0.0
 30
0.0
  3
A$C5C121931
  1

  0
CIRCLE
  5
A23
  8
0
  6
CONTINUOUS
 62
     3
 10
419.3557863832082262
 20
282.3228725512781239
 30
0.0
 40
70.5
  0
CIRCLE
  5
A24
  8
0
  6
CONTINUOUS
 62
     3
 10
419.3557863832082262
 20
282.3228725512781239
 30
0.0
 40
53.5
  0
CIRCLE
  5
A25
  8
0
  6
CONTINUOUS
 62
     3
 10
419.3557863832082262
 20
282.3228725512781239
 30
0.0
 40
55.7067558379250016
  0
CIRCLE
  5
A26
  8
0
  6
CONTINUOUS
 62
     3
 10
419.3557863832082262
 20
282.3228725512781239
 30
0.0
 40
57.4724999151642066
  0
CIRCLE
  5
A27
  8
0
  6
CONTINUOUS
 62
     3
 10
419.3557863832082262
 20
282.3228725512781239
 30
0.0
 40
49.0000000000000497
  0
CIRCLE
  5
A28
  8
0
  6
CONTINUOUS
 62
     3
 10
419.3557863832082262
 20
282.3228725512781239
 30
0.0
 40
53.0000000000000568
  0
CIRCLE
  5
A29
  8
0
  6
CONTINUOUS
 62
     3
 10
419.3557863832082262
 20
282.3228725512781239
 30
0.0
 40
61.4333148023130207
  0
CIRCLE
  5
A2A
  8
0
  6
VERDECKT
 62
     1
 10
419.3557863832082262
 20
282.3228725512781239
 30
0.0
 40
66.5
  0
CIRCLE
  5
A2B
  8
0
  6
VERDECKT
 62
     1
 10
419.3557863832082262
 20
282.3228725512781239
 30
0.0
 40
65.8000906917925192
  0
CIRCLE
  5
A2C
  8
0
  6
VERDECKT
 62
     1
 10
419.3557863832082262
 20
282.3228725512781239
 30
0.0
 40
63.2905410979341028
  0
CIRCLE
  5
A2D
  8
0
  6
VERDECKT
 62
     1
 10
419.3557863832082262
 20
282.3228725512781239
 30
0.0
 40
64.0
  0
CIRCLE
  5
A2E
  8
0
  6
VERDECKT
 62
     1
 10
419.3557863832082262
 20
282.3228725512781239
 30
0.0
 40
59.9999999999999289
  0
CIRCLE
  5
A2F
  8
0
  6
VERDECKT
 62
     1
 10
419.3557863832082262
 20
282.3228725512781239
 30
0.0
 40
58.363636039040081
  0
CIRCLE
  5
A30
  8
0
  6
VERDECKT
 62
     1
 10
419.3557863832082262
 20
282.3228725512781239
 30
0.0
 40
55.0
  0
CIRCLE
  5
A31
  8
0
  6
VERDECKT
 62
     1
 10
419.3557863832082262
 20
282.3228725512781239
 30
0.0
 40
51.0000000000000426
  0
CIRCLE
  5
A32
  8
0
  6
VERDECKT
 62
     1
 10
419.3557863832082262
 20
282.3228725512781239
 30
0.0
 40
57.0000000000000568
  0
CIRCLE
  5
A33
  8
0
  6
VERDECKT
 62
     1
 10
419.3557863832082262
 20
282.3228725512781239
 30
0.0
 40
59.000000000000199
  0
ENDBLK
  5
A35
  8
0
  0
ENDSEC
  0
SECTION
  2
ENTITIES
  0
TEXT
  5
8F
  8
VOLL
 10
78.076754716981128
 20
31.025947764705851
 30
0.0
 40
1.8
  1

  7
GREEKS
  0
INSERT
  5
C30
  8
DEFPOINTS
  2
A$C0B7E166B
 10
-383.5622364597265914
 20
270.2596506531626233
 30
0.0
  0
INSERT
  5
C31
  8
DEFPOINTS
  2
A$C5C121931
 10
-348.8557867759907936
 20
-211.8228729863729995
 30
0.0
  0
VIEWPORT
  5
7D1
 67
     1
  8
0
 10
12.3007051919775598
 20
8.8010585343967715
 30
0.0
 40
74.6006614518304616
 41
32.1934946462444813
 68
     1
 69
     1
1001
ACAD
1000
MVIEW
1002
{
1070
    16
1010
0.0
1020
0.0
1030
0.0
1010
0.0
1020
0.0
1030
1.0
1040
0.0
1040
32.1934946462444813
1040
12.3007051919775598
1040
8.8010585343967715
1040
50.0
1040
0.0
1040
0.0
1070
     0
1070
  1500
1070
     1
1070
     1
1070
     0
1070
     0
1070
     0
1070
     0
1040
0.0
1040
0.0
1040
0.0
1040
10.0
1040
10.0
1040
10.0
1040
10.0
1070
     0
1002
{
1002
}
1002
}
  0
ENDSEC
  0
EOF
