  0
SECTION
  2
HEADER
  9
$ACADVER
  1
AC1009
  9
$INSBASE
 10
0.0
 20
0.0
 30
0.0
  9
$EXTMIN
 10
-55.0080865412112416
 20
-210.0205071734037858
 30
-0.002593796237619
  9
$EXTMAX
 10
55.0177006318906479
 20
85.1210943229044688
 30
0.0038910901684801
  9
$LIMMIN
 10
0.0
 20
0.0
  9
$LIMMAX
 10
210.0
 20
297.0
  9
$ORTHOMODE
 70
     1
  9
$REGENMODE
 70
     1
  9
$FILLMODE
 70
     1
  9
$QTEXTMODE
 70
     0
  9
$MIRRTEXT
 70
     1
  9
$DRAGMODE
 70
     2
  9
$LTSCALE
 40
10.0
  9
$OSMODE
 70
  2559
  9
$ATTMODE
 70
     1
  9
$TEXTSIZE
 40
3.5
  9
$TRACEWID
 40
0.5
  9
$TEXTSTYLE
  7
STANDARD
  9
$CLAYER
  8
STEMPEL
  9
$CELTYPE
  6
BYLAYER
  9
$CECOLOR
 62
   256
  9
$DIMSCALE
 40
1.0
  9
$DIMASZ
 40
3.5
  9
$DIMEXO
 40
1.0
  9
$DIMDLI
 40
7.0
  9
$DIMRND
 40
0.0
  9
$DIMDLE
 40
0.0
  9
$DIMEXE
 40
1.0
  9
$DIMTP
 40
0.0
  9
$DIMTM
 40
0.0
  9
$DIMTXT
 40
3.5
  9
$DIMCEN
 40
1.5
  9
$DIMTSZ
 40
0.0
  9
$DIMTOL
 70
     0
  9
$DIMLIM
 70
     0
  9
$DIMTIH
 70
     0
  9
$DIMTOH
 70
     0
  9
$DIMSE1
 70
     0
  9
$DIMSE2
 70
     0
  9
$DIMTAD
 70
     1
  9
$DIMZIN
 70
     8
  9
$DIMBLK
  1

  9
$DIMASO
 70
     1
  9
$DIMSHO
 70
     0
  9
$DIMPOST
  1

  9
$DIMAPOST
  1

  9
$DIMALT
 70
     0
  9
$DIMALTD
 70
     2
  9
$DIMALTF
 40
25.3999999999999986
  9
$DIMLFAC
 40
1.0
  9
$DIMTOFL
 70
     1
  9
$DIMTVP
 40
0.0
  9
$DIMTIX
 70
     0
  9
$DIMSOXD
 70
     0
  9
$DIMSAH
 70
     0
  9
$DIMBLK1
  1

  9
$DIMBLK2
  1

  9
$DIMSTYLE
  2
STANDARD
  9
$DIMCLRD
 70
     0
  9
$DIMCLRE
 70
     0
  9
$DIMCLRT
 70
     1
  9
$DIMTFAC
 40
0.5142857142857143
  9
$DIMGAP
 40
1.5
  9
$LUNITS
 70
     2
  9
$LUPREC
 70
     2
  9
$SKETCHINC
 40
1.0
  9
$FILLETRAD
 40
0.0
  9
$AUNITS
 70
     0
  9
$AUPREC
 70
     0
  9
$MENU
  1
ACAD
  9
$ELEVATION
 40
0.0
  9
$PELEVATION
 40
0.0
  9
$THICKNESS
 40
0.0
  9
$LIMCHECK
 70
     0
  9
$BLIPMODE
 70
     0
  9
$CHAMFERA
 40
0.0
  9
$CHAMFERB
 40
0.0
  9
$SKPOLY
 70
     0
  9
$TDCREATE
 40
2455397.8646990740671754
  9
$TDUPDATE
 40
2458375.6217361111193895
  9
$TDINDWG
 40
0.0893638773
  9
$TDUSRTIMER
 40
0.0893638773
  9
$USRTIMER
 70
     1
  9
$ANGBASE
 50
0.0
  9
$ANGDIR
 70
     0
  9
$PDMODE
 70
     0
  9
$PDSIZE
 40
0.0
  9
$PLINEWID
 40
0.0
  9
$COORDS
 70
     1
  9
$SPLFRAME
 70
     0
  9
$SPLINETYPE
 70
     6
  9
$SPLINESEGS
 70
     8
  9
$ATTDIA
 70
     1
  9
$ATTREQ
 70
     1
  9
$HANDLING
 70
     1
  9
$HANDSEED
  5
14D1
  9
$SURFTAB1
 70
     6
  9
$SURFTAB2
 70
     6
  9
$SURFTYPE
 70
     6
  9
$SURFU
 70
     6
  9
$SURFV
 70
     6
  9
$UCSNAME
  2

  9
$UCSORG
 10
0.0
 20
0.0
 30
0.0
  9
$UCSXDIR
 10
1.0
 20
0.0
 30
0.0
  9
$UCSYDIR
 10
0.0
 20
1.0
 30
0.0
  9
$PUCSNAME
  2

  9
$PUCSORG
 10
0.0
 20
0.0
 30
0.0
  9
$PUCSXDIR
 10
1.0
 20
0.0
 30
0.0
  9
$PUCSYDIR
 10
0.0
 20
1.0
 30
0.0
  9
$USERI1
 70
     0
  9
$USERI2
 70
     0
  9
$USERI3
 70
     0
  9
$USERI4
 70
     0
  9
$USERI5
 70
     0
  9
$USERR1
 40
0.0
  9
$USERR2
 40
0.0
  9
$USERR3
 40
0.0
  9
$USERR4
 40
0.0
  9
$USERR5
 40
0.0
  9
$WORLDVIEW
 70
     1
  9
$SHADEDGE
 70
     3
  9
$SHADEDIF
 70
    70
  9
$TILEMODE
 70
     1
  9
$MAXACTVP
 70
    16
  9
$PLIMCHECK
 70
     0
  9
$PEXTMIN
 10
-0.1439086436177703
 20
-0.1575410523540128
 30
-0.0000000349181948
  9
$PEXTMAX
 10
16.1874195304690893
 20
23.2367080968509612
 30
0.0000000814935746
  9
$PLIMMIN
 10
-0.2500002402958907
 20
-0.2499999962453767
  9
$PLIMMAX
 10
10.7499995194082203
 20
8.2499997634587334
  9
$UNITMODE
 70
     0
  9
$VISRETAIN
 70
     0
  9
$PLINEGEN
 70
     0
  9
$PSLTSCALE
 70
     0
  0
ENDSEC
  0
SECTION
  2
TABLES
  0
TABLE
  2
VPORT
 70
     1
  0
VPORT
  2
*ACTIVE
 70
     0
 10
0.0
 20
0.0
 11
1.0
 21
1.0
 12
0.0048070453397315
 22
-77.4516252179742537
 13
0.0
 23
0.0
 14
1.0
 24
1.0
 15
10.0
 25
10.0
 16
-0.0000000000001017
 26
0.0
 36
457.8692327929267094
 17
0.0
 27
15.0019187927246094
 37
-0.0000000000000094
 40
296.6461466186343046
 41
1.868197278911564
 42
50.0
 43
0.0
 44
0.0
 50
0.0
 51
0.0
 71
     0
 72
  1500
 73
     1
 74
     0
 75
     0
 76
     0
 77
     0
 78
     0
  0
ENDTAB
  0
TABLE
  2
LTYPE
 70
     3
  0
LTYPE
  2
CONTINUOUS
 70
     0
  3
Solid line
 72
    65
 73
     0
 40
0.0
  0
LTYPE
  2
VERDECKT
 70
     0
  3
_ _ _ _ _ _ _ _ _ _ _ _ _ _ _ _ _ _ _ _ _ _ _
 72
    65
 73
     2
 40
0.375
 49
0.25
 49
-0.125
  0
ENDTAB
  0
TABLE
  2
LAYER
 70
    10
  0
LAYER
  2
0
 70
     0
 62
     7
  6
CONTINUOUS
  0
LAYER
  2
VOLL
 70
     0
 62
     1
  6
CONTINUOUS
  0
LAYER
  2
STEMPEL
 70
     0
 62
     3
  6
CONTINUOUS
  0
LAYER
  2
DEFPOINTS
 70
     0
 62
     7
  6
CONTINUOUS
  0
ENDTAB
  0
TABLE
  2
STYLE
 70
     2
  0
STYLE
  2
STANDARD
 70
     0
 40
0.0
 41
0.8
 50
0.0
 71
     0
 42
3.5
  3
simplex.shx
  4

  0
STYLE
  2
GREEKS
 70
     0
 40
0.0
 41
0.8
 50
0.0
 71
     0
 42
2.5
  3
SIMPLEX.shx
  4

  0
ENDTAB
  0
TABLE
  2
VIEW
 70
     2
  0
ENDTAB
  0
TABLE
  2
UCS
 70
     0
  0
ENDTAB
  0
TABLE
  2
APPID
 70
    11
  0
APPID
  2
ACAD
 70
     0
  0
APPID
  2
ACAD_NAV_VCDISPLAY
 70
     0
  0
APPID
  2
GRADIENTCOLOR1ACI
 70
     0
  0
APPID
  2
GRADIENTCOLOR2ACI
 70
     0
  0
APPID
  2
ACAD_EXEMPT_FROM_CAD_STANDARDS
 70
     0
  0
APPID
  2
ACAD_MLEADERVER
 70
     0
  0
APPID
  2
ACAECLAYERSTANDARD
 70
     0
  0
APPID
  2
ACCMTRANSPARENCY
 70
     0
  0
APPID
  2
ACAD_PSEXT
 70
     0
  0
APPID
  2
ACAD_DSTYLE_DIMRADIAL_EXTENSION
 70
     0
  0
APPID
  2
ACAD_OBJECT_CHANGE_GUID
 70
     0
  0
ENDTAB
  0
TABLE
  2
DIMSTYLE
 70
     1
  0
DIMSTYLE
  2
STANDARD
 70
     0
  3

  4

  5

  6

  7

 40
1.0
 41
0.18
 42
0.0625
 43
0.38
 44
0.18
 45
0.0
 46
0.0
 47
0.0
 48
0.0
140
0.18
141
0.09
142
0.0
143
25.3999999999999986
144
1.0
145
0.0
146
1.0
147
0.09
 71
     0
 72
     0
 73
     1
 74
     1
 75
     0
 76
     0
 77
     0
 78
     0
170
     0
171
     2
172
     0
173
     0
174
     0
175
     0
176
     0
177
     0
178
     0
  0
ENDTAB
  0
ENDSEC
  0
SECTION
  2
BLOCKS
  0
BLOCK
  8
0
  2
$MODEL_SPACE
 70
     0
 10
0.0
 20
0.0
 30
0.0
  3
$MODEL_SPACE
  1

  0
ENDBLK
  5
36
  8
0
  0
BLOCK
 67
     1
  8
0
  2
$PAPER_SPACE
 70
     0
 10
0.0
 20
0.0
 30
0.0
  3
$PAPER_SPACE
  1

  0
ENDBLK
  5
34
 67
     1
  8
0
  0
BLOCK
  8
0
  2
A$C70B51F6B
 70
     0
 10
0.0
 20
0.0
 30
0.0
  3
A$C70B51F6B
  1

  0
LINE
  5
140C
  8
0
  6
CONTINUOUS
 62
     3
 10
-39.7653973282769186
 20
84.9999999999961915
 30
-0.0000000000000189
 11
39.7653973282772029
 21
84.9999999999961631
 31
-0.0000000000000189
210
0.0000000000000002
220
1.0
230
-0.0000000000000002
  0
ARC
  5
140D
  8
0
  6
CONTINUOUS
 62
     3
 10
17.0999999999997989
 20
74.4510775928812336
 30
0.0
 40
25.0000000000001812
210
0.0
220
-0.0000000000000002
230
-1.0
 50
15.1862091853223795
 51
24.9581963123060611
  0
ARC
  5
140E
  8
0
  6
CONTINUOUS
 62
     3
 10
-17.1000000000023391
 20
74.4510775928820721
 30
0.0
 40
24.9999999999976303
210
0.0
220
-0.0000000000000002
230
-1.0
 50
155.0418036876934877
 51
164.8137908146779012
  0
LINE
  5
140F
  8
0
  6
CONTINUOUS
 62
     3
 10
-50.9999999999999289
 20
69.1749773270518631
 30
-0.0000000000000154
 11
51.0000000000000711
 21
69.1749773270517778
 31
-0.0000000000000154
210
0.0000000000000002
220
1.0
230
-0.0000000000000002
  0
LINE
  5
1410
  8
0
  6
CONTINUOUS
 62
     3
 10
-50.3952190304052507
 20
0.0000000000000396
 30
0.0
 11
50.3952190304052507
 21
-0.0000000000000396
 31
0.0
210
0.0000000000000002
220
1.0
230
-0.0000000000000002
  0
LINE
  5
1411
  8
0
  6
CONTINUOUS
 62
     3
 10
50.4911570694800105
 20
72.060768987951306
 30
-0.000000000000016
 11
51.0000000000000711
 21
69.1749773270517778
 31
-0.0000000000000154
210
0.0000000000000002
220
1.0
230
-0.0000000000000002
  0
LINE
  5
1412
  8
0
  6
CONTINUOUS
 62
     3
 10
-50.4911570694798897
 20
72.060768987951235
 30
-0.000000000000016
 11
-50.9999999999999432
 21
69.1749773270518631
 31
-0.0000000000000154
210
0.0000000000000002
220
1.0
230
-0.0000000000000002
  0
LINE
  5
1413
  8
0
  6
CONTINUOUS
 62
     3
 10
51.0000000000000924
 20
69.1749773270517778
 30
-0.0000000000000154
 11
51.0000000000000426
 21
6.9126781141830991
 31
-0.0000000000000015
210
0.0000000000000002
220
1.0
230
-0.0000000000000002
  0
LINE
  5
1414
  8
0
  6
CONTINUOUS
 62
     3
 10
-51.0000000000000213
 20
69.1749773270518631
 30
-0.0000000000000154
 11
-51.0000000000000782
 21
6.912678114183179
 31
-0.0000000000000015
210
0.0000000000000002
220
1.0
230
-0.0000000000000002
  0
LINE
  5
1415
  8
0
  6
CONTINUOUS
 62
     3
 10
-50.3952190304052579
 20
0.0000000000000418
 30
0.0
 11
-51.0000000000000426
 21
6.9126781141831799
 31
-0.0000000000000015
210
0.0000000000000002
220
1.0
230
-0.0000000000000002
  0
LINE
  5
1416
  8
0
  6
CONTINUOUS
 62
     3
 10
50.3952190304052579
 20
-0.0000000000000396
 30
0.0
 11
51.0000000000000497
 21
6.9126781141830991
 31
-0.0000000000000015
210
0.0000000000000002
220
1.0
230
-0.0000000000000002
  0
ARC
  5
1417
  8
0
  6
CONTINUOUS
 62
     3
 10
41.8468210028731704
 20
78.0000000000000853
 30
0.0
 40
2.999999999999992
210
0.0
220
-0.0000000000000002
230
-1.0
 50
0.0000000000011068
 51
90.0000000000001705
  0
ARC
  5
1418
  8
0
  6
CONTINUOUS
 62
     3
 10
-41.8468210028733125
 20
78.0000000000001279
 30
0.0
 40
3.0
210
0.0
220
-0.0000000000000002
230
-1.0
 50
90.0000000000000284
 51
179.9999999999988916
  0
LINE
  5
1419
  8
0
  6
CONTINUOUS
 62
     3
 10
41.8468210028733125
 20
81.0000000000001279
 30
-0.000000000000018
 11
-41.8468210028731633
 21
81.0000000000000568
 31
-0.000000000000018
210
0.0000000000000002
220
1.0
230
-0.0000000000000002
  0
LINE
  5
141A
  8
0
  6
CONTINUOUS
 62
     3
 10
-54.9999999999999218
 20
78.0000000000000568
 30
-0.0000000000000173
 11
55.0000000000000711
 21
77.9999999999999716
 31
-0.0000000000000173
210
0.0000000000000002
220
1.0
230
-0.0000000000000002
  0
LINE
  5
141B
  8
0
  6
CONTINUOUS
 62
     3
 10
-54.9999999999999218
 20
76.0000000000000568
 30
-0.0000000000000169
 11
55.0000000000000711
 21
75.9999999999999716
 31
-0.0000000000000169
210
0.0000000000000002
220
1.0
230
-0.0000000000000002
  0
LINE
  5
141C
  8
0
  6
CONTINUOUS
 62
     3
 10
55.0000000000000711
 20
77.9999999999999716
 30
-0.0000000000000173
 11
55.0000000000000711
 21
75.9999999999999716
 31
-0.0000000000000169
210
0.0000000000000002
220
1.0
230
-0.0000000000000002
  0
LINE
  5
141D
  8
0
  6
CONTINUOUS
 62
     3
 10
-54.9999999999999218
 20
78.0000000000000568
 30
-0.0000000000000173
 11
-54.9999999999999218
 21
76.0000000000000568
 31
-0.0000000000000169
210
0.0000000000000002
220
1.0
230
-0.0000000000000002
  0
LINE
  5
141E
  8
0
  6
CONTINUOUS
 62
     3
 10
-50.4911570694800176
 20
72.060768987951235
 30
-0.000000000000016
 11
50.4911570694801668
 21
72.0607689879513202
 31
-0.000000000000016
210
0.0000000000000002
220
1.0
230
-0.0000000000000002
  0
ARC
  5
141F
  8
0
  6
CONTINUOUS
 62
     3
 10
49.7965643588120628
 20
76.0000000000001137
 30
0.0
 40
4.000000000000056
210
0.0
220
-0.0000000000000002
230
-1.0
 50
280.0000000000031264
 51
359.9999999999985789
  0
ARC
  5
1420
  8
0
  6
CONTINUOUS
 62
     3
 10
-49.796564358812212
 20
76.0000000000001705
 30
0.0
 40
4.0000000000000488
210
0.0
220
-0.0000000000000002
230
-1.0
 50
180.0000000000009948
 51
259.9999999999968168
  0
LINE
  5
1421
  8
0
  6
VERDECKT
 62
     1
 10
-36.4999999999999432
 20
19.9960326608439587
 30
-0.0000000000000044
 11
36.5000000000000711
 21
19.9960326608439516
 31
-0.0000000000000044
210
0.0000000000000002
220
1.0
230
-0.0000000000000002
  0
LINE
  5
1422
  8
0
  6
VERDECKT
 62
     1
 10
38.0000000000000782
 20
56.330000000000048
 30
-0.0000000000000125
 11
38.0000000000000568
 21
35.3887264174170184
 31
-0.0000000000000079
210
0.0000000000000002
220
1.0
230
-0.0000000000000002
  0
LINE
  5
1423
  8
0
  6
VERDECKT
 62
     1
 10
-37.9999999999999218
 20
56.330000000000112
 30
-0.0000000000000125
 11
-37.9999999999999432
 21
35.3887264174170824
 31
-0.0000000000000079
210
0.0000000000000002
220
1.0
230
-0.0000000000000002
  0
ARC
  5
1424
  8
0
  6
VERDECKT
 62
     1
 10
51.600000000001863
 20
56.329999999999778
 30
0.0
 40
13.6000000000019501
210
0.0
220
-0.0000000000000002
230
-1.0
 50
158.8168456069651029
 51
179.9999999999986073
  0
ARC
  5
1425
  8
0
  6
VERDECKT
 62
     1
 10
-51.6000000000019909
 20
56.3299999999996999
 30
0.0
 40
13.6000000000019394
210
0.0
220
-0.0000000000000002
230
-1.0
 50
0.0000000000014503
 51
21.1831543930349113
  0
ARC
  5
1426
  8
0
  6
VERDECKT
 62
     1
 10
17.0999999999975785
 20
69.7000000000005002
 30
0.0
 40
23.4000932431280688
210
0.0
220
-0.0000000000000002
230
-1.0
 50
338.8168456069661829
 51
359.8382525687734983
  0
ARC
  5
1427
  8
0
  6
VERDECKT
 62
     1
 10
-17.0999999999979799
 20
69.700000000000415
 30
0.0
 40
23.4000932431278095
210
0.0
220
-0.0000000000000002
230
-1.0
 50
180.161747431226388
 51
201.1831543930339876
  0
LINE
  5
1428
  8
0
  6
VERDECKT
 62
     1
 10
40.5000000000000568
 20
74.4510775928813331
 30
-0.0000000000000165
 11
40.5000000000000568
 21
69.6339410340971483
 31
-0.0000000000000155
210
0.0000000000000002
220
1.0
230
-0.0000000000000002
  0
LINE
  5
1429
  8
0
  6
VERDECKT
 62
     1
 10
-40.4999999999999218
 20
74.4510775928814326
 30
-0.0000000000000165
 11
-40.4999999999999218
 21
69.6339410340972336
 31
-0.0000000000000155
210
0.0000000000000002
220
1.0
230
-0.0000000000000002
  0
ARC
  5
142A
  8
0
  6
VERDECKT
 62
     1
 10
17.099999999992999
 20
74.4510775928800115
 30
0.0
 40
23.4000000000068908
210
0.0
220
-0.0000000000000002
230
-1.0
 50
0.0000000000034223
 51
24.9999999999961595
  0
ARC
  5
142B
  8
0
  6
VERDECKT
 62
     1
 10
-17.0999999999933188
 20
74.4510775928800115
 30
0.0
 40
23.400000000006731
210
0.0
220
-0.0000000000000002
230
-1.0
 50
155.0000000000038938
 51
179.9999999999967031
  0
LINE
  5
142C
  8
0
  6
VERDECKT
 62
     1
 10
38.0000000000001066
 20
85.0000000000000142
 30
-0.0000000000000189
 11
38.307602216657699
 21
84.3403449176137627
 31
-0.0000000000000187
210
0.0000000000000002
220
1.0
230
-0.0000000000000002
  0
LINE
  5
142D
  8
0
  6
VERDECKT
 62
     1
 10
-37.9999999999998508
 20
85.0000000000000995
 30
-0.0000000000000189
 11
-38.3076022166574433
 21
84.340344917613848
 31
-0.0000000000000187
210
0.0000000000000002
220
1.0
230
-0.0000000000000002
  0
ARC
  5
142E
  8
0
  6
VERDECKT
 62
     1
 10
17.1000000000007901
 20
74.4510775928815178
 30
0.0
 40
24.9999999999991402
210
0.0
220
-0.0000000000000002
230
-1.0
 50
0.0000000000000127
 51
15.1862091853226993
  0
ARC
  5
142F
  8
0
  6
VERDECKT
 62
     1
 10
-17.1000000000012591
 20
74.451077592881532
 30
0.0
 40
24.9999999999988098
210
0.0
220
-0.0000000000000002
230
-1.0
 50
164.8137908146773896
 51
180.0000000000005116
  0
LINE
  5
1430
  8
0
  6
VERDECKT
 62
     1
 10
42.1000000000000867
 20
74.4510775928812905
 30
-0.0000000000000165
 11
42.1000000000000867
 21
69.7682800481822483
 31
-0.0000000000000155
210
0.0000000000000002
220
1.0
230
-0.0000000000000002
  0
LINE
  5
1431
  8
0
  6
VERDECKT
 62
     1
 10
-42.0999999999999517
 20
74.4510775928813757
 30
-0.0000000000000165
 11
-42.0999999999999517
 21
69.7682800481823335
 31
-0.0000000000000155
210
0.0000000000000002
220
1.0
230
-0.0000000000000002
  0
ARC
  5
1432
  8
0
  6
VERDECKT
 62
     1
 10
17.0999999999989605
 20
69.7000000000002302
 30
0.0
 40
25.0000932431266811
210
0.0
220
-0.0000000000000002
230
-1.0
 50
338.8168456069653871
 51
0.1564859543316505
  0
ARC
  5
1433
  8
0
  6
VERDECKT
 62
     1
 10
-17.0999999999992305
 20
69.7000000000001876
 30
0.0
 40
25.0000932431265497
210
0.0
220
-0.0000000000000002
230
-1.0
 50
179.8435140456682859
 51
201.1831543930346129
  0
ARC
  5
1434
  8
0
  6
VERDECKT
 62
     1
 10
51.5999999999991275
 20
56.3300000000003891
 30
0.0
 40
11.99999999999919
210
0.0
220
-0.0000000000000002
230
-1.0
 50
158.8168456069633123
 51
180.0000000000013074
  0
ARC
  5
1435
  8
0
  6
VERDECKT
 62
     1
 10
-51.5999999999992909
 20
56.3300000000003109
 30
0.0
 40
11.9999999999992006
210
0.0
220
-0.0000000000000002
230
-1.0
 50
0.0000000000000127
 51
21.1831543930380413
  0
LINE
  5
1436
  8
0
  6
VERDECKT
 62
     1
 10
39.6000000000001009
 20
56.330000000000048
 30
-0.0000000000000125
 11
39.6000000000000796
 21
35.38872641741699
 31
-0.0000000000000079
210
0.0000000000000002
220
1.0
230
-0.0000000000000002
  0
LINE
  5
1437
  8
0
  6
VERDECKT
 62
     1
 10
-39.5999999999999517
 20
56.330000000000112
 30
-0.0000000000000125
 11
-39.599999999999973
 21
35.388726417417061
 31
-0.0000000000000079
210
0.0000000000000002
220
1.0
230
-0.0000000000000002
  0
ARC
  5
1438
  8
0
  6
VERDECKT
 62
     1
 10
27.6000000000000298
 20
35.3887264174170824
 30
0.0
 40
11.9999999999999307
210
0.0
220
-0.0000000000000002
230
-1.0
 50
327.6719358778369724
 51
359.9999999999998863
  0
ARC
  5
1439
  8
0
  6
VERDECKT
 62
     1
 10
-27.6000000000000689
 20
35.388726417417061
 30
0.0
 40
12.0000000000000107
210
0.0
220
-0.0000000000000002
230
-1.0
 50
180.0000000000003126
 51
212.3280641221629992
  0
ARC
  5
143A
  8
0
  6
VERDECKT
 62
     1
 10
44.4999999999999076
 20
24.6934003354315195
 30
0.0
 40
7.9999999999999778
210
0.0
220
-0.0000000000000002
230
-1.0
 50
147.6719358778381945
 51
180.000000000000199
  0
ARC
  5
143B
  8
0
  6
VERDECKT
 62
     1
 10
-44.4999999999999076
 20
24.693400335431491
 30
0.0
 40
7.9999999999998499
210
0.0
220
-0.0000000000000002
230
-1.0
 50
359.9999999999994884
 51
32.3280641221619476
  0
LINE
  5
143C
  8
0
  6
VERDECKT
 62
     1
 10
36.5000000000000711
 20
24.69340033543142
 30
-0.0000000000000055
 11
36.5000000000000711
 21
19.9960326608439516
 31
-0.0000000000000044
210
0.0000000000000002
220
1.0
230
-0.0000000000000002
  0
LINE
  5
143D
  8
0
  6
VERDECKT
 62
     1
 10
-36.4999999999999432
 20
24.693400335431491
 30
-0.0000000000000055
 11
-36.4999999999999432
 21
19.9960326608440084
 31
-0.0000000000000044
210
0.0000000000000002
220
1.0
230
-0.0000000000000002
  0
LINE
  5
143E
  8
0
  6
VERDECKT
 62
     1
 10
34.9000000000000412
 20
24.6934003354314484
 30
-0.0000000000000055
 11
34.9000000000000412
 21
19.9960326608439516
 31
-0.0000000000000044
210
0.0000000000000002
220
1.0
230
-0.0000000000000002
  0
LINE
  5
143F
  8
0
  6
VERDECKT
 62
     1
 10
-34.8999999999999133
 20
24.6934003354315088
 30
-0.0000000000000055
 11
-34.8999999999999133
 21
19.9960326608440084
 31
-0.0000000000000044
210
0.0000000000000002
220
1.0
230
-0.0000000000000002
  0
ARC
  5
1440
  8
0
  6
VERDECKT
 62
     1
 10
44.4999999999992184
 20
24.6934003354316616
 30
0.0
 40
9.5999999999992962
210
0.0
220
-0.0000000000000002
230
-1.0
 50
147.6719358778366029
 51
180.0000000000007105
  0
ARC
  5
1441
  8
0
  6
VERDECKT
 62
     1
 10
-44.4999999999993676
 20
24.6934003354315799
 30
0.0
 40
9.5999999999993193
210
0.0
220
-0.0000000000000002
230
-1.0
 50
359.9999999999992042
 51
32.3280641221632976
  0
ARC
  5
1442
  8
0
  6
VERDECKT
 62
     1
 10
27.5999999999994188
 20
35.3887264174171534
 30
0.0
 40
10.4000000000005208
210
0.0
220
-0.0000000000000002
230
-1.0
 50
327.6719358778382798
 51
359.9999999999996021
  0
ARC
  5
1443
  8
0
  6
VERDECKT
 62
     1
 10
-27.5999999999995289
 20
35.3887264174170966
 30
0.0
 40
10.4000000000005297
210
0.0
220
-0.0000000000000002
230
-1.0
 50
180.0000000000003979
 51
212.3280641221616065
  0
LINE
  5
1444
  8
0
  6
VERDECKT
 62
     1
 10
-47.8538746253949583
 20
75.4999999999962199
 30
-0.0000000000000168
 11
47.8538746253950507
 21
75.4999999999961915
 31
-0.0000000000000168
210
0.0000000000000002
220
1.0
230
-0.0000000000000002
  0
LINE
  5
1445
  8
0
  6
VERDECKT
 62
     1
 10
47.7657111350408172
 20
75.9999999999961631
 30
-0.0000000000000169
 11
47.8538746253950293
 21
75.4999999999961915
 31
-0.0000000000000168
210
0.0000000000000002
220
1.0
230
-0.0000000000000002
  0
LINE
  5
1446
  8
0
  6
VERDECKT
 62
     1
 10
-47.765711135040732
 20
75.9999999999961915
 30
-0.0000000000000169
 11
-47.8538746253949512
 21
75.4999999999962199
 31
-0.0000000000000168
210
0.0000000000000002
220
1.0
230
-0.0000000000000002
  0
LINE
  5
1447
  8
0
  6
VERDECKT
 62
     1
 10
42.0519706511675579
 20
75.9999999999962199
 30
-0.0000000000000169
 11
42.0779855429505716
 21
75.4999999999961915
 31
-0.0000000000000168
210
0.0000000000000002
220
1.0
230
-0.0000000000000002
  0
LINE
  5
1448
  8
0
  6
VERDECKT
 62
     1
 10
-42.0519706511674798
 20
75.9999999999962341
 30
-0.0000000000000169
 11
-42.0779855429504792
 21
75.4999999999962199
 31
-0.0000000000000168
210
0.0000000000000002
220
1.0
230
-0.0000000000000002
  0
LINE
  5
1449
  8
0
  6
VERDECKT
 62
     1
 10
-48.9999999999999218
 20
69.0000000000001421
 30
-0.0000000000000153
 11
49.0000000000000568
 21
69.0
 31
-0.0000000000000153
210
0.0000000000000002
220
1.0
230
-0.0000000000000002
  0
LINE
  5
144A
  8
0
  6
VERDECKT
 62
     1
 10
49.0000000000000924
 20
69.0
 30
-0.0000000000000153
 11
49.0000000000000284
 21
6.9999999999995932
 31
-0.0000000000000016
210
0.0000000000000002
220
1.0
230
-0.0000000000000002
  0
LINE
  5
144B
  8
0
  6
VERDECKT
 62
     1
 10
-49.0000000000000213
 20
69.0000000000000853
 30
-0.0000000000000153
 11
-49.0000000000000782
 21
6.9999999999996714
 31
-0.0000000000000016
210
0.0000000000000002
220
1.0
230
-0.0000000000000002
  0
LINE
  5
144C
  8
0
  6
VERDECKT
 62
     1
 10
47.7657111350408314
 20
75.9999999999999716
 30
-0.0000000000000169
 11
49.0000000000000711
 21
69.0
 31
-0.0000000000000153
210
0.0000000000000002
220
1.0
230
-0.0000000000000002
  0
LINE
  5
144D
  8
0
  6
VERDECKT
 62
     1
 10
-47.7657111350406822
 20
76.0000000000000568
 30
-0.0000000000000169
 11
-48.9999999999999432
 21
69.0000000000000853
 31
-0.0000000000000153
210
0.0000000000000002
220
1.0
230
-0.0000000000000002
  0
LINE
  5
144E
  8
0
  6
VERDECKT
 62
     1
 10
49.7965643588123115
 20
76.0
 30
-0.0000000000000169
 11
50.4911570694800105
 21
72.060768987951306
 31
-0.000000000000016
210
0.0000000000000002
220
1.0
230
-0.0000000000000002
  0
LINE
  5
144F
  8
0
  6
VERDECKT
 62
     1
 10
-49.7965643588121694
 20
76.0000000000000853
 30
-0.0000000000000169
 11
-50.4911570694798897
 21
72.060768987951235
 31
-0.000000000000016
210
0.0000000000000002
220
1.0
230
-0.0000000000000002
  0
LINE
  5
1450
  8
0
  6
VERDECKT
 62
     1
 10
-48.3875793553185432
 20
0.0000000000000427
 30
0.0
 11
-48.9999999999999716
 21
6.999999999999674
 31
-0.0000000000000016
210
0.0000000000000002
220
1.0
230
-0.0000000000000002
  0
LINE
  5
1451
  8
0
  6
VERDECKT
 62
     1
 10
48.3875793553185289
 20
-0.0000000000000365
 30
0.0
 11
48.9999999999999716
 21
6.9999999999995941
 31
-0.0000000000000016
210
0.0000000000000002
220
1.0
230
-0.0000000000000002
  0
LINE
  5
1452
  8
0
  6
VERDECKT
 62
     1
 10
-41.2435404611932483
 20
80.9387161462160947
 30
-0.000000000000018
 11
41.2435404611934118
 21
80.9387161462161373
 31
-0.000000000000018
210
0.0000000000000002
220
1.0
230
-0.0000000000000002
  0
ARC
  5
1453
  8
0
  6
VERDECKT
 62
     1
 10
41.8468210028732415
 20
77.999999999999261
 30
0.0
 40
3.00000000000081
210
0.0
220
-0.0000000000000002
230
-1.0
 50
90.0000000000013642
 51
101.6009120280155997
  0
ARC
  5
1454
  8
0
  6
VERDECKT
 62
     1
 10
-41.8468210028733765
 20
77.9999999999993179
 30
0.0
 40
3.0000000000008091
210
0.0
220
-0.0000000000000002
230
-1.0
 50
78.3990879719843576
 51
89.9999999999986358
  0
ARC
  5
1455
  8
0
  6
VERDECKT
 62
     1
 10
17.1000000000105317
 20
74.4510775928839763
 30
0.0
 40
24.9999999999889901
210
0.0
220
-0.0000000000000002
230
-1.0
 50
8.1610992604989008
 51
15.0407247955322898
  0
ARC
  5
1456
  8
0
  6
VERDECKT
 62
     1
 10
-17.1000000000092314
 20
74.4510775928836921
 30
0.0
 40
24.999999999990461
210
0.0
220
-0.0000000000000002
230
-1.0
 50
164.9592752044677866
 51
171.8389007395007866
  0
LINE
  5
1457
  8
0
  6
VERDECKT
 62
     1
 10
43.0000000000000568
 20
78.0
 30
-0.0000000000000173
 11
43.0000000000000568
 21
76.0
 31
-0.0000000000000169
210
0.0000000000000002
220
1.0
230
-0.0000000000000002
  0
LINE
  5
1458
  8
0
  6
VERDECKT
 62
     1
 10
-42.9999999999999218
 20
78.0000000000000853
 30
-0.0000000000000173
 11
-42.9999999999999218
 21
76.0000000000000853
 31
-0.0000000000000169
210
0.0000000000000002
220
1.0
230
-0.0000000000000002
  0
LINE
  5
1459
  8
0
  6
VERDECKT
 62
     1
 10
49.7965643588122617
 20
76.0000000000001563
 30
-0.0000000000000169
 11
50.49115706948011
 21
72.0607689879512918
 31
-0.000000000000016
210
0.0000000000000002
220
1.0
230
-0.0000000000000002
  0
LINE
  5
145A
  8
0
  6
VERDECKT
 62
     1
 10
-49.7965643588121196
 20
76.0000000000000853
 30
-0.0000000000000169
 11
-50.4911570694799678
 21
72.0607689879512208
 31
-0.000000000000016
210
0.0000000000000002
220
1.0
230
-0.0000000000000002
  0
ENDBLK
  5
145C
  8
0
  0
BLOCK
  8
0
  2
A$C5978583B
 70
     0
 10
0.0
 20
0.0
 30
0.0
  3
A$C5978583B
  1

  0
CIRCLE
  5
1460
  8
0
  6
CONTINUOUS
 62
     3
 10
0.0000000000001326
 20
0.0000000000000155
 30
0.0
 40
38.0000000000000284
  0
CIRCLE
  5
1461
  8
0
  6
CONTINUOUS
 62
     3
 10
0.0000000000001326
 20
0.0000000000000155
 30
0.0
 40
39.7653973282770892
  0
CIRCLE
  5
1462
  8
0
  6
CONTINUOUS
 62
     3
 10
0.0000000000000623
 20
0.0000000000000118
 30
0.0
 40
34.8999999999999773
  0
CIRCLE
  5
1463
  8
0
  6
CONTINUOUS
 62
     3
 10
0.0000000000000748
 20
0.0000000000000152
 30
0.0
 40
41.2435404611933265
  0
CIRCLE
  5
1464
  8
0
  6
CONTINUOUS
 62
     3
 10
0.0000000000000742
 20
0.0000000000000151
 30
0.0
 40
44.8468210028732415
  0
CIRCLE
  5
1465
  8
0
  6
CONTINUOUS
 62
     3
 10
0.0000000000000742
 20
0.0000000000000151
 30
0.0
 40
55.0
  0
CIRCLE
  5
1466
  8
0
  6
VERDECKT
 62
     1
 10
0.0000000000000734
 20
0.0000000000000148
 30
0.0
 40
40.4999999999999716
  0
CIRCLE
  5
1467
  8
0
  6
VERDECKT
 62
     1
 10
0.0000000000000734
 20
0.0000000000000148
 30
0.0
 40
42.0999999999999872
  0
CIRCLE
  5
1468
  8
0
  6
VERDECKT
 62
     1
 10
0.0000000000000694
 20
0.0000000000000137
 30
0.0
 40
39.6000000000000085
  0
CIRCLE
  5
1469
  8
0
  6
VERDECKT
 62
     1
 10
0.0000000000000623
 20
0.0000000000000118
 30
0.0
 40
36.5000000000000071
  0
CIRCLE
  5
146A
  8
0
  6
VERDECKT
 62
     1
 10
0.0000000000000723
 20
0.0000000000000146
 30
0.0
 40
42.1000932431257127
  0
CIRCLE
  5
146B
  8
0
  6
VERDECKT
 62
     1
 10
0.0000000000000452
 20
0.0000000000000149
 30
0.0
 40
47.8538746253950009
  0
CIRCLE
  5
146C
  8
0
  6
VERDECKT
 62
     1
 10
0.0000000000000453
 20
0.0000000000000149
 30
0.0
 40
47.7657111350407817
  0
CIRCLE
  5
146D
  8
0
  6
VERDECKT
 62
     1
 10
0.0000000000000452
 20
0.0000000000000149
 30
0.0
 40
42.0779855429505218
  0
CIRCLE
  5
146E
  8
0
  6
VERDECKT
 62
     1
 10
0.0000000000000453
 20
0.0000000000000149
 30
0.0
 40
42.0519706511675224
  0
CIRCLE
  5
146F
  8
0
  6
VERDECKT
 62
     1
 10
0.0000000000000722
 20
0.0000000000000145
 30
0.0
 40
49.0000000000000213
  0
CIRCLE
  5
1470
  8
0
  6
VERDECKT
 62
     1
 10
0.0000000000000737
 20
0.0000000000000149
 30
0.0
 40
47.7657111350407675
  0
CIRCLE
  5
1471
  8
0
  6
VERDECKT
 62
     1
 10
0.0000000000000737
 20
0.0000000000000149
 30
0.0
 40
49.7965643588122617
  0
CIRCLE
  5
1472
  8
0
  6
VERDECKT
 62
     1
 10
0.0000000000000722
 20
0.0000000000000145
 30
0.0
 40
51.0000000000000071
  0
CIRCLE
  5
1473
  8
0
  6
VERDECKT
 62
     1
 10
0.0
 20
0.0000000000000103
 30
0.0
 40
50.3952190304052579
  0
CIRCLE
  5
1474
  8
0
  6
VERDECKT
 62
     1
 10
0.0
 20
0.0000000000000103
 30
0.0
 40
48.3875793553185574
  0
CIRCLE
  5
1475
  8
0
  6
VERDECKT
 62
     1
 10
0.0000000000000742
 20
0.0000000000000151
 30
0.0
 40
41.8468210028731278
  0
CIRCLE
  5
1476
  8
0
  6
VERDECKT
 62
     1
 10
0.0000000000000742
 20
0.0000000000000151
 30
0.0
 40
43.0
  0
CIRCLE
  5
1477
  8
0
  6
VERDECKT
 62
     1
 10
0.0000000000000737
 20
0.0000000000000149
 30
0.0
 40
49.7965643588121907
  0
CIRCLE
  5
1478
  8
0
  6
VERDECKT
 62
     1
 10
0.0000000000000728
 20
0.0000000000000147
 30
0.0
 40
50.4911570694800886
  0
CIRCLE
  5
1479
  8
0
  6
VERDECKT
 62
     1
 10
0.0000000000000737
 20
0.0000000000000149
 30
0.0
 40
53.7965643588121907
  0
ENDBLK
  5
147B
  8
0
  0
BLOCK
  8
0
  2
*U15
 70
     1
 10
0.0
 20
0.0
 30
0.0
  3
*U15
  1

  0
TEXT
  5
14CB
  8
STEMPEL
 62
     1
 10
113.5071635713122049
 20
264.7966696319240896
 30
0.0
 40
3.5
  1
\U+220586
 41
0.8
  0
ENDBLK
  5
14CD
  8
0
  0
ENDSEC
  0
SECTION
  2
ENTITIES
  0
TEXT
  5
8F
  8
VOLL
 10
78.076754716981128
 20
31.025947764705851
 30
0.0
 40
1.8
  1

  7
GREEKS
  0
TEXT
  5
D96
  8
VOLL
 10
1008.2114546627890377
 20
158.8223564877349929
 30
0.0
 40
1.8
  1

  7
GREEKS
  0
TEXT
  5
D97
  8
VOLL
 10
1129.6142233319699244
 20
366.1427645329974894
 30
0.0
 40
1.8
  1

  7
GREEKS
  0
TEXT
  5
D98
  8
VOLL
 10
1459.4474342963899289
 20
182.5533404989043049
 30
0.0
 40
1.8
  1

  7
GREEKS
  0
TEXT
  5
D99
  8
VOLL
 10
1455.6151577820519378
 20
171.3495167704433868
 30
0.0
 40
1.8
  1

  7
GREEKS
  0
TEXT
  5
ED0
  8
VOLL
 10
308.8423522569955821
 20
200.1160645269177962
 30
0.0
 40
1.8
  1

  7
GREEKS
  0
INSERT
  5
145D
  8
STEMPEL
  2
A$C70B51F6B
 10
0.0
 20
0.0
 30
0.0
  0
INSERT
  5
147C
  8
STEMPEL
  2
A$C5978583B
 10
-0.0000000000000432
 20
-155.0
 30
0.0
  0
VIEWPORT
  5
1243
 67
     1
  8
0
 10
8.0215029979204875
 20
11.5389625433252903
 30
0.0
 40
41.4975290183878727
 41
23.5593541239851483
 68
     1
 69
     1
1001
ACAD
1000
MVIEW
1002
{
1070
    16
1010
0.0
1020
0.0
1030
0.0
1010
0.0
1020
0.0
1030
1.0
1040
0.0
1040
23.5593541239851483
1040
8.0215029979204875
1040
11.5389625433252903
1040
50.0
1040
0.0
1040
0.0
1070
     0
1070
  1500
1070
     1
1070
     1
1070
     0
1070
     0
1070
     0
1070
     0
1040
0.0
1040
0.0
1040
0.0
1040
10.0
1040
10.0
1040
10.0
1040
10.0
1070
     0
1002
{
1002
}
1002
}
  0
VIEWPORT
  5
1247
 67
     1
  8
DEFPOINTS
 10
8.0215712711011626
 20
11.5388987391091398
 30
0.0
 40
16.3296899365415484
 41
23.3927904992175293
 68
     2
 69
     2
1001
ACAD
1000
MVIEW
1002
{
1070
    16
1010
378.615510086213078
1020
187.1270861473333866
1030
-10.0011286737004799
1010
0.0
1020
0.0
1030
1.0
1040
0.0
1040
312.8704753847251823
1040
-273.7893354547296099
1040
-35.361987938763761
1040
50.0
1040
0.0
1040
0.0
1070
     0
1070
  1500
1070
     1
1070
     0
1070
     0
1070
     0
1070
     0
1070
     0
1040
0.0
1040
0.0
1040
0.0
1040
1.0
1040
1.0
1040
10.0
1040
10.0
1070
     0
1002
{
1002
}
1002
}
  0
VIEWPORT
  5
124B
 67
     1
  8
DEFPOINTS
 10
4.3947615426529998
 20
7.8961986597362461
 30
0.0
 40
4.8736902634650221
 41
5.0913976346916661
 68
     3
 69
     3
1001
ACAD
1000
MVIEW
1002
{
1070
    16
1010
394.3815918252067831
1020
210.250334798935711
1030
2.8511354491471148
1010
3.3400428970289791
1020
143.0666889914544129
1030
234.1029757324272964
1040
3.114015110273574
1040
137.5976118759907934
1040
0.0
1040
0.0
1040
50.0
1040
0.0
1040
0.0
1070
     0
1070
  1500
1070
     1
1070
     0
1070
     0
1070
     0
1070
     0
1070
     0
1040
0.0
1040
0.0
1040
0.0
1040
1.0
1040
1.0
1040
10.0
1040
10.0
1070
     0
1002
{
1002
}
1002
}
  0
ENDSEC
  0
EOF
