  0
SECTION
  2
HEADER
  9
$ACADVER
  1
AC1009
  9
$INSBASE
 10
0.0
 20
0.0
 30
0.0
  9
$EXTMIN
 10
-0.0218107159505507
 20
-0.0090630292066862
 30
-0.0048725708986694
  9
$EXTMAX
 10
110.0216460719379938
 20
235.0132147306730133
 30
0.0130557942434848
  9
$LIMMIN
 10
0.0
 20
0.0
  9
$LIMMAX
 10
210.0
 20
297.0
  9
$ORTHOMODE
 70
     1
  9
$REGENMODE
 70
     1
  9
$FILLMODE
 70
     1
  9
$QTEXTMODE
 70
     0
  9
$MIRRTEXT
 70
     1
  9
$DRAGMODE
 70
     2
  9
$LTSCALE
 40
10.0
  9
$OSMODE
 70
    39
  9
$ATTMODE
 70
     1
  9
$TEXTSIZE
 40
3.5
  9
$TRACEWID
 40
0.5
  9
$TEXTSTYLE
  7
STANDARD
  9
$CLAYER
  8
ROHR
  9
$CELTYPE
  6
BYLAYER
  9
$CECOLOR
 62
   256
  9
$DIMSCALE
 40
1.0
  9
$DIMASZ
 40
3.5
  9
$DIMEXO
 40
1.0
  9
$DIMDLI
 40
7.0
  9
$DIMRND
 40
0.0
  9
$DIMDLE
 40
0.0
  9
$DIMEXE
 40
1.0
  9
$DIMTP
 40
0.0
  9
$DIMTM
 40
0.0
  9
$DIMTXT
 40
3.5
  9
$DIMCEN
 40
1.5
  9
$DIMTSZ
 40
0.0
  9
$DIMTOL
 70
     0
  9
$DIMLIM
 70
     0
  9
$DIMTIH
 70
     0
  9
$DIMTOH
 70
     0
  9
$DIMSE1
 70
     0
  9
$DIMSE2
 70
     0
  9
$DIMTAD
 70
     1
  9
$DIMZIN
 70
     8
  9
$DIMBLK
  1

  9
$DIMASO
 70
     1
  9
$DIMSHO
 70
     0
  9
$DIMPOST
  1

  9
$DIMAPOST
  1

  9
$DIMALT
 70
     0
  9
$DIMALTD
 70
     2
  9
$DIMALTF
 40
25.3999999999999986
  9
$DIMLFAC
 40
1.0
  9
$DIMTOFL
 70
     1
  9
$DIMTVP
 40
0.0
  9
$DIMTIX
 70
     0
  9
$DIMSOXD
 70
     0
  9
$DIMSAH
 70
     0
  9
$DIMBLK1
  1

  9
$DIMBLK2
  1

  9
$DIMSTYLE
  2
STANDARD
  9
$DIMCLRD
 70
     0
  9
$DIMCLRE
 70
     0
  9
$DIMCLRT
 70
     1
  9
$DIMTFAC
 40
0.5142857142857143
  9
$DIMGAP
 40
1.5
  9
$LUNITS
 70
     2
  9
$LUPREC
 70
     2
  9
$SKETCHINC
 40
1.0
  9
$FILLETRAD
 40
0.0
  9
$AUNITS
 70
     0
  9
$AUPREC
 70
     0
  9
$MENU
  1
ACAD
  9
$ELEVATION
 40
0.0
  9
$PELEVATION
 40
0.0
  9
$THICKNESS
 40
0.0
  9
$LIMCHECK
 70
     0
  9
$BLIPMODE
 70
     0
  9
$CHAMFERA
 40
0.0
  9
$CHAMFERB
 40
0.0
  9
$SKPOLY
 70
     0
  9
$TDCREATE
 40
2455397.8646990740671754
  9
$TDUPDATE
 40
2458418.3476620367728174
  9
$TDINDWG
 40
0.0564356481
  9
$TDUSRTIMER
 40
0.0564356481
  9
$USRTIMER
 70
     1
  9
$ANGBASE
 50
0.0
  9
$ANGDIR
 70
     0
  9
$PDMODE
 70
     0
  9
$PDSIZE
 40
0.0
  9
$PLINEWID
 40
0.0
  9
$COORDS
 70
     1
  9
$SPLFRAME
 70
     0
  9
$SPLINETYPE
 70
     6
  9
$SPLINESEGS
 70
     8
  9
$ATTDIA
 70
     1
  9
$ATTREQ
 70
     1
  9
$HANDLING
 70
     1
  9
$HANDSEED
  5
929
  9
$SURFTAB1
 70
     6
  9
$SURFTAB2
 70
     6
  9
$SURFTYPE
 70
     6
  9
$SURFU
 70
     6
  9
$SURFV
 70
     6
  9
$UCSNAME
  2

  9
$UCSORG
 10
0.0
 20
0.0
 30
0.0
  9
$UCSXDIR
 10
1.0
 20
0.0
 30
0.0
  9
$UCSYDIR
 10
0.0
 20
1.0
 30
0.0
  9
$PUCSNAME
  2

  9
$PUCSORG
 10
0.0
 20
0.0
 30
0.0
  9
$PUCSXDIR
 10
1.0
 20
0.0
 30
0.0
  9
$PUCSYDIR
 10
0.0
 20
1.0
 30
0.0
  9
$USERI1
 70
     0
  9
$USERI2
 70
     0
  9
$USERI3
 70
     0
  9
$USERI4
 70
     0
  9
$USERI5
 70
     0
  9
$USERR1
 40
0.0
  9
$USERR2
 40
0.0
  9
$USERR3
 40
0.0
  9
$USERR4
 40
0.0
  9
$USERR5
 40
0.0
  9
$WORLDVIEW
 70
     1
  9
$SHADEDGE
 70
     3
  9
$SHADEDIF
 70
    70
  9
$TILEMODE
 70
     1
  9
$MAXACTVP
 70
    16
  9
$PLIMCHECK
 70
     0
  9
$PEXTMIN
 10
-0.239909486561853
 20
-0.2198583309599869
 30
-0.0000000000112498
  9
$PEXTMAX
 10
15.1284885655446999
 20
20.9894678807582693
 30
0.0000000000002956
  9
$PLIMMIN
 10
-0.2500002402958907
 20
-0.2499999962453767
  9
$PLIMMAX
 10
10.7499995194082203
 20
8.2499997634587334
  9
$UNITMODE
 70
     0
  9
$VISRETAIN
 70
     0
  9
$PLINEGEN
 70
     0
  9
$PSLTSCALE
 70
     0
  0
ENDSEC
  0
SECTION
  2
TABLES
  0
TABLE
  2
VPORT
 70
     1
  0
VPORT
  2
*ACTIVE
 70
     0
 10
0.0
 20
0.0
 11
1.0
 21
1.0
 12
54.9999176779937216
 22
117.5020758507331067
 13
0.0
 23
0.0
 14
1.0
 24
1.0
 15
10.0
 25
10.0
 16
-0.0000000000000012
 26
0.0
 36
5.5852494427615742
 17
0.0
 27
0.0
 37
0.0
 40
236.8999524157509029
 41
2.0800000000000001
 42
50.0
 43
0.0
 44
0.0
 50
0.0
 51
0.0
 71
     0
 72
  1500
 73
     1
 74
     0
 75
     0
 76
     0
 77
     0
 78
     0
  0
ENDTAB
  0
TABLE
  2
LTYPE
 70
     2
  0
LTYPE
  2
CONTINUOUS
 70
     0
  3
Solid line
 72
    65
 73
     0
 40
0.0
  0
LTYPE
  2
VERDECKT
 70
     0
  3
Verdeckt __ __ __ __ __ __ __ __ __ __ __ __ __
 72
    65
 73
     2
 40
0.375
 49
0.25
 49
-0.125
  0
ENDTAB
  0
TABLE
  2
LAYER
 70
     4
  0
LAYER
  2
0
 70
     0
 62
     7
  6
CONTINUOUS
  0
LAYER
  2
ROHR
 70
     0
 62
     9
  6
CONTINUOUS
  0
LAYER
  2
VOLL
 70
     0
 62
     1
  6
CONTINUOUS
  0
LAYER
  2
DEFPOINTS
 70
     0
 62
     7
  6
CONTINUOUS
  0
ENDTAB
  0
TABLE
  2
STYLE
 70
     3
  0
STYLE
  2
STANDARD
 70
     0
 40
0.0
 41
0.8
 50
0.0
 71
     0
 42
3.5
  3
simplex.shx
  4

  0
STYLE
  2
ANNOTATIVE
 70
     0
 40
0.0
 41
1.0
 50
0.0
 71
     0
 42
0.2
  3
txt
  4

  0
STYLE
  2
GREEKS
 70
     0
 40
0.0
 41
0.8
 50
0.0
 71
     0
 42
2.5
  3
SIMPLEX.shx
  4

  0
ENDTAB
  0
TABLE
  2
VIEW
 70
     0
  0
ENDTAB
  0
TABLE
  2
UCS
 70
     0
  0
ENDTAB
  0
TABLE
  2
APPID
 70
     9
  0
APPID
  2
ACAD
 70
     0
  0
APPID
  2
ACADANNOTATIVE
 70
     0
  0
APPID
  2
ACAD_NAV_VCDISPLAY
 70
     0
  0
APPID
  2
ACAECLAYERSTANDARD
 70
     0
  0
APPID
  2
ACCMTRANSPARENCY
 70
     0
  0
APPID
  2
ACAD_MLEADERVER
 70
     0
  0
APPID
  2
ACAD_OBJECT_CHANGE_GUID
 70
     0
  0
APPID
  2
ACAD_EXEMPT_FROM_CAD_STANDARDS
 70
     0
  0
APPID
  2
ACAD_PSEXT
 70
     0
  0
ENDTAB
  0
TABLE
  2
DIMSTYLE
 70
     2
  0
DIMSTYLE
  2
STANDARD
 70
     0
  3

  4

  5

  6

  7

 40
1.0
 41
0.18
 42
0.0625
 43
0.38
 44
0.18
 45
0.0
 46
0.0
 47
0.0
 48
0.0
140
0.18
141
0.09
142
0.0
143
25.3999999999999986
144
1.0
145
0.0
146
1.0
147
0.09
 71
     0
 72
     0
 73
     1
 74
     1
 75
     0
 76
     0
 77
     0
 78
     0
170
     0
171
     2
172
     0
173
     0
174
     0
175
     0
176
     0
177
     0
178
     0
  0
DIMSTYLE
  2
ANNOTATIVE
 70
     0
  3

  4

  5

  6

  7

 40
1.0
 41
0.18
 42
0.0625
 43
0.38
 44
0.18
 45
0.0
 46
0.0
 47
0.0
 48
0.0
140
0.18
141
0.09
142
0.0
143
25.3999999999999986
144
1.0
145
0.0
146
1.0
147
0.09
 71
     0
 72
     0
 73
     1
 74
     1
 75
     0
 76
     0
 77
     0
 78
     0
170
     0
171
     2
172
     0
173
     0
174
     0
175
     0
176
     0
177
     0
178
     0
  0
ENDTAB
  0
ENDSEC
  0
SECTION
  2
BLOCKS
  0
BLOCK
  8
0
  2
$MODEL_SPACE
 70
     0
 10
0.0
 20
0.0
 30
0.0
  3
$MODEL_SPACE
  1

  0
ENDBLK
  5
8A0
  8
0
  0
BLOCK
 67
     1
  8
0
  2
$PAPER_SPACE
 70
     0
 10
0.0
 20
0.0
 30
0.0
  3
$PAPER_SPACE
  1

  0
ENDBLK
  5
89C
 67
     1
  8
0
  0
BLOCK
  8
0
  2
A$C30605AC2
 70
     0
 10
0.0
 20
0.0
 30
0.0
  3
A$C30605AC2
  1

  0
LINE
  5
77F
  8
0
  6
CONTINUOUS
 62
     3
 10
402.7717984689048762
 20
387.3811079686008725
 30
0.0
 11
461.984504768778379
 21
387.3811079686008725
 31
0.0
210
0.0
220
1.0
230
0.0
  0
LINE
  5
780
  8
0
  6
CONTINUOUS
 62
     3
 10
401.3770021277824185
 20
383.3811079686008156
 30
0.0
 11
463.3793011099007231
 21
383.3811079686008156
 31
0.0
210
0.0
220
1.0
230
0.0
  0
ARC
  5
781
  8
0
  6
CONTINUOUS
 62
     3
 10
-420.3781516188508931
 20
378.9986066259377253
 30
0.0
 40
19.5000000000092584
210
0.0
220
0.0
230
-1.0
 50
12.9878048295050004
 51
25.4594285688139799
  0
ARC
  5
782
  8
0
  6
CONTINUOUS
 62
     3
 10
-444.378151618832419
 20
378.9986066259377253
 30
0.0
 40
19.5000000000092584
210
0.0
220
0.0
230
-1.0
 50
154.5405714311860095
 51
167.012195170494806
  0
ARC
  5
783
  8
0
  6
CONTINUOUS
 62
     3
 10
-401.4904087211940009
 20
379.7594068413037007
 30
0.0
 40
3.6234762467682038
210
0.0
220
0.0
230
-1.0
 50
9.8794567235610842
 51
88.2064790821077054
  0
ARC
  5
784
  8
0
  6
CONTINUOUS
 62
     3
 10
-463.2658945164894249
 20
379.7594068413037007
 30
0.0
 40
3.6234762467682282
210
0.0
220
0.0
230
-1.0
 50
91.7935209178922946
 51
170.1205432764388945
  0
LINE
  5
785
  8
0
  6
CONTINUOUS
 62
     3
 10
382.0780609270490231
 20
308.3811079686008156
 30
0.0
 11
482.6782423106341184
 21
308.3811079686008156
 31
0.0
210
0.0
220
1.0
230
0.0
  0
LINE
  5
786
  8
0
  6
CONTINUOUS
 62
     3
 10
377.3781516188416276
 20
378.3811079686008156
 30
0.0
 11
487.3781516188416276
 21
378.3811079686008156
 31
0.0
210
0.0
220
1.0
230
0.0
  0
LINE
  5
787
  8
0
  6
CONTINUOUS
 62
     3
 10
377.3781516188416276
 20
380.3811079686008156
 30
0.0
 11
487.3781516188416276
 21
380.3811079686008156
 31
0.0
210
0.0
220
1.0
230
0.0
  0
LINE
  5
788
  8
0
  6
CONTINUOUS
 62
     3
 10
382.0780609270490231
 20
308.3811079686008156
 30
0.0
 11
381.3781516188416276
 21
316.381107968600702
 31
0.0
210
0.0
220
1.0
230
0.0
  0
LINE
  5
789
  8
0
  6
CONTINUOUS
 62
     3
 10
482.6782423106341184
 20
308.3811079686008156
 30
0.0
 11
483.3781516188416276
 21
316.381107968600702
 31
0.0
210
0.0
220
1.0
230
0.0
  0
LINE
  5
78A
  8
0
  6
CONTINUOUS
 62
     3
 10
483.3781516188416276
 20
378.3811079686008156
 30
0.0
 11
483.3781516188416276
 21
316.381107968600702
 31
0.0
210
0.0
220
1.0
230
0.0
  0
LINE
  5
78B
  8
0
  6
CONTINUOUS
 62
     3
 10
381.3781516188416276
 20
378.3811079686008156
 30
0.0
 11
381.3781516188416276
 21
316.381107968600702
 31
0.0
210
0.0
220
1.0
230
0.0
  0
LINE
  5
78C
  8
0
  6
CONTINUOUS
 62
     3
 10
487.3781516188416276
 20
380.3811079686008156
 30
0.0
 11
487.3781516188416276
 21
378.3811079686008156
 31
0.0
210
0.0
220
1.0
230
0.0
  0
LINE
  5
78D
  8
0
  6
CONTINUOUS
 62
     3
 10
377.3781516188416276
 20
380.3811079686008156
 30
0.0
 11
377.3781516188416276
 21
378.3811079686008156
 31
0.0
210
0.0
220
1.0
230
0.0
  0
LINE
  5
78E
  8
0
  6
VERDECKT
 62
     1
 10
405.8781516188416276
 20
342.3811079686008156
 30
0.0
 11
458.8781516188416276
 21
342.3811079686008156
 31
0.0
210
0.0
220
1.0
230
0.0
  0
ARC
  5
78F
  8
0
  6
VERDECKT
 62
     1
 10
-420.3781516188317937
 20
378.998606625938578
 30
0.0
 40
19.499999999990159
210
0.0
220
0.0
230
-1.0
 50
0.0000000000038421
 51
4.065538538605578
  0
ARC
  5
790
  8
0
  6
VERDECKT
 62
     1
 10
-444.3781516188515184
 20
378.998606625938578
 30
0.0
 40
19.499999999990159
210
0.0
220
0.0
230
-1.0
 50
175.9344614613943918
 51
179.9999999999961062
  0
ARC
  5
791
  8
0
  6
VERDECKT
 62
     1
 10
-425.8781516188404908
 20
374.5431079686006228
 30
0.0
 40
23.5000320571271786
210
0.0
220
0.0
230
-1.0
 50
340.5369005553109787
 51
0.0946380447970953
  0
ARC
  5
792
  8
0
  6
VERDECKT
 62
     1
 10
-438.8781516188436171
 20
374.5431079686006228
 30
0.0
 40
23.5000320571260986
210
0.0
220
0.0
230
-1.0
 50
179.9053619552026078
 51
199.4630994446897034
  0
LINE
  5
793
  8
0
  6
VERDECKT
 62
     1
 10
462.3781516188416276
 20
378.998606625939999
 30
0.0
 11
462.3781516188416276
 21
374.581924022665703
 31
0.0
210
0.0
220
1.0
230
0.0
  0
LINE
  5
794
  8
0
  6
VERDECKT
 62
     1
 10
402.3781516188416276
 20
378.998606625939999
 30
0.0
 11
402.3781516188416276
 21
374.581924022665703
 31
0.0
210
0.0
220
1.0
230
0.0
  0
ARC
  5
795
  8
0
  6
VERDECKT
 62
     1
 10
-420.3781516188445266
 20
378.9986066259392032
 30
0.0
 40
18.000000000002899
210
0.0
220
0.0
230
-1.0
 50
0.0000000000019974
 51
25.0
  0
ARC
  5
796
  8
0
  6
VERDECKT
 62
     1
 10
-444.3781516188386149
 20
378.9986066259392032
 30
0.0
 40
18.000000000002899
210
0.0
220
0.0
230
-1.0
 50
155.0
 51
179.9999999999980105
  0
LINE
  5
797
  8
0
  6
VERDECKT
 62
     1
 10
460.330129589588978
 20
387.3811079686008725
 30
0.0
 11
460.6916917855011206
 21
386.6057353372730176
 31
0.0
210
0.0
220
1.0
230
0.0
  0
LINE
  5
798
  8
0
  6
VERDECKT
 62
     1
 10
404.4261736480939931
 20
387.3811079686008725
 30
0.0
 11
404.0646114521820778
 21
386.6057353372730176
 31
0.0
210
0.0
220
1.0
230
0.0
  0
LINE
  5
799
  8
0
  6
VERDECKT
 62
     1
 10
463.8781516188416845
 20
378.998606625939999
 30
0.0
 11
463.8781516188416845
 21
374.5831436706092177
 31
0.0
210
0.0
220
1.0
230
0.0
  0
LINE
  5
79A
  8
0
  6
VERDECKT
 62
     1
 10
400.8781516188416276
 20
378.998606625939999
 30
0.0
 11
400.8781516188416276
 21
374.5831436706092177
 31
0.0
210
0.0
220
1.0
230
0.0
  0
ARC
  5
79B
  8
0
  6
VERDECKT
 62
     1
 10
-425.8781516188441856
 20
374.5431079686010207
 30
0.0
 40
25.0000320571306602
210
0.0
220
0.0
230
-1.0
 50
340.5369005553127977
 51
0.0917549917591447
  0
ARC
  5
79C
  8
0
  6
VERDECKT
 62
     1
 10
-438.8781516188391265
 20
374.5431079686010207
 30
0.0
 40
25.0000320571306602
210
0.0
220
0.0
230
-1.0
 50
179.9082450082408116
 51
199.4630994446870886
  0
ARC
  5
79D
  8
0
  6
VERDECKT
 62
     1
 10
-392.8781516188416276
 20
362.8811079686005883
 30
0.0
 40
10.0000000000001101
210
0.0
220
0.0
230
-1.0
 50
160.5369005553098134
 51
179.9999999999984084
  0
ARC
  5
79E
  8
0
  6
VERDECKT
 62
     1
 10
-471.8781516188416845
 20
362.8811079686005883
 30
0.0
 40
10.0000000000001101
210
0.0
220
0.0
230
-1.0
 50
0.0
 51
19.4630994446884316
  0
LINE
  5
79F
  8
0
  6
VERDECKT
 62
     1
 10
461.8781516188416276
 20
362.8811079686008725
 30
0.0
 11
461.8781516188416276
 21
354.789434881796808
 31
0.0
210
0.0
220
1.0
230
0.0
  0
LINE
  5
7A0
  8
0
  6
VERDECKT
 62
     1
 10
402.8781516188415139
 20
362.8811079686008725
 30
0.0
 11
402.8781516188415139
 21
354.789434881796808
 31
0.0
210
0.0
220
1.0
230
0.0
  0
ARC
  5
7A1
  8
0
  6
VERDECKT
 62
     1
 10
-414.8781516188419118
 20
354.7894348817969217
 30
0.0
 40
12.00000000000027
210
0.0
220
0.0
230
-1.0
 50
328.2116693829498217
 51
359.9999999999993747
  0
ARC
  5
7A2
  8
0
  6
VERDECKT
 62
     1
 10
-449.8781516188412866
 20
354.7894348817969217
 30
0.0
 40
12.0000000000002807
210
0.0
220
0.0
230
-1.0
 50
180.0000000000003979
 51
211.788330617050093
  0
ARC
  5
7A3
  8
0
  6
VERDECKT
 62
     1
 10
-397.878151618841116
 20
344.2537811289438991
 30
0.0
 40
8.0000000000006217
210
0.0
220
0.0
230
-1.0
 50
148.211669382948287
 51
179.9999999999988063
  0
ARC
  5
7A4
  8
0
  6
VERDECKT
 62
     1
 10
-466.8781516188411729
 20
344.2537811289441265
 30
0.0
 40
7.9999999999996572
210
0.0
220
0.0
230
-1.0
 50
359.9999999999996021
 51
31.7883306170545588
  0
LINE
  5
7A5
  8
0
  6
VERDECKT
 62
     1
 10
458.8781516188416276
 20
344.2537811289441265
 30
0.0
 11
458.8781516188416276
 21
342.3811079686008156
 31
0.0
210
0.0
220
1.0
230
0.0
  0
LINE
  5
7A6
  8
0
  6
VERDECKT
 62
     1
 10
405.8781516188416276
 20
344.2537811289441265
 30
0.0
 11
405.8781516188416276
 21
342.3811079686008156
 31
0.0
210
0.0
220
1.0
230
0.0
  0
LINE
  5
7A7
  8
0
  6
VERDECKT
 62
     1
 10
457.3781516188416276
 20
344.2537811289440128
 30
0.0
 11
457.3781516188416276
 21
342.3811079686008156
 31
0.0
210
0.0
220
1.0
230
0.0
  0
LINE
  5
7A8
  8
0
  6
VERDECKT
 62
     1
 10
407.3781516188416276
 20
344.2537811289440128
 30
0.0
 11
407.3781516188416276
 21
342.3811079686008156
 31
0.0
210
0.0
220
1.0
230
0.0
  0
ARC
  5
7A9
  8
0
  6
VERDECKT
 62
     1
 10
-397.8781516188427076
 20
344.2537811289441834
 30
0.0
 40
9.4999999999990408
210
0.0
220
0.0
230
-1.0
 50
148.2116693829484859
 51
180.0000000000019895
  0
ARC
  5
7AA
  8
0
  6
VERDECKT
 62
     1
 10
-466.8781516188406044
 20
344.2537811289441834
 30
0.0
 40
9.4999999999990319
210
0.0
220
0.0
230
-1.0
 50
359.9999999999980105
 51
31.7883306170515283
  0
ARC
  5
7AB
  8
0
  6
VERDECKT
 62
     1
 10
-414.8781516188424234
 20
354.7894348817969785
 30
0.0
 40
10.5000000000007301
210
0.0
220
0.0
230
-1.0
 50
328.2116693829478891
 51
359.9999999999988063
  0
ARC
  5
7AC
  8
0
  6
VERDECKT
 62
     1
 10
-449.878151618840775
 20
354.7894348817969785
 30
0.0
 40
10.5000000000007301
210
0.0
220
0.0
230
-1.0
 50
180.0000000000011084
 51
211.7883306170519973
  0
LINE
  5
7AD
  8
0
  6
VERDECKT
 62
     1
 10
460.3781516188416276
 20
362.8811079686008725
 30
0.0
 11
460.3781516188416276
 21
354.789434881796808
 31
0.0
210
0.0
220
1.0
230
0.0
  0
LINE
  5
7AE
  8
0
  6
VERDECKT
 62
     1
 10
404.3781516188416276
 20
362.8811079686008725
 30
0.0
 11
404.3781516188416276
 21
354.789434881796808
 31
0.0
210
0.0
220
1.0
230
0.0
  0
ARC
  5
7AF
  8
0
  6
VERDECKT
 62
     1
 10
-392.8781516188399792
 20
362.8811079686004177
 30
0.0
 40
11.5000000000016502
210
0.0
220
0.0
230
-1.0
 50
160.5369005553114903
 51
179.9999999999976978
  0
ARC
  5
7B0
  8
0
  6
VERDECKT
 62
     1
 10
-471.8781516188432192
 20
362.8811079686004177
 30
0.0
 40
11.5000000000016502
210
0.0
220
0.0
230
-1.0
 50
0.0000000000022646
 51
19.4630994446884813
  0
LINE
  5
7B1
  8
0
  6
VERDECKT
 62
     1
 10
384.0857006021357734
 20
308.3811079686008156
 30
0.0
 11
383.3781516188416276
 21
316.4684298544181047
 31
0.0
210
0.0
220
1.0
230
0.0
  0
LINE
  5
7B2
  8
0
  6
VERDECKT
 62
     1
 10
480.6706026355474251
 20
308.3811079686008156
 30
0.0
 11
481.3781516188416276
 21
316.4684298544181047
 31
0.0
210
0.0
220
1.0
230
0.0
  0
LINE
  5
7B3
  8
0
  6
VERDECKT
 62
     1
 10
481.3781516188416276
 20
378.3811079686008156
 30
0.0
 11
481.3781516188416276
 21
316.4684298544181047
 31
0.0
210
0.0
220
1.0
230
0.0
  0
LINE
  5
7B4
  8
0
  6
VERDECKT
 62
     1
 10
383.3781516188416276
 20
378.3811079686008156
 30
0.0
 11
383.3781516188416276
 21
316.4684298544181047
 31
0.0
210
0.0
220
1.0
230
0.0
  0
LINE
  5
7B5
  8
0
  6
VERDECKT
 62
     1
 10
464.8781516188416276
 20
380.3811079686008156
 30
0.0
 11
464.8781516188416276
 21
378.3811079686008156
 31
0.0
210
0.0
220
1.0
230
0.0
  0
LINE
  5
7B6
  8
0
  6
VERDECKT
 62
     1
 10
399.8781516188416276
 20
380.3811079686008156
 30
0.0
 11
399.8781516188416276
 21
378.3811079686008156
 31
0.0
210
0.0
220
1.0
230
0.0
  0
ENDBLK
  5
7B8
  8
0
  0
BLOCK
  8
0
  2
A$C27685C13
 70
     0
 10
0.0
 20
0.0
 30
0.0
  3
A$C27685C13
  1

  0
CIRCLE
  5
7BC
  8
0
  6
CONTINUOUS
 62
     3
 10
450.8703817001106131
 20
328.1656102494287097
 30
0.0
 40
29.6063531499367514
  0
CIRCLE
  5
7BD
  8
0
  6
CONTINUOUS
 62
     3
 10
450.8703817001106131
 20
328.1656102494287097
 30
0.0
 40
31.0011494910591487
  0
CIRCLE
  5
7BE
  8
0
  6
CONTINUOUS
 62
     3
 10
450.8703817001106131
 20
328.1656102494287097
 30
0.0
 40
27.9519779707475209
  0
CIRCLE
  5
7BF
  8
0
  6
CONTINUOUS
 62
     3
 10
450.8703817001106131
 20
328.1656102494287097
 30
0.0
 40
25.0
  0
CIRCLE
  5
7C0
  8
0
  6
CONTINUOUS
 62
     3
 10
450.8703817001106131
 20
328.1656102494287097
 30
0.0
 40
34.4574862804710165
  0
CIRCLE
  5
7C1
  8
0
  6
CONTINUOUS
 62
     3
 10
450.8703817001106131
 20
328.1656102494287097
 30
0.0
 40
55.0
  0
CIRCLE
  5
7C2
  8
0
  6
VERDECKT
 62
     1
 10
450.8703817001106131
 20
328.1656102494287097
 30
0.0
 40
31.5
  0
CIRCLE
  5
7C3
  8
0
  6
VERDECKT
 62
     1
 10
450.8703817001106131
 20
328.1656102494287097
 30
0.0
 40
31.4509303129063902
  0
CIRCLE
  5
7C4
  8
0
  6
VERDECKT
 62
     1
 10
450.8703817001106131
 20
328.1656102494287097
 30
0.0
 40
30.0
  0
CIRCLE
  5
7C5
  8
0
  6
VERDECKT
 62
     1
 10
450.8703817001106131
 20
328.1656102494287097
 30
0.0
 40
29.5
  0
CIRCLE
  5
7C6
  8
0
  6
VERDECKT
 62
     1
 10
450.8703817001106131
 20
328.1656102494287097
 30
0.0
 40
26.5
  0
CIRCLE
  5
7C7
  8
0
  6
VERDECKT
 62
     1
 10
450.8703817001106131
 20
328.1656102494287097
 30
0.0
 40
28.0
  0
CIRCLE
  5
7C8
  8
0
  6
VERDECKT
 62
     1
 10
450.8703817001106131
 20
328.1656102494287097
 30
0.0
 40
30.0000320571282018
  0
CIRCLE
  5
7C9
  8
0
  6
VERDECKT
 62
     1
 10
450.8703817001106131
 20
328.1656102494287097
 30
0.0
 40
31.5000320571281591
  0
CIRCLE
  5
7CA
  8
0
  6
VERDECKT
 62
     1
 10
450.8703817001106131
 20
328.1656102494287097
 30
0.0
 40
50.3000906917925406
  0
CIRCLE
  5
7CB
  8
0
  6
VERDECKT
 62
     1
 10
450.8703817001106131
 20
328.1656102494287097
 30
0.0
 40
48.2924510167058472
  0
CIRCLE
  5
7CC
  8
0
  6
VERDECKT
 62
     1
 10
450.8703817001106131
 20
328.1656102494287097
 30
0.0
 40
48.9999999999999503
  0
CIRCLE
  5
7CD
  8
0
  6
VERDECKT
 62
     1
 10
450.8703817001106131
 20
328.1656102494287097
 30
0.0
 40
51.0
  0
CIRCLE
  5
7CE
  8
0
  6
VERDECKT
 62
     1
 10
450.8703817001106131
 20
328.1656102494287097
 30
0.0
 40
32.5
  0
ENDBLK
  5
7D0
  8
0
  0
ENDSEC
  0
SECTION
  2
ENTITIES
  0
TEXT
  5
8F
  8
VOLL
 10
78.076754716981128
 20
31.025947764705851
 30
0.0
 40
1.8
  1

  7
GREEKS
  0
INSERT
  5
8CE
  8
ROHR
  2
A$C30605AC2
 10
-377.378152854814175
 20
-152.4902689480701952
 30
0.0
  0
INSERT
  5
8CF
  8
ROHR
  2
A$C27685C13
 10
-395.8703829360832174
 20
-273.1656107448578155
 30
0.0
  0
VIEWPORT
  5
60C
 67
     1
  8
0
 10
7.4144094942794112
 20
7.8132989011109206
 30
0.0
 40
81.3546725135005317
 41
34.1906570350071704
 68
     1
 69
     1
1001
ACAD
1000
MVIEW
1002
{
1070
    16
1010
0.0
1020
0.0
1030
0.0
1010
0.0
1020
0.0
1030
1.0
1040
0.0
1040
34.1906570350071704
1040
7.4144094942794112
1040
7.8132989011109206
1040
50.0
1040
0.0
1040
0.0
1070
     0
1070
  1500
1070
     1
1070
     1
1070
     0
1070
     0
1070
     0
1070
     0
1040
0.0
1040
0.0
1040
0.0
1040
10.0
1040
10.0
1040
10.0
1040
10.0
1070
     0
1002
{
1002
}
1002
}
  0
ENDSEC
  0
EOF
