  0
SECTION
  2
HEADER
  9
$ACADVER
  1
AC1009
  9
$INSBASE
 10
0.0
 20
0.0
 30
0.0
  9
$EXTMIN
 10
-2.1956940486484191
 20
-0.0181260584133725
 30
-0.0248387063039672
  9
$EXTMAX
 10
104.303598186780107
 20
370.5520946287458059
 30
0.0034287063895135
  9
$LIMMIN
 10
0.0
 20
0.0
  9
$LIMMAX
 10
419.9999999999998863
 20
594.0
  9
$ORTHOMODE
 70
     1
  9
$REGENMODE
 70
     1
  9
$FILLMODE
 70
     1
  9
$QTEXTMODE
 70
     0
  9
$MIRRTEXT
 70
     1
  9
$DRAGMODE
 70
     2
  9
$LTSCALE
 40
20.0
  9
$OSMODE
 70
    39
  9
$ATTMODE
 70
     1
  9
$TEXTSIZE
 40
3.5
  9
$TRACEWID
 40
0.5
  9
$TEXTSTYLE
  7
STANDARD
  9
$CLAYER
  8
DEFPOINTS
  9
$CELTYPE
  6
BYLAYER
  9
$CECOLOR
 62
   256
  9
$DIMSCALE
 40
2.0
  9
$DIMASZ
 40
3.5
  9
$DIMEXO
 40
1.0
  9
$DIMDLI
 40
7.0
  9
$DIMRND
 40
0.0
  9
$DIMDLE
 40
0.0
  9
$DIMEXE
 40
1.0
  9
$DIMTP
 40
0.0
  9
$DIMTM
 40
0.0
  9
$DIMTXT
 40
3.5
  9
$DIMCEN
 40
1.5
  9
$DIMTSZ
 40
0.0
  9
$DIMTOL
 70
     0
  9
$DIMLIM
 70
     0
  9
$DIMTIH
 70
     0
  9
$DIMTOH
 70
     0
  9
$DIMSE1
 70
     0
  9
$DIMSE2
 70
     0
  9
$DIMTAD
 70
     1
  9
$DIMZIN
 70
     8
  9
$DIMBLK
  1

  9
$DIMASO
 70
     1
  9
$DIMSHO
 70
     0
  9
$DIMPOST
  1

  9
$DIMAPOST
  1

  9
$DIMALT
 70
     0
  9
$DIMALTD
 70
     2
  9
$DIMALTF
 40
25.3999999999999986
  9
$DIMLFAC
 40
1.0
  9
$DIMTOFL
 70
     1
  9
$DIMTVP
 40
0.0
  9
$DIMTIX
 70
     0
  9
$DIMSOXD
 70
     0
  9
$DIMSAH
 70
     0
  9
$DIMBLK1
  1

  9
$DIMBLK2
  1

  9
$DIMSTYLE
  2
STANDARD
  9
$DIMCLRD
 70
     0
  9
$DIMCLRE
 70
     0
  9
$DIMCLRT
 70
     1
  9
$DIMTFAC
 40
0.5142857142857143
  9
$DIMGAP
 40
1.5
  9
$LUNITS
 70
     2
  9
$LUPREC
 70
     2
  9
$SKETCHINC
 40
1.0
  9
$FILLETRAD
 40
0.0
  9
$AUNITS
 70
     0
  9
$AUPREC
 70
     0
  9
$MENU
  1
ACAD
  9
$ELEVATION
 40
0.0
  9
$PELEVATION
 40
0.0
  9
$THICKNESS
 40
0.0
  9
$LIMCHECK
 70
     0
  9
$BLIPMODE
 70
     0
  9
$CHAMFERA
 40
0.0
  9
$CHAMFERB
 40
0.0
  9
$SKPOLY
 70
     0
  9
$TDCREATE
 40
2455397.8646990740671754
  9
$TDUPDATE
 40
2458418.3467939808033407
  9
$TDINDWG
 40
0.1705420949
  9
$TDUSRTIMER
 40
0.1705420949
  9
$USRTIMER
 70
     1
  9
$ANGBASE
 50
0.0
  9
$ANGDIR
 70
     0
  9
$PDMODE
 70
     0
  9
$PDSIZE
 40
0.0
  9
$PLINEWID
 40
0.0
  9
$COORDS
 70
     1
  9
$SPLFRAME
 70
     0
  9
$SPLINETYPE
 70
     6
  9
$SPLINESEGS
 70
     8
  9
$ATTDIA
 70
     1
  9
$ATTREQ
 70
     1
  9
$HANDLING
 70
     1
  9
$HANDSEED
  5
288B
  9
$SURFTAB1
 70
     6
  9
$SURFTAB2
 70
     6
  9
$SURFTYPE
 70
     6
  9
$SURFU
 70
     6
  9
$SURFV
 70
     6
  9
$UCSNAME
  2

  9
$UCSORG
 10
0.0
 20
0.0
 30
0.0
  9
$UCSXDIR
 10
1.0
 20
0.0
 30
0.0
  9
$UCSYDIR
 10
0.0
 20
1.0
 30
0.0
  9
$PUCSNAME
  2

  9
$PUCSORG
 10
0.0
 20
0.0
 30
0.0
  9
$PUCSXDIR
 10
1.0
 20
0.0
 30
0.0
  9
$PUCSYDIR
 10
0.0
 20
1.0
 30
0.0
  9
$USERI1
 70
     0
  9
$USERI2
 70
     0
  9
$USERI3
 70
     0
  9
$USERI4
 70
     0
  9
$USERI5
 70
     0
  9
$USERR1
 40
0.0
  9
$USERR2
 40
0.0
  9
$USERR3
 40
0.0
  9
$USERR4
 40
0.0
  9
$USERR5
 40
0.0
  9
$WORLDVIEW
 70
     1
  9
$SHADEDGE
 70
     3
  9
$SHADEDIF
 70
    70
  9
$TILEMODE
 70
     1
  9
$MAXACTVP
 70
    16
  9
$PLIMCHECK
 70
     0
  9
$PEXTMIN
 10
-0.2039773037755026
 20
-0.2317862002583269
 30
-0.0000000000112498
  9
$PEXTMAX
 10
17.1849625158888202
 20
24.6166854090521703
 30
0.0000000000002956
  9
$PLIMMIN
 10
-0.2500002402958907
 20
-0.2499999962453767
  9
$PLIMMAX
 10
10.7499995194082203
 20
8.2499997634587334
  9
$UNITMODE
 70
     0
  9
$VISRETAIN
 70
     0
  9
$PLINEGEN
 70
     0
  9
$PSLTSCALE
 70
     0
  0
ENDSEC
  0
SECTION
  2
TABLES
  0
TABLE
  2
VPORT
 70
     1
  0
VPORT
  2
*ACTIVE
 70
     0
 10
0.0
 20
0.0
 11
1.0
 21
1.0
 12
51.0539520690658719
 22
185.2669842851661883
 13
0.0
 23
0.0
 14
1.0
 24
1.0
 15
10.0
 25
10.0
 16
-0.0000000000000012
 26
0.0
 36
5.5852494427615733
 17
0.0
 27
0.0
 37
0.0
 40
373.530834966950124
 41
2.0800000000000001
 42
50.0
 43
0.0
 44
0.0
 50
0.0
 51
0.0
 71
     0
 72
  1500
 73
     1
 74
     0
 75
     0
 76
     0
 77
     0
 78
     0
  0
ENDTAB
  0
TABLE
  2
LTYPE
 70
     3
  0
LTYPE
  2
CONTINUOUS
 70
     0
  3
Solid line
 72
    65
 73
     0
 40
0.0
  0
LTYPE
  2
AUSGEZOGEN
 70
     0
  3
Ausgezogene Linie
 72
    65
 73
     0
 40
0.0
  0
LTYPE
  2
VERDECKT
 70
     0
  3
Verdeckt __ __ __ __ __ __ __ __ __ __ __ __ __
 72
    65
 73
     2
 40
0.375
 49
0.25
 49
-0.125
  0
ENDTAB
  0
TABLE
  2
LAYER
 70
     4
  0
LAYER
  2
0
 70
     0
 62
     7
  6
CONTINUOUS
  0
LAYER
  2
DEFPOINTS
 70
     0
 62
     7
  6
AUSGEZOGEN
  0
LAYER
  2
VOLL
 70
     0
 62
     1
  6
CONTINUOUS
  0
LAYER
  2
TEXT
 70
     0
 62
     7
  6
CONTINUOUS
  0
ENDTAB
  0
TABLE
  2
STYLE
 70
     3
  0
STYLE
  2
STANDARD
 70
     0
 40
0.0
 41
0.8
 50
0.0
 71
     0
 42
3.5
  3
simplex.shx
  4

  0
STYLE
  2
ANNOTATIVE
 70
     0
 40
0.0
 41
1.0
 50
0.0
 71
     0
 42
0.2
  3
txt
  4

  0
STYLE
  2
GREEKS
 70
     0
 40
0.0
 41
0.8
 50
0.0
 71
     0
 42
2.5
  3
SIMPLEX.shx
  4

  0
ENDTAB
  0
TABLE
  2
VIEW
 70
     0
  0
ENDTAB
  0
TABLE
  2
UCS
 70
     0
  0
ENDTAB
  0
TABLE
  2
APPID
 70
    10
  0
APPID
  2
ACAD
 70
     0
  0
APPID
  2
ACADANNOTATIVE
 70
     0
  0
APPID
  2
ACAD_NAV_VCDISPLAY
 70
     0
  0
APPID
  2
ACAECLAYERSTANDARD
 70
     0
  0
APPID
  2
ACCMTRANSPARENCY
 70
     0
  0
APPID
  2
ACAD_PSEXT
 70
     0
  0
APPID
  2
ACAD_MLEADERVER
 70
     0
  0
APPID
  2
ACAD_OBJECT_CHANGE_GUID
 70
     0
  0
APPID
  2
ACAD_EXEMPT_FROM_CAD_STANDARDS
 70
     0
  0
APPID
  2
ACADANNOMONITORALERTICONDI
 70
     0
  0
ENDTAB
  0
TABLE
  2
DIMSTYLE
 70
     2
  0
DIMSTYLE
  2
STANDARD
 70
     0
  3

  4

  5

  6

  7

 40
1.0
 41
0.18
 42
0.0625
 43
0.38
 44
0.18
 45
0.0
 46
0.0
 47
0.0
 48
0.0
140
0.18
141
0.09
142
0.0
143
25.3999999999999986
144
1.0
145
0.0
146
1.0
147
0.09
 71
     0
 72
     0
 73
     1
 74
     1
 75
     0
 76
     0
 77
     0
 78
     0
170
     0
171
     2
172
     0
173
     0
174
     0
175
     0
176
     0
177
     0
178
     0
  0
DIMSTYLE
  2
ANNOTATIVE
 70
     0
  3

  4

  5

  6

  7

 40
1.0
 41
0.18
 42
0.0625
 43
0.38
 44
0.18
 45
0.0
 46
0.0
 47
0.0
 48
0.0
140
0.18
141
0.09
142
0.0
143
25.3999999999999986
144
1.0
145
0.0
146
1.0
147
0.09
 71
     0
 72
     0
 73
     1
 74
     1
 75
     0
 76
     0
 77
     0
 78
     0
170
     0
171
     2
172
     0
173
     0
174
     0
175
     0
176
     0
177
     0
178
     0
  0
ENDTAB
  0
ENDSEC
  0
SECTION
  2
BLOCKS
  0
BLOCK
  8
0
  2
$MODEL_SPACE
 70
     0
 10
0.0
 20
0.0
 30
0.0
  3
$MODEL_SPACE
  1

  0
ENDBLK
  5
2800
  8
0
  0
BLOCK
 67
     1
  8
0
  2
$PAPER_SPACE
 70
     0
 10
0.0
 20
0.0
 30
0.0
  3
$PAPER_SPACE
  1

  0
ENDBLK
  5
27FC
 67
     1
  8
0
  0
BLOCK
  8
0
  2
A$C54396064
 70
     0
 10
0.0
 20
0.0
 30
0.0
  3
A$C54396064
  1

  0
LINE
  5
26E7
  8
0
  6
CONTINUOUS
 62
     3
 10
739.5661655761211932
 20
32.2666179225993801
 30
0.0
 11
831.5661655761214206
 21
32.2666179225993801
 31
0.0
210
0.0
220
1.0
230
0.0
  0
LINE
  5
26E8
  8
0
  6
CONTINUOUS
 62
     3
 10
735.4410522113810202
 20
-105.7333820774007052
 30
0.0
 11
835.6912789408622757
 21
-105.7333820774007052
 31
0.0
210
0.0
220
1.0
230
0.0
  0
LINE
  5
26E9
  8
0
  6
CONTINUOUS
 62
     3
 10
831.5661655761214206
 20
32.2666179225993801
 30
0.0
 11
835.396092102016155
 21
18.7477206810609083
 31
0.0
210
0.0
220
1.0
230
0.0
  0
LINE
  5
26EA
  8
0
  6
CONTINUOUS
 62
     3
 10
739.5661655761211932
 20
32.2666179225992806
 30
0.0
 11
735.7362390502265725
 21
18.7477206810608088
 31
0.0
210
0.0
220
1.0
230
0.0
  0
ARC
  5
26EB
  8
0
  6
CONTINUOUS
 62
     3
 10
-759.5661655761189195
 20
11.1889772821582394
 30
0.0
 40
24.9999999999973888
210
0.0
220
0.0
230
-1.0
 50
359.9999999999985789
 51
17.5987885101928683
  0
ARC
  5
26EC
  8
0
  6
CONTINUOUS
 62
     3
 10
-811.5661655761240354
 20
11.1889772821583495
 30
0.0
 40
24.9999999999974989
210
0.0
220
0.0
230
-1.0
 50
162.4012114898071104
 51
180.0000000000013074
  0
LINE
  5
26ED
  8
0
  6
CONTINUOUS
 62
     3
 10
836.5661655761213069
 20
11.1889772821577296
 30
0.0
 11
836.5661655761213069
 21
-95.7333820774005062
 31
0.0
210
0.0
220
1.0
230
0.0
  0
LINE
  5
26EE
  8
0
  6
CONTINUOUS
 62
     3
 10
734.5661655761213069
 20
11.1889772821576301
 30
0.0
 11
734.5661655761213069
 21
-95.7333820774006341
 31
0.0
210
0.0
220
1.0
230
0.0
  0
LINE
  5
26EF
  8
0
  6
CONTINUOUS
 62
     3
 10
735.4410522113810202
 20
-105.7333820774008046
 30
0.0
 11
734.566165576121648
 21
-95.7333820774006341
 31
0.0
210
0.0
220
1.0
230
0.0
  0
LINE
  5
26F0
  8
0
  6
CONTINUOUS
 62
     3
 10
835.6912789408622757
 20
-105.7333820774007052
 30
0.0
 11
836.5661655761213069
 21
-95.7333820774005062
 31
0.0
210
0.0
220
1.0
230
0.0
  0
LINE
  5
26F1
  8
0
  6
CONTINUOUS
 62
     3
 10
737.8007609057814307
 20
109.2666179225994938
 30
0.0
 11
833.3315702464612968
 21
109.2666179225994938
 31
0.0
210
0.0
220
1.0
230
0.0
  0
LINE
  5
26F2
  8
0
  6
CONTINUOUS
 62
     3
 10
833.3315702464612968
 20
109.2666179225994938
 30
0.0
 11
834.3613371372224492
 21
107.0582756988505935
 31
0.0
210
0.0
220
1.0
230
0.0
  0
LINE
  5
26F3
  8
0
  6
CONTINUOUS
 62
     3
 10
737.8007609057814307
 20
109.2666179225994938
 30
0.0
 11
736.770994015020392
 21
107.0582756988505935
 31
0.0
210
0.0
220
1.0
230
0.0
  0
ARC
  5
26F4
  8
0
  6
CONTINUOUS
 62
     3
 10
-759.0661655761253996
 20
96.6618664600275821
 30
0.0
 40
24.6000000000038916
210
0.0
220
0.0
230
-1.0
 50
359.9999999999992042
 51
25.0000000000006004
  0
ARC
  5
26F5
  8
0
  6
CONTINUOUS
 62
     3
 10
-812.0661655761175552
 20
96.6618664600275537
 30
0.0
 40
24.6000000000038916
210
0.0
220
0.0
230
-1.0
 50
154.9999999999994031
 51
180.0000000000005969
  0
LINE
  5
26F6
  8
0
  6
CONTINUOUS
 62
     3
 10
836.6661655761213297
 20
96.6618664600272837
 30
0.0
 11
836.6661655761213297
 21
89.7030429796810154
 31
0.0
210
0.0
220
1.0
230
0.0
  0
LINE
  5
26F7
  8
0
  6
CONTINUOUS
 62
     3
 10
734.4661655761213979
 20
96.6618664600272837
 30
0.0
 11
734.4661655761213979
 21
89.7030429796810154
 31
0.0
210
0.0
220
1.0
230
0.0
  0
ARC
  5
26F8
  8
0
  6
CONTINUOUS
 62
     3
 10
-759.4661655761099155
 20
89.6347629318030812
 30
0.0
 40
25.00009324311306
210
0.0
220
0.0
230
-1.0
 50
334.8776318845203264
 51
0.1564859536346509
  0
ARC
  5
26F9
  8
0
  6
CONTINUOUS
 62
     3
 10
-811.6661655761331531
 20
89.6347629318030386
 30
0.0
 40
25.0000932431129392
210
0.0
220
0.0
230
-1.0
 50
179.8435140463651862
 51
205.1223681154797021
  0
ARC
  5
26FA
  8
0
  6
CONTINUOUS
 62
     3
 10
-725.9661655761243537
 20
73.9262652315189115
 30
0.0
 40
11.9999999999972697
210
0.0
220
0.0
230
-1.0
 50
154.8776318845177116
 51
180.0000000000021885
  0
ARC
  5
26FB
  8
0
  6
CONTINUOUS
 62
     3
 10
-845.1661655761182601
 20
73.9262652315188689
 30
0.0
 40
11.9999999999972697
210
0.0
220
0.0
230
-1.0
 50
359.9999999999976126
 51
25.1223681154823204
  0
LINE
  5
26FC
  8
0
  6
CONTINUOUS
 62
     3
 10
833.166165576121216
 20
73.9262652315184141
 30
0.0
 11
833.166165576121216
 21
54.6553443400165406
 31
0.0
210
0.0
220
1.0
230
0.0
  0
LINE
  5
26FD
  8
0
  6
CONTINUOUS
 62
     3
 10
737.9661655761212842
 20
73.9262652315184141
 30
0.0
 11
737.9661655761212842
 21
54.6553443400165406
 31
0.0
210
0.0
220
1.0
230
0.0
  0
ARC
  5
26FE
  8
0
  6
CONTINUOUS
 62
     3
 10
-749.9661655761212842
 20
54.6553443400166969
 30
0.0
 40
12.0000000000001208
210
0.0
220
0.0
230
-1.0
 50
327.6719358778377114
 51
359.9999999999992042
  0
ARC
  5
26FF
  8
0
  6
CONTINUOUS
 62
     3
 10
-821.1661655761213297
 20
54.6553443400166969
 30
0.0
 40
12.0000000000001101
210
0.0
220
0.0
230
-1.0
 50
180.0000000000007105
 51
212.3280641221622886
  0
ARC
  5
2700
  8
0
  6
CONTINUOUS
 62
     3
 10
-733.0661655761223301
 20
43.9600182580311696
 30
0.0
 40
7.9999999999990887
210
0.0
220
0.0
230
-1.0
 50
147.6719358778341871
 51
180.0000000000027001
  0
ARC
  5
2701
  8
0
  6
CONTINUOUS
 62
     3
 10
-838.0661655761202837
 20
43.9600182580311696
 30
0.0
 40
7.9999999999990887
210
0.0
220
0.0
230
-1.0
 50
359.9999999999973284
 51
32.3280641221657987
  0
LINE
  5
2702
  8
0
  6
CONTINUOUS
 62
     3
 10
830.0661655761214206
 20
43.9600182580308001
 30
0.0
 11
830.0661655761214206
 21
37.6656228915668407
 31
0.0
210
0.0
220
1.0
230
0.0
  0
LINE
  5
2703
  8
0
  6
CONTINUOUS
 62
     3
 10
741.0661655761214206
 20
43.9600182580308001
 30
0.0
 11
741.0661655761214206
 21
37.6656228915668407
 31
0.0
210
0.0
220
1.0
230
0.0
  0
ARC
  5
2704
  8
0
  6
CONTINUOUS
 62
     3
 10
-733.0661655761597331
 20
37.6656228915652207
 30
0.0
 40
7.999999999961914
210
0.0
220
0.0
230
-1.0
 50
179.9999999999884039
 51
185.7105931375157866
  0
ARC
  5
2705
  8
0
  6
CONTINUOUS
 62
     3
 10
-838.0661655760832218
 20
37.6656228915652207
 30
0.0
 40
7.999999999961914
210
0.0
220
0.0
230
-1.0
 50
354.2894068624842134
 51
0.0000000000115518
  0
LINE
  5
2706
  8
0
  6
CONTINUOUS
 62
     3
 10
830.1058680544414301
 20
36.8695931393987735
 30
0.0
 11
830.5661655761214206
 21
32.266617922599437
 31
0.0
210
0.0
220
1.0
230
0.0
  0
LINE
  5
2707
  8
0
  6
CONTINUOUS
 62
     3
 10
741.0264630978015248
 20
36.8695931393987735
 30
0.0
 11
740.5661655761213069
 21
32.266617922599437
 31
0.0
210
0.0
220
1.0
230
0.0
  0
ARC
  5
2708
  8
0
  6
VERDECKT
 62
     1
 10
-759.5661655761223301
 20
11.1889772821571007
 30
0.0
 40
23.000000000001009
210
0.0
220
0.0
230
-1.0
 50
0.0000000000013231
 51
17.6746274732687283
  0
ARC
  5
2709
  8
0
  6
VERDECKT
 62
     1
 10
-811.5661655761203974
 20
11.1889772821572109
 30
0.0
 40
23.000000000001009
210
0.0
220
0.0
230
-1.0
 50
162.3253725267312007
 51
179.9999999999986073
  0
LINE
  5
270A
  8
0
  6
VERDECKT
 62
     1
 10
829.4874545800017813
 20
32.2666179225995009
 30
0.0
 11
833.4804741294110499
 21
18.1720339646719715
 31
0.0
210
0.0
220
1.0
230
0.0
  0
LINE
  5
270B
  8
0
  6
VERDECKT
 62
     1
 10
741.6448765722409462
 20
32.2666179225994014
 30
0.0
 11
737.6518570228315639
 21
18.1720339646719289
 31
0.0
210
0.0
220
1.0
230
0.0
  0
LINE
  5
270C
  8
0
  6
VERDECKT
 62
     1
 10
737.4486918864674863
 20
-105.7333820774008046
 30
0.0
 11
736.5661655761217617
 21
-95.6460601915833593
 31
0.0
210
0.0
220
1.0
230
0.0
  0
LINE
  5
270D
  8
0
  6
VERDECKT
 62
     1
 10
833.6836392657754686
 20
-105.7333820774007052
 30
0.0
 11
834.5661655761213069
 21
-95.6460601915832882
 31
0.0
210
0.0
220
1.0
230
0.0
  0
LINE
  5
270E
  8
0
  6
VERDECKT
 62
     1
 10
834.5661655761213069
 20
11.1889772821577296
 30
0.0
 11
834.5661655761213069
 21
-95.6460601915832882
 31
0.0
210
0.0
220
1.0
230
0.0
  0
LINE
  5
270F
  8
0
  6
VERDECKT
 62
     1
 10
736.5661655761214206
 20
11.1889772821576301
 30
0.0
 11
736.5661655761214206
 21
-95.6460601915833593
 31
0.0
210
0.0
220
1.0
230
0.0
  0
LINE
  5
2710
  8
0
  6
VERDECKT
 62
     1
 10
828.4780837176432442
 20
37.1874113535172413
 30
0.0
 11
828.9581854767417326
 21
32.2666179225995009
 31
0.0
210
0.0
220
1.0
230
0.0
  0
LINE
  5
2711
  8
0
  6
VERDECKT
 62
     1
 10
742.6542474345993696
 20
37.1874113535172413
 30
0.0
 11
742.1741456755006539
 21
32.2666179225995009
 31
0.0
210
0.0
220
1.0
230
0.0
  0
ARC
  5
2712
  8
0
  6
VERDECKT
 62
     1
 10
-733.0661655762503415
 20
37.6656228915641833
 30
0.0
 40
9.5999999998711019
210
0.0
220
0.0
230
-1.0
 50
179.9999999999841123
 51
182.855296568772701
  0
ARC
  5
2713
  8
0
  6
VERDECKT
 62
     1
 10
-838.066165575992386
 20
37.6656228915641833
 30
0.0
 40
9.5999999998711019
210
0.0
220
0.0
230
-1.0
 50
357.144703431227299
 51
0.0000000000159028
  0
LINE
  5
2714
  8
0
  6
VERDECKT
 62
     1
 10
828.4661655761211705
 20
43.9600182580306722
 30
0.0
 11
828.4661655761211705
 21
37.6656228915668407
 31
0.0
210
0.0
220
1.0
230
0.0
  0
LINE
  5
2715
  8
0
  6
VERDECKT
 62
     1
 10
742.6661655761214433
 20
43.9600182580306722
 30
0.0
 11
742.6661655761214433
 21
37.6656228915668407
 31
0.0
210
0.0
220
1.0
230
0.0
  0
ARC
  5
2716
  8
0
  6
VERDECKT
 62
     1
 10
-733.066165576119829
 20
43.9600182580304519
 30
0.0
 40
9.6000000000016072
210
0.0
220
0.0
230
-1.0
 50
147.6719358778397861
 51
179.9999999999986073
  0
ARC
  5
2717
  8
0
  6
VERDECKT
 62
     1
 10
-838.0661655761227848
 20
43.9600182580304519
 30
0.0
 40
9.6000000000015007
210
0.0
220
0.0
230
-1.0
 50
0.0000000000013613
 51
32.3280641221603631
  0
ARC
  5
2718
  8
0
  6
VERDECKT
 62
     1
 10
-749.9661655761203747
 20
54.6553443400161783
 30
0.0
 40
10.3999999999990607
210
0.0
220
0.0
230
-1.0
 50
327.6719358778366882
 51
0.0000000000013358
  0
ARC
  5
2719
  8
0
  6
VERDECKT
 62
     1
 10
-821.1661655761222391
 20
54.6553443400161783
 30
0.0
 40
10.3999999999990607
210
0.0
220
0.0
230
-1.0
 50
179.9999999999986073
 51
212.3280641221631981
  0
LINE
  5
271A
  8
0
  6
VERDECKT
 62
     1
 10
831.5661655761211932
 20
73.9262652315184141
 30
0.0
 11
831.5661655761211932
 21
54.6553443400164198
 31
0.0
210
0.0
220
1.0
230
0.0
  0
LINE
  5
271B
  8
0
  6
VERDECKT
 62
     1
 10
739.5661655761214206
 20
73.9262652315184141
 30
0.0
 11
739.5661655761214206
 21
54.6553443400164198
 31
0.0
210
0.0
220
1.0
230
0.0
  0
ARC
  5
271C
  8
0
  6
VERDECKT
 62
     1
 10
-725.7916446725837432
 20
73.8873793083123189
 30
0.0
 40
13.7745757915449794
210
0.0
220
0.0
230
-1.0
 50
155.0393793150940098
 51
179.8382525694273113
  0
ARC
  5
271D
  8
0
  6
VERDECKT
 62
     1
 10
-845.3406864796588707
 20
73.8873793083123189
 30
0.0
 40
13.7745757915449705
210
0.0
220
0.0
230
-1.0
 50
0.1617474305726938
 51
24.9606206849060008
  0
ARC
  5
271E
  8
0
  6
VERDECKT
 62
     1
 10
-759.7646236557823158
 20
89.7008218974437739
 30
0.0
 40
23.6984580796615703
210
0.0
220
0.0
230
-1.0
 50
335.0393793150939246
 51
0.0000000000082809
  0
ARC
  5
271F
  8
0
  6
VERDECKT
 62
     1
 10
-811.367707496460639
 20
89.7008218974437739
 30
0.0
 40
23.6984580796615809
210
0.0
220
0.0
230
-1.0
 50
179.9999999999915872
 51
204.9606206849059049
  0
LINE
  5
2720
  8
0
  6
VERDECKT
 62
     1
 10
835.066165576121648
 20
96.6618664600279658
 30
0.0
 11
835.066165576121648
 21
89.7008218974471987
 31
0.0
210
0.0
220
1.0
230
0.0
  0
LINE
  5
2721
  8
0
  6
VERDECKT
 62
     1
 10
736.0661655761209659
 20
96.6618664600279658
 30
0.0
 11
736.0661655761209659
 21
89.7008218974471987
 31
0.0
210
0.0
220
1.0
230
0.0
  0
ARC
  5
2722
  8
0
  6
VERDECKT
 62
     1
 10
-766.7768869614269533
 20
94.8221740924339542
 30
0.0
 40
30.765774425702979
210
0.0
220
0.0
230
-1.0
 50
3.4281446728201259
 51
25.0000000000028884
  0
ARC
  5
2723
  8
0
  6
VERDECKT
 62
     1
 10
-804.3554441908153194
 20
94.8221740924339542
 30
0.0
 40
30.7657744257031993
210
0.0
220
0.0
230
-1.0
 50
154.9999999999971863
 51
176.5718553271798896
  0
LINE
  5
2724
  8
0
  6
VERDECKT
 62
     1
 10
831.5661655761214206
 20
109.2666179225993943
 30
0.0
 11
832.2387051270425218
 21
107.8243522013324025
 31
0.0
210
0.0
220
1.0
230
0.0
  0
LINE
  5
2725
  8
0
  6
VERDECKT
 62
     1
 10
739.5661655761214206
 20
109.2666179225993943
 30
0.0
 11
738.8936260252002057
 21
107.8243522013324025
 31
0.0
210
0.0
220
1.0
230
0.0
  0
ENDBLK
  5
2727
  8
0
  0
BLOCK
  8
0
  2
A$C58056FB0
 70
     0
 10
0.0
 20
0.0
 30
0.0
  3
A$C58056FB0
  1

  0
CIRCLE
  5
272B
  8
0
  6
CONTINUOUS
 62
     3
 10
1025.8281452390310733
 20
300.8458491434589064
 30
0.0
 40
42.8999999999998494
  0
CIRCLE
  5
272C
  8
0
  6
CONTINUOUS
 62
     3
 10
1025.8281452390310733
 20
300.8458491434590769
 30
0.0
 40
46.0
  0
CIRCLE
  5
272D
  8
0
  6
CONTINUOUS
 62
     3
 10
1025.8281452390310733
 20
300.8458491434590769
 30
0.0
 40
47.7654046703398834
  0
CIRCLE
  5
272E
  8
0
  6
CONTINUOUS
 62
     3
 10
1025.8281452390310733
 20
300.8458491434589064
 30
0.0
 40
51.0999999999999091
  0
CIRCLE
  5
272F
  8
0
  6
CONTINUOUS
 62
     3
 10
1025.8281452390310733
 20
300.8458491434589064
 30
0.0
 40
51.1000932431246824
  0
CIRCLE
  5
2730
  8
0
  6
VERDECKT
 62
     1
 10
1025.8281452390310733
 20
300.8458491434589064
 30
0.0
 40
49.0000000000000497
  0
CIRCLE
  5
2731
  8
0
  6
VERDECKT
 62
     1
 10
1025.8281452390310733
 20
300.8458491434589064
 30
0.0
 40
43.9212890038804318
  0
CIRCLE
  5
2732
  8
0
  6
VERDECKT
 62
     1
 10
1025.8281452390310733
 20
300.8458491434589064
 30
0.0
 40
51.0000000000000426
  0
CIRCLE
  5
2733
  8
0
  6
VERDECKT
 62
     1
 10
1025.8281452390319828
 20
300.8458491434589064
 30
0.0
 40
50.1251133647407698
  0
CIRCLE
  5
2734
  8
0
  6
VERDECKT
 62
     1
 10
1025.8281452390319828
 20
300.8458491434589064
 30
0.0
 40
48.1174736896540765
  0
CIRCLE
  5
2735
  8
0
  6
VERDECKT
 62
     1
 10
1025.8281452390310733
 20
300.8458491434589064
 30
0.0
 40
45.0000000000000924
  0
CIRCLE
  5
2736
  8
0
  6
VERDECKT
 62
     1
 10
1025.8281452390310733
 20
300.8458491434589064
 30
0.0
 40
43.3920199006205323
  0
CIRCLE
  5
2737
  8
0
  6
VERDECKT
 62
     1
 10
1025.8281452390310733
 20
300.8458491434589064
 30
0.0
 40
49.4999999999997726
  0
CIRCLE
  5
2738
  8
0
  6
VERDECKT
 62
     1
 10
1025.8281452390310733
 20
300.8458491434589064
 30
0.0
 40
47.5999999999997812
  0
CIRCLE
  5
2739
  8
0
  6
VERDECKT
 62
     1
 10
1025.8281452390310733
 20
300.8458491434589064
 30
0.0
 40
44.4999999999998721
  0
ENDBLK
  5
273B
  8
0
  0
ENDSEC
  0
SECTION
  2
ENTITIES
  0
TEXT
  5
8F
  8
VOLL
 10
78.076754716981128
 20
31.025947764705851
 30
0.0
 40
1.8
  1

  7
GREEKS
  0
TEXT
  5
3C2
  8
TEXT
 62
     1
 10
371.1516896065722904
 20
62.216407863550991
 30
0.0
 40
7.0
  1

 41
0.8
  7
GREEKS
 72
     1
 11
371.1516896065722904
 21
62.216407863550991
 31
0.0
  0
INSERT
  5
2830
  8
DEFPOINTS
  2
A$C54396064
 10
-734.4660713297216716
 20
261.2456673640203917
 30
0.0
  0
INSERT
  5
2831
  8
DEFPOINTS
  2
A$C58056FB0
 10
-974.7280509926317791
 20
-249.7457554064417025
 30
0.0
  0
VIEWPORT
  5
2431
 67
     1
  8
0
 10
14.2385822981953893
 20
12.0084761196068008
 30
0.0
 40
95.312372750735662
 41
40.0566131880424905
 68
     1
 69
     1
1001
ACAD
1000
MVIEW
1002
{
1070
    16
1010
0.0
1020
0.0
1030
0.0
1010
0.0
1020
0.0
1030
1.0
1040
0.0
1040
40.0566131880424905
1040
14.2385822981953893
1040
12.0084761196068008
1040
50.0
1040
0.0
1040
0.0
1070
     0
1070
  1500
1070
     1
1070
     1
1070
     0
1070
     0
1070
     0
1070
     0
1040
0.0
1040
0.0
1040
0.0
1040
10.0
1040
10.0
1040
10.0
1040
10.0
1070
     0
1002
{
1002
}
1002
}
  0
ENDSEC
  0
EOF
