  0
SECTION
  2
HEADER
  9
$ACADVER
  1
AC1009
  9
$INSBASE
 10
0.0
 20
0.0
 30
0.0
  9
$EXTMIN
 10
-0.0426982120425237
 20
-0.0181260584133725
 30
-0.0030160591616095
  9
$EXTMAX
 10
133.9331619893073082
 20
477.0508130144452821
 30
0.0333781964729951
  9
$LIMMIN
 10
0.0
 20
0.0
  9
$LIMMAX
 10
419.9999999999998863
 20
594.0
  9
$ORTHOMODE
 70
     1
  9
$REGENMODE
 70
     1
  9
$FILLMODE
 70
     1
  9
$QTEXTMODE
 70
     0
  9
$MIRRTEXT
 70
     1
  9
$DRAGMODE
 70
     2
  9
$LTSCALE
 40
20.0
  9
$OSMODE
 70
    39
  9
$ATTMODE
 70
     1
  9
$TEXTSIZE
 40
3.5
  9
$TRACEWID
 40
0.5
  9
$TEXTSTYLE
  7
STANDARD
  9
$CLAYER
  8
DEFPOINTS
  9
$CELTYPE
  6
BYLAYER
  9
$CECOLOR
 62
   256
  9
$DIMSCALE
 40
2.0
  9
$DIMASZ
 40
3.5
  9
$DIMEXO
 40
1.0
  9
$DIMDLI
 40
7.0
  9
$DIMRND
 40
0.0
  9
$DIMDLE
 40
0.0
  9
$DIMEXE
 40
1.0
  9
$DIMTP
 40
0.0
  9
$DIMTM
 40
0.0
  9
$DIMTXT
 40
3.5
  9
$DIMCEN
 40
1.5
  9
$DIMTSZ
 40
0.0
  9
$DIMTOL
 70
     0
  9
$DIMLIM
 70
     0
  9
$DIMTIH
 70
     0
  9
$DIMTOH
 70
     0
  9
$DIMSE1
 70
     0
  9
$DIMSE2
 70
     0
  9
$DIMTAD
 70
     1
  9
$DIMZIN
 70
     8
  9
$DIMBLK
  1

  9
$DIMASO
 70
     1
  9
$DIMSHO
 70
     0
  9
$DIMPOST
  1

  9
$DIMAPOST
  1

  9
$DIMALT
 70
     0
  9
$DIMALTD
 70
     2
  9
$DIMALTF
 40
25.3999999999999986
  9
$DIMLFAC
 40
1.0
  9
$DIMTOFL
 70
     1
  9
$DIMTVP
 40
0.0
  9
$DIMTIX
 70
     0
  9
$DIMSOXD
 70
     0
  9
$DIMSAH
 70
     0
  9
$DIMBLK1
  1

  9
$DIMBLK2
  1

  9
$DIMSTYLE
  2
STANDARD
  9
$DIMCLRD
 70
     0
  9
$DIMCLRE
 70
     0
  9
$DIMCLRT
 70
     1
  9
$DIMTFAC
 40
0.5142857142857143
  9
$DIMGAP
 40
1.5
  9
$LUNITS
 70
     2
  9
$LUPREC
 70
     2
  9
$SKETCHINC
 40
1.0
  9
$FILLETRAD
 40
0.0
  9
$AUNITS
 70
     0
  9
$AUPREC
 70
     0
  9
$MENU
  1
ACAD
  9
$ELEVATION
 40
0.0
  9
$PELEVATION
 40
0.0
  9
$THICKNESS
 40
0.0
  9
$LIMCHECK
 70
     0
  9
$BLIPMODE
 70
     0
  9
$CHAMFERA
 40
0.0
  9
$CHAMFERB
 40
0.0
  9
$SKPOLY
 70
     0
  9
$TDCREATE
 40
2455397.8646990740671754
  9
$TDUPDATE
 40
2458418.3445949079468846
  9
$TDINDWG
 40
0.161466331
  9
$TDUSRTIMER
 40
0.161466331
  9
$USRTIMER
 70
     1
  9
$ANGBASE
 50
0.0
  9
$ANGDIR
 70
     0
  9
$PDMODE
 70
     0
  9
$PDSIZE
 40
0.0
  9
$PLINEWID
 40
0.0
  9
$COORDS
 70
     1
  9
$SPLFRAME
 70
     0
  9
$SPLINETYPE
 70
     6
  9
$SPLINESEGS
 70
     8
  9
$ATTDIA
 70
     1
  9
$ATTREQ
 70
     1
  9
$HANDLING
 70
     1
  9
$HANDSEED
  5
2CD7
  9
$SURFTAB1
 70
     6
  9
$SURFTAB2
 70
     6
  9
$SURFTYPE
 70
     6
  9
$SURFU
 70
     6
  9
$SURFV
 70
     6
  9
$UCSNAME
  2

  9
$UCSORG
 10
0.0
 20
0.0
 30
0.0
  9
$UCSXDIR
 10
1.0
 20
0.0
 30
0.0
  9
$UCSYDIR
 10
0.0
 20
1.0
 30
0.0
  9
$PUCSNAME
  2

  9
$PUCSORG
 10
0.0
 20
0.0
 30
0.0
  9
$PUCSXDIR
 10
1.0
 20
0.0
 30
0.0
  9
$PUCSYDIR
 10
0.0
 20
1.0
 30
0.0
  9
$USERI1
 70
     0
  9
$USERI2
 70
     0
  9
$USERI3
 70
     0
  9
$USERI4
 70
     0
  9
$USERI5
 70
     0
  9
$USERR1
 40
0.0
  9
$USERR2
 40
0.0
  9
$USERR3
 40
0.0
  9
$USERR4
 40
0.0
  9
$USERR5
 40
0.0
  9
$WORLDVIEW
 70
     1
  9
$SHADEDGE
 70
     3
  9
$SHADEDIF
 70
    70
  9
$TILEMODE
 70
     1
  9
$MAXACTVP
 70
    16
  9
$PLIMCHECK
 70
     0
  9
$PEXTMIN
 10
-0.2515686248891598
 20
-0.2436859998112126
 30
-0.0000000349181948
  9
$PEXTMAX
 10
15.8510438737989308
 20
22.7390661666044593
 30
0.0000000814935746
  9
$PLIMMIN
 10
-0.2500002402958907
 20
-0.2499999962453767
  9
$PLIMMAX
 10
10.7499995194082203
 20
8.2499997634587334
  9
$UNITMODE
 70
     0
  9
$VISRETAIN
 70
     0
  9
$PLINEGEN
 70
     0
  9
$PSLTSCALE
 70
     0
  0
ENDSEC
  0
SECTION
  2
TABLES
  0
TABLE
  2
VPORT
 70
     1
  0
VPORT
  2
*ACTIVE
 70
     0
 10
0.0
 20
0.0
 11
1.0
 21
1.0
 12
66.9452318886324065
 22
238.5163434780160117
 13
0.0
 23
0.0
 14
1.0
 24
1.0
 15
10.0
 25
10.0
 16
-0.0000000000000012
 26
0.0
 36
5.5852494427615733
 17
0.0
 27
0.0
 37
0.0
 40
480.8804086260373083
 41
2.0800000000000001
 42
50.0
 43
0.0
 44
0.0
 50
0.0
 51
0.0
 71
     0
 72
  1500
 73
     1
 74
     0
 75
     0
 76
     0
 77
     0
 78
     0
  0
ENDTAB
  0
TABLE
  2
LTYPE
 70
     3
  0
LTYPE
  2
CONTINUOUS
 70
     0
  3
Solid line
 72
    65
 73
     0
 40
0.0
  0
LTYPE
  2
AUSGEZOGEN
 70
     0
  3
Ausgezogene Linie
 72
    65
 73
     0
 40
0.0
  0
LTYPE
  2
VERDECKT
 70
     0
  3
Verdeckt __ __ __ __ __ __ __ __ __ __ __ __ __
 72
    65
 73
     2
 40
0.375
 49
0.25
 49
-0.125
  0
ENDTAB
  0
TABLE
  2
LAYER
 70
     4
  0
LAYER
  2
0
 70
     0
 62
     7
  6
CONTINUOUS
  0
LAYER
  2
DEFPOINTS
 70
     0
 62
     7
  6
AUSGEZOGEN
  0
LAYER
  2
VOLL
 70
     0
 62
     1
  6
CONTINUOUS
  0
LAYER
  2
TEXT
 70
     0
 62
     7
  6
CONTINUOUS
  0
ENDTAB
  0
TABLE
  2
STYLE
 70
     3
  0
STYLE
  2
STANDARD
 70
     0
 40
0.0
 41
0.8
 50
0.0
 71
     0
 42
3.5
  3
simplex.shx
  4

  0
STYLE
  2
ANNOTATIVE
 70
     0
 40
0.0
 41
1.0
 50
0.0
 71
     0
 42
0.2
  3
txt
  4

  0
STYLE
  2
GREEKS
 70
     0
 40
0.0
 41
0.8
 50
0.0
 71
     0
 42
2.5
  3
SIMPLEX.shx
  4

  0
ENDTAB
  0
TABLE
  2
VIEW
 70
     0
  0
ENDTAB
  0
TABLE
  2
UCS
 70
     0
  0
ENDTAB
  0
TABLE
  2
APPID
 70
    10
  0
APPID
  2
ACAD
 70
     0
  0
APPID
  2
ACADANNOTATIVE
 70
     0
  0
APPID
  2
ACAD_NAV_VCDISPLAY
 70
     0
  0
APPID
  2
ACAD_PSEXT
 70
     0
  0
APPID
  2
ACAD_EXEMPT_FROM_CAD_STANDARDS
 70
     0
  0
APPID
  2
ACAD_MLEADERVER
 70
     0
  0
APPID
  2
ACAECLAYERSTANDARD
 70
     0
  0
APPID
  2
ACCMTRANSPARENCY
 70
     0
  0
APPID
  2
ACAD_OBJECT_CHANGE_GUID
 70
     0
  0
APPID
  2
ACADANNOMONITORALERTICONDI
 70
     0
  0
ENDTAB
  0
TABLE
  2
DIMSTYLE
 70
     2
  0
DIMSTYLE
  2
STANDARD
 70
     0
  3

  4

  5

  6

  7

 40
1.0
 41
0.18
 42
0.0625
 43
0.38
 44
0.18
 45
0.0
 46
0.0
 47
0.0
 48
0.0
140
0.18
141
0.09
142
0.0
143
25.3999999999999986
144
1.0
145
0.0
146
1.0
147
0.09
 71
     0
 72
     0
 73
     1
 74
     1
 75
     0
 76
     0
 77
     0
 78
     0
170
     0
171
     2
172
     0
173
     0
174
     0
175
     0
176
     0
177
     0
178
     0
  0
DIMSTYLE
  2
ANNOTATIVE
 70
     0
  3

  4

  5

  6

  7

 40
1.0
 41
0.18
 42
0.0625
 43
0.38
 44
0.18
 45
0.0
 46
0.0
 47
0.0
 48
0.0
140
0.18
141
0.09
142
0.0
143
25.3999999999999986
144
1.0
145
0.0
146
1.0
147
0.09
 71
     0
 72
     0
 73
     1
 74
     1
 75
     0
 76
     0
 77
     0
 78
     0
170
     0
171
     2
172
     0
173
     0
174
     0
175
     0
176
     0
177
     0
178
     0
  0
ENDTAB
  0
ENDSEC
  0
SECTION
  2
BLOCKS
  0
BLOCK
  8
0
  2
$MODEL_SPACE
 70
     0
 10
0.0
 20
0.0
 30
0.0
  3
$MODEL_SPACE
  1

  0
ENDBLK
  5
2C46
  8
0
  0
BLOCK
 67
     1
  8
0
  2
$PAPER_SPACE
 70
     0
 10
0.0
 20
0.0
 30
0.0
  3
$PAPER_SPACE
  1

  0
ENDBLK
  5
2C42
 67
     1
  8
0
  0
BLOCK
  8
0
  2
A$C254E5F21
 70
     0
 10
0.0
 20
0.0
 30
0.0
  3
A$C254E5F21
  1

  0
LINE
  5
2B21
  8
0
  6
CONTINUOUS
 62
     3
 10
254.4004215618685123
 20
-93.5830968975167821
 30
0.0
 11
384.7757616560908218
 21
-93.5830968975167821
 31
0.0
210
0.0
220
1.0
230
0.0
  0
LINE
  5
2B22
  8
0
  6
CONTINUOUS
 62
     3
 10
260.588091608979596
 20
56.4169031024831611
 30
0.0
 11
378.5880916089797097
 21
56.4169031024831611
 31
0.0
210
0.0
220
1.0
230
0.0
  0
LINE
  5
2B23
  8
0
  6
CONTINUOUS
 62
     3
 10
254.4004215618685123
 20
-93.5830968975167821
 30
0.0
 11
253.0880916089797097
 21
-78.5830968975171231
 31
0.0
210
0.0
220
1.0
230
0.0
  0
LINE
  5
2B24
  8
0
  6
CONTINUOUS
 62
     3
 10
384.7757616560908218
 20
-93.5830968975167821
 30
0.0
 11
386.0880916089797097
 21
-78.5830968975171231
 31
0.0
210
0.0
220
1.0
230
0.0
  0
LINE
  5
2B25
  8
0
  6
CONTINUOUS
 62
     3
 10
378.5880916089797097
 20
56.4169031024831611
 30
0.0
 11
385.1330292725152731
 21
38.9637359997215071
 31
0.0
210
0.0
220
1.0
230
0.0
  0
LINE
  5
2B26
  8
0
  6
CONTINUOUS
 62
     3
 10
260.588091608979596
 20
56.4169031024831611
 30
0.0
 11
254.0431539454440895
 21
38.9637359997215071
 31
0.0
210
0.0
220
1.0
230
0.0
  0
ARC
  5
2B27
  8
0
  6
CONTINUOUS
 62
     3
 10
-268.088091608978516
 20
33.6968843758957277
 30
0.0
 40
14.9999999999988596
210
0.0
220
0.0
230
-1.0
 50
0.0
 51
20.5560452195842309
  0
ARC
  5
2B28
  8
0
  6
CONTINUOUS
 62
     3
 10
-371.0880916089807897
 20
33.6968843758957277
 30
0.0
 40
14.9999999999988507
210
0.0
220
0.0
230
-1.0
 50
159.4439547804157087
 51
180.0
  0
LINE
  5
2B29
  8
0
  6
CONTINUOUS
 62
     3
 10
386.0880916089797097
 20
33.6968843758956496
 30
0.0
 11
386.0880916089797097
 21
-78.5830968975171231
 31
0.0
210
0.0
220
1.0
230
0.0
  0
LINE
  5
2B2A
  8
0
  6
CONTINUOUS
 62
     3
 10
253.0880916089797097
 20
33.6968843758956496
 30
0.0
 11
253.0880916089797097
 21
-78.5830968975171231
 31
0.0
210
0.0
220
1.0
230
0.0
  0
LINE
  5
2B2B
  8
0
  6
CONTINUOUS
 62
     3
 10
263.8813357710545233
 20
166.4169031024833032
 30
0.0
 11
375.2948474469047255
 21
166.4169031024833032
 31
0.0
210
0.0
220
1.0
230
0.0
  0
LINE
  5
2B2C
  8
0
  6
CONTINUOUS
 62
     3
 10
375.2948474469047255
 20
166.4169031024833032
 30
0.0
 11
376.2457862848960986
 21
164.3776081834290892
 31
0.0
210
0.0
220
1.0
230
0.0
  0
LINE
  5
2B2D
  8
0
  6
CONTINUOUS
 62
     3
 10
263.8813357710545233
 20
166.4169031024833032
 30
0.0
 11
262.9303969330632071
 21
164.3776081834290892
 31
0.0
210
0.0
220
1.0
230
0.0
  0
ARC
  5
2B2E
  8
0
  6
CONTINUOUS
 62
     3
 10
-285.5880916089788002
 20
153.8121516399122868
 30
0.0
 40
24.9999999999990905
210
0.0
220
0.0
230
-1.0
 50
0.0
 51
24.9999999999993499
  0
ARC
  5
2B2F
  8
0
  6
CONTINUOUS
 62
     3
 10
-353.5880916089805055
 20
153.8121516399122868
 30
0.0
 40
24.9999999999990905
210
0.0
220
0.0
230
-1.0
 50
155.0000000000005969
 51
180.0
  0
LINE
  5
2B30
  8
0
  6
CONTINUOUS
 62
     3
 10
378.5880916089797097
 20
153.8121516399122015
 30
0.0
 11
378.5880916089797097
 21
138.6501036331648038
 31
0.0
210
0.0
220
1.0
230
0.0
  0
LINE
  5
2B31
  8
0
  6
CONTINUOUS
 62
     3
 10
260.588091608979596
 20
153.8121516399122015
 30
0.0
 11
260.588091608979596
 21
138.6501036331648038
 31
0.0
210
0.0
220
1.0
230
0.0
  0
ARC
  5
2B32
  8
0
  6
CONTINUOUS
 62
     3
 10
-285.5880916089791981
 20
138.6501036331646048
 30
0.0
 40
24.9999999999996589
210
0.0
220
0.0
230
-1.0
 50
333.1119523822753195
 51
0.0
  0
ARC
  5
2B33
  8
0
  6
CONTINUOUS
 62
     3
 10
-353.5880916089799939
 20
138.6501036331646048
 30
0.0
 40
24.9999999999996589
210
0.0
220
0.0
230
-1.0
 50
180.0
 51
206.8880476177239132
  0
ARC
  5
2B34
  8
0
  6
CONTINUOUS
 62
     3
 10
-252.588091608979795
 20
121.9169031024833032
 30
0.0
 40
11.9999999999998899
210
0.0
220
0.0
230
-1.0
 50
153.1119523822744952
 51
180.0
  0
ARC
  5
2B35
  8
0
  6
CONTINUOUS
 62
     3
 10
-386.5880916089794823
 20
121.9169031024833032
 30
0.0
 40
11.9999999999998792
210
0.0
220
0.0
230
-1.0
 50
0.0
 51
26.8880476177253485
  0
LINE
  5
2B36
  8
0
  6
CONTINUOUS
 62
     3
 10
374.5880916089797097
 20
121.9169031024833032
 30
0.0
 11
374.5880916089797097
 21
103.3443919794307959
 31
0.0
210
0.0
220
1.0
230
0.0
  0
LINE
  5
2B37
  8
0
  6
CONTINUOUS
 62
     3
 10
264.588091608979596
 20
121.9169031024833032
 30
0.0
 11
264.588091608979596
 21
103.3443919794307959
 31
0.0
210
0.0
220
1.0
230
0.0
  0
ARC
  5
2B38
  8
0
  6
CONTINUOUS
 62
     3
 10
-279.5880916089807897
 20
103.3443919794309949
 30
0.0
 40
15.0000000000011209
210
0.0
220
0.0
230
-1.0
 50
325.6988472432096273
 51
359.9999999999984084
  0
ARC
  5
2B39
  8
0
  6
CONTINUOUS
 62
     3
 10
-359.588091608978516
 20
103.3443919794309949
 30
0.0
 40
15.0000000000011209
210
0.0
220
0.0
230
-1.0
 50
180.0000000000015916
 51
214.3011527567904011
  0
ARC
  5
2B3A
  8
0
  6
CONTINUOUS
 62
     3
 10
-260.5880916089798802
 20
90.3829105826151675
 30
0.0
 40
7.9999999999997691
210
0.0
220
0.0
230
-1.0
 50
145.6988472432088884
 51
180.0
  0
ARC
  5
2B3B
  8
0
  6
CONTINUOUS
 62
     3
 10
-378.5880916089794255
 20
90.3829105826151959
 30
0.0
 40
7.99999999999977
210
0.0
220
0.0
230
-1.0
 50
0.0
 51
34.3011527567910619
  0
LINE
  5
2B3C
  8
0
  6
CONTINUOUS
 62
     3
 10
370.588091608979596
 20
90.3829105826151249
 30
0.0
 11
370.588091608979596
 21
73.1916977964796303
 31
0.0
210
0.0
220
1.0
230
0.0
  0
LINE
  5
2B3D
  8
0
  6
CONTINUOUS
 62
     3
 10
268.588091608979596
 20
90.3829105826151249
 30
0.0
 11
268.588091608979596
 21
73.1916977964796303
 31
0.0
210
0.0
220
1.0
230
0.0
  0
ARC
  5
2B3E
  8
0
  6
CONTINUOUS
 62
     3
 10
-260.5880916089780044
 20
73.1916977964799429
 30
0.0
 40
8.0000000000015898
210
0.0
220
0.0
230
-1.0
 50
180.0000000000023022
 51
205.0168934780978987
  0
ARC
  5
2B3F
  8
0
  6
CONTINUOUS
 62
     3
 10
-378.5880916089813013
 20
73.1916977964799003
 30
0.0
 40
8.0000000000015952
210
0.0
220
0.0
230
-1.0
 50
334.9831065219019024
 51
359.9999999999976126
  0
LINE
  5
2B40
  8
0
  6
CONTINUOUS
 62
     3
 10
371.3386264890177131
 20
69.8086140738305687
 30
0.0
 11
377.5880916089797097
 21
56.4169031024832393
 31
0.0
210
0.0
220
1.0
230
0.0
  0
LINE
  5
2B41
  8
0
  6
CONTINUOUS
 62
     3
 10
267.8375567289417063
 20
69.8086140738305687
 30
0.0
 11
261.5880916089797097
 21
56.4169031024832393
 31
0.0
210
0.0
220
1.0
230
0.0
  0
LINE
  5
2B42
  8
0
  6
VERDECKT
 62
     1
 10
256.909971155727078
 20
-93.5830968975168105
 30
0.0
 11
255.5880916089797097
 21
-78.4739445402462223
 31
0.0
210
0.0
220
1.0
230
0.0
  0
LINE
  5
2B43
  8
0
  6
VERDECKT
 62
     1
 10
382.2662120622322846
 20
-93.5830968975167963
 30
0.0
 11
383.588091608979596
 21
-78.4739445402462223
 31
0.0
210
0.0
220
1.0
230
0.0
  0
LINE
  5
2B44
  8
0
  6
VERDECKT
 62
     1
 10
383.588091608979596
 20
33.6968843758956496
 30
0.0
 11
383.588091608979596
 21
-78.4739445402462223
 31
0.0
210
0.0
220
1.0
230
0.0
  0
LINE
  5
2B45
  8
0
  6
VERDECKT
 62
     1
 10
255.5880916089797097
 20
33.6968843758956496
 30
0.0
 11
255.5880916089797097
 21
-78.4739445402462223
 31
0.0
210
0.0
220
1.0
230
0.0
  0
ARC
  5
2B46
  8
0
  6
VERDECKT
 62
     1
 10
-268.0880916089772086
 20
33.6968843758959267
 30
0.0
 40
12.4999999999975007
210
0.0
220
0.0
230
-1.0
 50
359.9999999999984084
 51
20.5560452195857586
  0
ARC
  5
2B47
  8
0
  6
VERDECKT
 62
     1
 10
-371.0880916089823245
 20
33.6968843758959267
 30
0.0
 40
12.4999999999975007
210
0.0
220
0.0
230
-1.0
 50
159.4439547804130939
 51
180.0000000000015916
  0
LINE
  5
2B48
  8
0
  6
VERDECKT
 62
     1
 10
375.9180904385681856
 20
56.4169031024830687
 30
0.0
 11
382.7922063285927265
 21
38.0859273957504882
 31
0.0
210
0.0
220
1.0
230
0.0
  0
LINE
  5
2B49
  8
0
  6
VERDECKT
 62
     1
 10
263.2580927793910064
 20
56.4169031024830687
 30
0.0
 11
256.3839768893665791
 21
38.0859273957504882
 31
0.0
210
0.0
220
1.0
230
0.0
  0
LINE
  5
2B4A
  8
0
  6
VERDECKT
 62
     1
 10
368.588091608979596
 20
90.3829105826151249
 30
0.0
 11
368.588091608979596
 21
73.1916977964796303
 31
0.0
210
0.0
220
1.0
230
0.0
  0
LINE
  5
2B4B
  8
0
  6
VERDECKT
 62
     1
 10
270.588091608979596
 20
90.3829105826151249
 30
0.0
 11
270.588091608979596
 21
73.1916977964796303
 31
0.0
210
0.0
220
1.0
230
0.0
  0
ARC
  5
2B4C
  8
0
  6
VERDECKT
 62
     1
 10
-260.588091608980676
 20
90.3829105826153665
 30
0.0
 40
9.9999999999989768
210
0.0
220
0.0
230
-1.0
 50
145.6988472432082915
 51
180.0000000000015916
  0
ARC
  5
2B4D
  8
0
  6
VERDECKT
 62
     1
 10
-378.588091608978516
 20
90.3829105826153665
 30
0.0
 40
9.9999999999989768
210
0.0
220
0.0
230
-1.0
 50
359.9999999999984084
 51
34.3011527567917298
  0
ARC
  5
2B4E
  8
0
  6
VERDECKT
 62
     1
 10
-279.5880916089818129
 20
103.344391979431407
 30
0.0
 40
13.0000000000021405
210
0.0
220
0.0
230
-1.0
 50
325.6988472432103094
 51
359.9999999999976126
  0
ARC
  5
2B4F
  8
0
  6
VERDECKT
 62
     1
 10
-359.5880916089773791
 20
103.344391979431407
 30
0.0
 40
13.00000000000216
210
0.0
220
0.0
230
-1.0
 50
180.0000000000023022
 51
214.3011527567896906
  0
LINE
  5
2B50
  8
0
  6
VERDECKT
 62
     1
 10
372.588091608979596
 20
121.9167025718015935
 30
0.0
 11
372.588091608979596
 21
103.3443919794307959
 31
0.0
210
0.0
220
1.0
230
0.0
  0
LINE
  5
2B51
  8
0
  6
VERDECKT
 62
     1
 10
266.588091608979596
 20
121.9167025718015935
 30
0.0
 11
266.588091608979596
 21
103.3443919794307959
 31
0.0
210
0.0
220
1.0
230
0.0
  0
ARC
  5
2B52
  8
0
  6
VERDECKT
 62
     1
 10
-252.588091608979596
 20
121.9167025718015935
 30
0.0
 40
13.9999999999999893
210
0.0
220
0.0
230
-1.0
 50
153.1119523822783037
 51
179.9999999999992042
  0
ARC
  5
2B53
  8
0
  6
VERDECKT
 62
     1
 10
-386.5880916089797097
 20
121.9167025718015935
 30
0.0
 40
14.0
210
0.0
220
0.0
230
-1.0
 50
0.0000000000008142
 51
26.8880476177231706
  0
ARC
  5
2B54
  8
0
  6
VERDECKT
 62
     1
 10
-285.588091608978516
 20
138.6499031024827957
 30
0.0
 40
22.9999999999988702
210
0.0
220
0.0
230
-1.0
 50
333.1119523822740121
 51
0.0000000000008142
  0
ARC
  5
2B55
  8
0
  6
VERDECKT
 62
     1
 10
-353.5880916089807897
 20
138.6499031024827957
 30
0.0
 40
22.9999999999988702
210
0.0
220
0.0
230
-1.0
 50
179.9999999999992042
 51
206.8880476177261016
  0
LINE
  5
2B56
  8
0
  6
VERDECKT
 62
     1
 10
376.5880916089797097
 20
153.8121516399122015
 30
0.0
 11
376.5880916089797097
 21
138.6499031024831083
 31
0.0
210
0.0
220
1.0
230
0.0
  0
LINE
  5
2B57
  8
0
  6
VERDECKT
 62
     1
 10
262.588091608979596
 20
153.8121516399122015
 30
0.0
 11
262.588091608979596
 21
138.6499031024831083
 31
0.0
210
0.0
220
1.0
230
0.0
  0
ARC
  5
2B58
  8
0
  6
VERDECKT
 62
     1
 10
-285.5880916089814718
 20
153.8121516399116899
 30
0.0
 40
23.0000000000018083
210
0.0
220
0.0
230
-1.0
 50
0.0000000000016284
 51
24.999999999997879
  0
ARC
  5
2B59
  8
0
  6
VERDECKT
 62
     1
 10
-353.588091608977777
 20
153.8121516399116899
 30
0.0
 40
23.0000000000018083
210
0.0
220
0.0
230
-1.0
 50
155.0000000000021032
 51
179.9999999999984084
  0
LINE
  5
2B5A
  8
0
  6
VERDECKT
 62
     1
 10
373.088091608979596
 20
166.4169031024831042
 30
0.0
 11
374.4331707108228215
 21
163.5323716599478132
 31
0.0
210
0.0
220
1.0
230
0.0
  0
LINE
  5
2B5B
  8
0
  6
VERDECKT
 62
     1
 10
266.0880916089797097
 20
166.4169031024831042
 30
0.0
 11
264.7430125071365978
 21
163.5323716599478132
 31
0.0
210
0.0
220
1.0
230
0.0
  0
LINE
  5
2B5C
  8
0
  6
VERDECKT
 62
     1
 10
369.5262602090269866
 20
68.9628431431683993
 30
0.0
 11
375.381032228013396
 21
56.4169031024831327
 31
0.0
210
0.0
220
1.0
230
0.0
  0
LINE
  5
2B5D
  8
0
  6
VERDECKT
 62
     1
 10
269.6499230089323191
 20
68.9628431431683993
 30
0.0
 11
263.7951509899459097
 21
56.4169031024831327
 31
0.0
210
0.0
220
1.0
230
0.0
  0
ARC
  5
2B5E
  8
0
  6
VERDECKT
 62
     1
 10
-260.5880916089811876
 20
73.1916977964792608
 30
0.0
 40
9.9999999999984066
210
0.0
220
0.0
230
-1.0
 50
179.9999999999984084
 51
205.0168934781009114
  0
ARC
  5
2B5F
  8
0
  6
VERDECKT
 62
     1
 10
-378.5880916089780044
 20
73.1916977964792608
 30
0.0
 40
9.9999999999984102
210
0.0
220
0.0
230
-1.0
 50
334.9831065218990034
 51
0.0000000000016284
  0
ENDBLK
  5
2B61
  8
0
  0
BLOCK
  8
0
  2
A$C1A0579D0
 70
     0
 10
0.0
 20
0.0
 30
0.0
  3
A$C1A0579D0
  1

  0
CIRCLE
  5
2B65
  8
0
  6
CONTINUOUS
 62
     3
 10
37.2831977271888491
 20
411.1991581620815737
 30
0.0
 40
66.5
  0
CIRCLE
  5
2B66
  8
0
  6
CONTINUOUS
 62
     3
 10
37.2831977271888491
 20
411.1991581620815737
 30
0.0
 40
49.0
  0
CIRCLE
  5
2B67
  8
0
  6
CONTINUOUS
 62
     3
 10
37.2831977271888491
 20
411.1991581620815737
 30
0.0
 40
53.0
  0
CIRCLE
  5
2B68
  8
0
  6
CONTINUOUS
 62
     3
 10
37.2831977271888491
 20
411.1991581620816874
 30
0.0
 40
53.5
  0
CIRCLE
  5
2B69
  8
0
  6
CONTINUOUS
 62
     3
 10
37.2831977271888491
 20
411.1991581620816874
 30
0.0
 40
55.7067558379250016
  0
CIRCLE
  5
2B6A
  8
0
  6
CONTINUOUS
 62
     3
 10
37.2831977271888491
 20
411.1991581620816874
 30
0.0
 40
59.0
  0
CIRCLE
  5
2B6B
  8
0
  6
VERDECKT
 62
     1
 10
37.2831977271888491
 20
411.1991581620815737
 30
0.0
 40
65.187670047111169
  0
CIRCLE
  5
2B6C
  8
0
  6
VERDECKT
 62
     1
 10
37.2831977271888491
 20
411.1991581620815737
 30
0.0
 40
62.6781204532526317
  0
CIRCLE
  5
2B6D
  8
0
  6
VERDECKT
 62
     1
 10
37.2831977271888491
 20
411.1991581620815737
 30
0.0
 40
64.0
  0
CIRCLE
  5
2B6E
  8
0
  6
VERDECKT
 62
     1
 10
37.2831977271888491
 20
411.1991581620815737
 30
0.0
 40
56.3299988295885825
  0
CIRCLE
  5
2B6F
  8
0
  6
VERDECKT
 62
     1
 10
37.2831977271888491
 20
411.1991581620816874
 30
0.0
 40
57.0
  0
CIRCLE
  5
2B70
  8
0
  6
VERDECKT
 62
     1
 10
37.2831977271888491
 20
411.1991581620815737
 30
0.0
 40
55.0
  0
CIRCLE
  5
2B71
  8
0
  6
VERDECKT
 62
     1
 10
37.2831977271888491
 20
411.1991581620815737
 30
0.0
 40
51.0
  0
CIRCLE
  5
2B72
  8
0
  6
VERDECKT
 62
     1
 10
37.2831977271888491
 20
411.1991581620815737
 30
0.0
 40
58.0
  0
CIRCLE
  5
2B73
  8
0
  6
VERDECKT
 62
     1
 10
37.2831977271888491
 20
411.1991581620815737
 30
0.0
 40
55.7929406190337431
  0
ENDBLK
  5
2B75
  8
0
  0
ENDSEC
  0
SECTION
  2
ENTITIES
  0
TEXT
  5
8F
  8
VOLL
 10
78.076754716981128
 20
31.025947764705851
 30
0.0
 40
1.8
  1

  7
GREEKS
  0
TEXT
  5
3C2
  8
TEXT
 62
     1
 10
371.1516896065722904
 20
62.216407863550991
 30
0.0
 40
7.0
  1

 41
0.8
  7
GREEKS
 72
     1
 11
371.1516896065722904
 21
62.216407863550991
 31
0.0
  0
TEXT
  5
2519
  8
VOLL
 10
611.7778512265684867
 20
402.3884671885140847
 30
0.0
 40
1.8
  1

  7
GREEKS
  0
INSERT
  5
2C78
  8
DEFPOINTS
  2
A$C254E5F21
 10
-253.0880923755316871
 20
310.6171633869840889
 30
0.0
  0
INSERT
  5
2C79
  8
DEFPOINTS
  2
A$C1A0579D0
 10
29.2168015062582107
 20
-344.6991575338551002
 30
0.0
  0
VIEWPORT
  5
27E4
 67
     1
  8
0
 10
8.1772014638034918
 20
11.2479435851086897
 30
0.0
 40
45.4784259914974527
 41
23.1619872081530787
 68
     1
 69
     1
1001
ACAD
1000
MVIEW
1002
{
1070
    16
1010
0.0
1020
0.0
1030
0.0
1010
0.0
1020
0.0
1030
1.0
1040
0.0
1040
23.1619872081530787
1040
8.1772014638034918
1040
11.2479435851086897
1040
50.0
1040
0.0
1040
0.0
1070
     0
1070
  1500
1070
     1
1070
     1
1070
     0
1070
     0
1070
     0
1070
     0
1040
0.0
1040
0.0
1040
0.0
1040
10.0
1040
10.0
1040
10.0
1040
10.0
1070
     0
1002
{
1002
}
1002
}
  0
VIEWPORT
  5
27E8
 67
     1
  8
DEFPOINTS
 10
7.7997375494781203
 20
11.2480087010516403
 30
0.0
 40
16.1006470276921014
 41
22.9803325786762294
 68
     2
 69
     2
1001
ACAD
1000
MVIEW
1002
{
1070
    16
1010
437.9772414410252281
1020
235.7262886487247897
1030
-235.1848387706720018
1010
0.0
1020
0.0
1030
1.0
1040
0.0
1040
611.8878094283346627
1040
-229.6302205223113049
1040
63.4650175500242426
1040
50.0
1040
0.0
1040
0.0
1070
     0
1070
  1500
1070
     1
1070
     0
1070
     0
1070
     0
1070
     0
1070
     0
1040
0.0
1040
0.0
1040
0.0
1040
1.0
1040
1.0
1040
10.0
1040
10.0
1070
     0
1002
{
1002
}
1002
}
  0
VIEWPORT
  5
27EC
 67
     1
  8
DEFPOINTS
 10
13.1203091560915102
 20
12.2296275349566503
 30
0.0
 40
3.4400283772286002
 41
5.6426432194776552
 68
     3
 69
     3
1001
ACAD
1000
MVIEW
1002
{
1070
    16
1010
827.2056140556268247
1020
329.8781529425580175
1030
-228.7691000909939874
1010
0.0
1020
79.6529018826930724
1030
383.3108080757044149
1040
3.1415926535897918
1040
287.6088384511938898
1040
0.0
1040
-4.6962373478867692
1040
50.0
1040
0.0
1040
0.0
1070
     0
1070
  1500
1070
     1
1070
     0
1070
     0
1070
     0
1070
     0
1070
     0
1040
0.0
1040
0.0
1040
0.0
1040
1.0
1040
1.0
1040
10.0
1040
10.0
1070
     0
1002
{
1002
}
1002
}
  0
ENDSEC
  0
EOF
