  0
SECTION
  2
HEADER
  9
$ACADVER
  1
AC1009
  9
$INSBASE
 10
0.0
 20
0.0
 30
0.0
  9
$EXTMIN
 10
-79.5152423672842588
 20
-259.0047670124391175
 30
-0.0068659312171917
  9
$EXTMAX
 10
83.095116432413306
 20
225.0322505892625031
 30
0.0102999445636556
  9
$LIMMIN
 10
0.0
 20
0.0
  9
$LIMMAX
 10
419.9999999999998863
 20
594.0
  9
$ORTHOMODE
 70
     1
  9
$REGENMODE
 70
     1
  9
$FILLMODE
 70
     1
  9
$QTEXTMODE
 70
     0
  9
$MIRRTEXT
 70
     1
  9
$DRAGMODE
 70
     2
  9
$LTSCALE
 40
20.0
  9
$OSMODE
 70
  2559
  9
$ATTMODE
 70
     1
  9
$TEXTSIZE
 40
3.5
  9
$TRACEWID
 40
0.5
  9
$TEXTSTYLE
  7
STANDARD
  9
$CLAYER
  8
STEMPEL
  9
$CELTYPE
  6
BYLAYER
  9
$CECOLOR
 62
   256
  9
$DIMSCALE
 40
2.0
  9
$DIMASZ
 40
3.5
  9
$DIMEXO
 40
1.0
  9
$DIMDLI
 40
7.0
  9
$DIMRND
 40
0.0
  9
$DIMDLE
 40
0.0
  9
$DIMEXE
 40
1.0
  9
$DIMTP
 40
0.0
  9
$DIMTM
 40
0.0
  9
$DIMTXT
 40
3.5
  9
$DIMCEN
 40
1.5
  9
$DIMTSZ
 40
0.0
  9
$DIMTOL
 70
     0
  9
$DIMLIM
 70
     0
  9
$DIMTIH
 70
     0
  9
$DIMTOH
 70
     0
  9
$DIMSE1
 70
     0
  9
$DIMSE2
 70
     0
  9
$DIMTAD
 70
     1
  9
$DIMZIN
 70
     8
  9
$DIMBLK
  1

  9
$DIMASO
 70
     1
  9
$DIMSHO
 70
     0
  9
$DIMPOST
  1

  9
$DIMAPOST
  1

  9
$DIMALT
 70
     0
  9
$DIMALTD
 70
     2
  9
$DIMALTF
 40
25.3999999999999986
  9
$DIMLFAC
 40
1.0
  9
$DIMTOFL
 70
     1
  9
$DIMTVP
 40
0.0
  9
$DIMTIX
 70
     0
  9
$DIMSOXD
 70
     0
  9
$DIMSAH
 70
     0
  9
$DIMBLK1
  1

  9
$DIMBLK2
  1

  9
$DIMSTYLE
  2
STANDARD
  9
$DIMCLRD
 70
     0
  9
$DIMCLRE
 70
     0
  9
$DIMCLRT
 70
     1
  9
$DIMTFAC
 40
0.5142857142857143
  9
$DIMGAP
 40
1.5
  9
$LUNITS
 70
     2
  9
$LUPREC
 70
     2
  9
$SKETCHINC
 40
1.0
  9
$FILLETRAD
 40
0.0
  9
$AUNITS
 70
     0
  9
$AUPREC
 70
     0
  9
$MENU
  1
ACAD
  9
$ELEVATION
 40
0.0
  9
$PELEVATION
 40
0.0
  9
$THICKNESS
 40
0.0
  9
$LIMCHECK
 70
     0
  9
$BLIPMODE
 70
     0
  9
$CHAMFERA
 40
0.0
  9
$CHAMFERB
 40
0.0
  9
$SKPOLY
 70
     0
  9
$TDCREATE
 40
2455397.8646990740671754
  9
$TDUPDATE
 40
2458376.3182060178369284
  9
$TDINDWG
 40
0.1807194444
  9
$TDUSRTIMER
 40
0.1807194444
  9
$USRTIMER
 70
     1
  9
$ANGBASE
 50
0.0
  9
$ANGDIR
 70
     0
  9
$PDMODE
 70
     0
  9
$PDSIZE
 40
0.0
  9
$PLINEWID
 40
0.0
  9
$COORDS
 70
     1
  9
$SPLFRAME
 70
     0
  9
$SPLINETYPE
 70
     6
  9
$SPLINESEGS
 70
     8
  9
$ATTDIA
 70
     1
  9
$ATTREQ
 70
     1
  9
$HANDLING
 70
     1
  9
$HANDSEED
  5
3481
  9
$SURFTAB1
 70
     6
  9
$SURFTAB2
 70
     6
  9
$SURFTYPE
 70
     6
  9
$SURFU
 70
     6
  9
$SURFV
 70
     6
  9
$UCSNAME
  2

  9
$UCSORG
 10
0.0
 20
0.0
 30
0.0
  9
$UCSXDIR
 10
1.0
 20
0.0
 30
0.0
  9
$UCSYDIR
 10
0.0
 20
1.0
 30
0.0
  9
$PUCSNAME
  2

  9
$PUCSORG
 10
0.0
 20
0.0
 30
0.0
  9
$PUCSXDIR
 10
1.0
 20
0.0
 30
0.0
  9
$PUCSYDIR
 10
0.0
 20
1.0
 30
0.0
  9
$USERI1
 70
     0
  9
$USERI2
 70
     0
  9
$USERI3
 70
     0
  9
$USERI4
 70
     0
  9
$USERI5
 70
     0
  9
$USERR1
 40
0.0
  9
$USERR2
 40
0.0
  9
$USERR3
 40
0.0
  9
$USERR4
 40
0.0
  9
$USERR5
 40
0.0
  9
$WORLDVIEW
 70
     1
  9
$SHADEDGE
 70
     3
  9
$SHADEDIF
 70
    70
  9
$TILEMODE
 70
     1
  9
$MAXACTVP
 70
    16
  9
$PLIMCHECK
 70
     0
  9
$PEXTMIN
 10
-0.1924154563142188
 20
-0.1965606931841606
 30
-0.0000000000112498
  9
$PEXTMAX
 10
14.6669535179562391
 20
20.5970349269564714
 30
0.0000000000002956
  9
$PLIMMIN
 10
-0.2500002402958907
 20
-0.2499999962453767
  9
$PLIMMAX
 10
10.7499995194082203
 20
8.2499997634587334
  9
$UNITMODE
 70
     0
  9
$VISRETAIN
 70
     0
  9
$PLINEGEN
 70
     0
  9
$PSLTSCALE
 70
     0
  0
ENDSEC
  0
SECTION
  2
TABLES
  0
TABLE
  2
VPORT
 70
     1
  0
VPORT
  2
*ACTIVE
 70
     0
 10
0.0
 20
0.0
 11
1.0
 21
1.0
 12
1.789937032564523
 22
-89.7478663353675756
 13
0.0
 23
0.0
 14
1.0
 24
1.0
 15
10.0
 25
10.0
 16
-0.0000000000001961
 26
0.0
 36
883.3574499660222727
 17
0.0
 27
72.7616081237792969
 37
-0.000000000000025
 40
486.5044960261791971
 41
1.868197278911564
 42
50.0
 43
0.0
 44
0.0
 50
0.0
 51
0.0
 71
     0
 72
  1500
 73
     1
 74
     0
 75
     0
 76
     0
 77
     0
 78
     0
  0
ENDTAB
  0
TABLE
  2
LTYPE
 70
     4
  0
LTYPE
  2
CONTINUOUS
 70
     0
  3
Solid line
 72
    65
 73
     0
 40
0.0
  0
LTYPE
  2
AUSGEZOGEN
 70
     0
  3
Ausgezogene Linie
 72
    65
 73
     0
 40
0.0
  0
LTYPE
  2
VERDECKT
 70
     0
  3
_ _ _ _ _ _ _ _ _ _ _ _ _ _ _ _ _ _ _ _ _ _ _
 72
    65
 73
     2
 40
0.375
 49
0.25
 49
-0.125
  0
ENDTAB
  0
TABLE
  2
LAYER
 70
    10
  0
LAYER
  2
0
 70
     0
 62
     7
  6
CONTINUOUS
  0
LAYER
  2
VOLL
 70
     0
 62
     1
  6
CONTINUOUS
  0
LAYER
  2
STEMPEL
 70
     0
 62
     3
  6
CONTINUOUS
  0
LAYER
  2
DEFPOINTS
 70
     0
 62
     7
  6
AUSGEZOGEN
  0
ENDTAB
  0
TABLE
  2
STYLE
 70
     2
  0
STYLE
  2
STANDARD
 70
     0
 40
0.0
 41
0.8
 50
0.0
 71
     0
 42
3.5
  3
simplex.shx
  4

  0
STYLE
  2
GREEKS
 70
     0
 40
0.0
 41
0.8
 50
0.0
 71
     0
 42
2.5
  3
SIMPLEX.shx
  4

  0
ENDTAB
  0
TABLE
  2
VIEW
 70
     1
  0
ENDTAB
  0
TABLE
  2
UCS
 70
     0
  0
ENDTAB
  0
TABLE
  2
APPID
 70
    12
  0
APPID
  2
ACAD
 70
     0
  0
APPID
  2
ACAD_NAV_VCDISPLAY
 70
     0
  0
APPID
  2
ACAD_PSEXT
 70
     0
  0
APPID
  2
ACAD_EXEMPT_FROM_CAD_STANDARDS
 70
     0
  0
APPID
  2
ACAD_MLEADERVER
 70
     0
  0
APPID
  2
ACAD_DSTYLE_DIMRADIAL_EXTENSION
 70
     0
  0
APPID
  2
ACADANNOMONITORALERTICONDI
 70
     0
  0
APPID
  2
ACAECLAYERSTANDARD
 70
     0
  0
APPID
  2
ACCMTRANSPARENCY
 70
     0
  0
APPID
  2
ACAD_STEPID
 70
     0
  0
APPID
  2
ACAD_ASSOCPERSSUBENTMANAGER
 70
     0
  0
APPID
  2
ACAD_OBJECT_CHANGE_GUID
 70
     0
  0
ENDTAB
  0
TABLE
  2
DIMSTYLE
 70
     1
  0
DIMSTYLE
  2
STANDARD
 70
     0
  3

  4

  5

  6

  7

 40
1.0
 41
0.18
 42
0.0625
 43
0.38
 44
0.18
 45
0.0
 46
0.0
 47
0.0
 48
0.0
140
0.18
141
0.09
142
0.0
143
25.3999999999999986
144
1.0
145
0.0
146
1.0
147
0.09
 71
     0
 72
     0
 73
     1
 74
     1
 75
     0
 76
     0
 77
     0
 78
     0
170
     0
171
     2
172
     0
173
     0
174
     0
175
     0
176
     0
177
     0
178
     0
  0
ENDTAB
  0
ENDSEC
  0
SECTION
  2
BLOCKS
  0
BLOCK
  8
0
  2
$MODEL_SPACE
 70
     0
 10
0.0
 20
0.0
 30
0.0
  3
$MODEL_SPACE
  1

  0
ENDBLK
  5
36
  8
0
  0
BLOCK
 67
     1
  8
0
  2
$PAPER_SPACE
 70
     0
 10
0.0
 20
0.0
 30
0.0
  3
$PAPER_SPACE
  1

  0
ENDBLK
  5
34
 67
     1
  8
0
  0
BLOCK
  8
0
  2
A$C224C2EB8
 70
     0
 10
0.0
 20
0.0
 30
0.0
  3
A$C224C2EB8
  1

  0
LINE
  5
33DA
  8
0
  6
CONTINUOUS
 62
     3
 10
78.1876700471291315
 20
0.0000000000179057
 30
0.0
 11
-78.1876700470932064
 21
0.0000000000179057
 31
0.0
210
0.0
220
1.0
230
-0.0000000000000002
  0
LINE
  5
33DB
  8
0
  6
CONTINUOUS
 62
     3
 10
70.5000000000179625
 20
130.000000000017792
 30
-0.0000000000000289
 11
-70.4999999999820233
 21
130.000000000017792
 31
-0.0000000000000289
210
0.0
220
1.0
230
-0.0000000000000002
  0
LINE
  5
33DC
  8
0
  6
CONTINUOUS
 62
     3
 10
-78.1876700470932064
 20
0.0000000000179048
 30
0.0
 11
-79.4999999999820375
 21
15.0000000000179607
 31
-0.0000000000000033
210
0.0
220
1.0
230
-0.0000000000000002
  0
LINE
  5
33DD
  8
0
  6
CONTINUOUS
 62
     3
 10
78.1876700471291315
 20
0.0000000000179048
 30
0.0
 11
79.5000000000179625
 21
15.0000000000179607
 31
-0.0000000000000033
210
0.0
220
1.0
230
-0.0000000000000002
  0
LINE
  5
33DE
  8
0
  6
CONTINUOUS
 62
     3
 10
-79.4999999999820375
 20
15.0000000000179607
 30
-0.0000000000000033
 11
-79.4999999999820375
 21
112.8130467332384939
 31
-0.000000000000025
210
0.0
220
1.0
230
-0.0000000000000002
  0
LINE
  5
33DF
  8
0
  6
CONTINUOUS
 62
     3
 10
79.5000000000179625
 20
15.0000000000179607
 30
-0.0000000000000033
 11
79.5000000000179625
 21
112.8130467332384939
 31
-0.000000000000025
210
0.0
220
1.0
230
-0.0000000000000002
  0
ARC
  5
33E0
  8
0
  6
CONTINUOUS
 62
     3
 10
-61.5000000000192912
 20
112.813046733238707
 30
0.0
 40
17.9999999999986713
210
0.0
220
-0.0000000000000002
230
-1.0
 50
136.4688007143834909
 51
180.0000000000007105
  0
ARC
  5
33E1
  8
0
  6
CONTINUOUS
 62
     3
 10
61.4999999999833591
 20
112.813046733238707
 30
0.0
 40
17.9999999999986713
210
0.0
220
-0.0000000000000002
230
-1.0
 50
359.9999999999992042
 51
43.5311992856165091
  0
LINE
  5
33E2
  8
0
  6
CONTINUOUS
 62
     3
 10
70.5000000000179341
 20
130.000000000017792
 30
-0.0000000000000289
 11
74.5499898047171996
 21
125.2105370477028004
 31
-0.0000000000000278
210
0.0
220
1.0
230
-0.0000000000000002
  0
LINE
  5
33E3
  8
0
  6
CONTINUOUS
 62
     3
 10
-70.4999999999820091
 20
130.000000000017792
 30
-0.0000000000000289
 11
-74.5499898046812746
 21
125.2105370477028004
 31
-0.0000000000000278
210
0.0
220
1.0
230
-0.0000000000000002
  0
LINE
  5
33E4
  8
0
  6
CONTINUOUS
 62
     3
 10
-72.7584447973882646
 20
225.000000000017593
 30
-0.00000000000005
 11
72.7584447974241897
 21
225.000000000017593
 31
-0.00000000000005
210
0.0
220
1.0
230
-0.0000000000000002
  0
ARC
  5
33E5
  8
0
  6
CONTINUOUS
 62
     3
 10
45.8433961393513982
 20
211.3984959322573047
 30
0.0
 40
30.1566038732777315
210
0.0
220
-0.0000000000000002
230
-1.0
 50
359.9983406354616022
 51
26.8097252186341883
  0
ARC
  5
33E6
  8
0
  6
CONTINUOUS
 62
     3
 10
-45.8433961393871101
 20
211.398495932257191
 30
0.0
 40
30.1566038732779482
210
0.0
220
-0.0000000000000002
230
-1.0
 50
153.1902747813659005
 51
180.0016593645383125
  0
LINE
  5
33E7
  8
0
  6
CONTINUOUS
 62
     3
 10
-75.9997362596741368
 20
202.2910000000175899
 30
-0.0000000000000449
 11
-75.9999999999820233
 21
211.3976225555533972
 31
-0.0000000000000469
210
0.0
220
1.0
230
-0.0000000000000002
  0
LINE
  5
33E8
  8
0
  6
CONTINUOUS
 62
     3
 10
75.9997362597100619
 20
202.2910000000175899
 30
-0.0000000000000449
 11
76.0000000000179625
 21
211.3976225555533972
 31
-0.0000000000000469
210
0.0
220
1.0
230
-0.0000000000000002
  0
ARC
  5
33E9
  8
0
  6
CONTINUOUS
 62
     3
 10
45.9999999999750671
 20
202.2910000000190962
 30
0.0
 40
29.9997362596990484
210
0.0
220
-0.0000000000000002
230
-1.0
 50
334.9928416634484734
 51
359.9999999999969873
  0
ARC
  5
33EA
  8
0
  6
CONTINUOUS
 62
     3
 10
-46.0000000000109992
 20
202.2910000000190962
 30
0.0
 40
29.9997362596990484
210
0.0
220
-0.0000000000000002
230
-1.0
 50
180.000000000002899
 51
205.0071583365514982
  0
ARC
  5
33EB
  8
0
  6
CONTINUOUS
 62
     3
 10
89.4999999999780869
 20
182.0000000000183888
 30
0.0
 40
17.9999999999960494
210
0.0
220
-0.0000000000000002
230
-1.0
 50
154.9928416634481891
 51
180.0
  0
ARC
  5
33EC
  8
0
  6
CONTINUOUS
 62
     3
 10
-89.5000000000139977
 20
182.0000000000183888
 30
0.0
 40
17.9999999999960494
210
0.0
220
-0.0000000000000002
230
-1.0
 50
0.0
 51
25.0071583365518215
  0
LINE
  5
33ED
  8
0
  6
CONTINUOUS
 62
     3
 10
71.5000000000179625
 20
182.0000000000183888
 30
-0.0000000000000404
 11
71.5000000000179625
 21
158.4687194226887073
 31
-0.0000000000000352
210
0.0
220
1.0
230
-0.0000000000000002
  0
LINE
  5
33EE
  8
0
  6
CONTINUOUS
 62
     3
 10
-71.4999999999820375
 20
182.0000000000183888
 30
-0.0000000000000404
 11
-71.4999999999820375
 21
158.4687194226887073
 31
-0.0000000000000352
210
0.0
220
1.0
230
-0.0000000000000002
  0
ARC
  5
33EF
  8
0
  6
CONTINUOUS
 62
     3
 10
53.4999999999796501
 20
158.4687194226893894
 30
0.0
 40
18.000000000002391
210
0.0
220
-0.0000000000000002
230
-1.0
 50
325.2280559680526721
 51
359.9999999999977831
  0
ARC
  5
33F0
  8
0
  6
CONTINUOUS
 62
     3
 10
-53.5000000000155822
 20
158.4687194226893894
 30
0.0
 40
18.000000000002391
210
0.0
220
-0.0000000000000002
230
-1.0
 50
180.0000000000021885
 51
214.7719440319472142
  0
ARC
  5
33F1
  8
0
  6
CONTINUOUS
 62
     3
 10
76.4999999999818385
 20
142.5000000000173941
 30
0.0
 40
9.9999999999997922
210
0.0
220
-0.0000000000000002
230
-1.0
 50
145.2280559680528995
 51
179.9999999999992042
  0
ARC
  5
33F2
  8
0
  6
CONTINUOUS
 62
     3
 10
-76.5000000000177351
 20
142.5000000000173941
 30
0.0
 40
9.9999999999997868
210
0.0
220
-0.0000000000000002
230
-1.0
 50
0.0000000000008142
 51
34.7719440319471431
  0
LINE
  5
33F3
  8
0
  6
CONTINUOUS
 62
     3
 10
66.5000000000179625
 20
142.500000000017593
 30
-0.0000000000000316
 11
66.5000000000179625
 21
139.5261092284981999
 31
-0.000000000000031
210
0.0
220
1.0
230
-0.0000000000000002
  0
LINE
  5
33F4
  8
0
  6
CONTINUOUS
 62
     3
 10
-66.4999999999820375
 20
142.500000000017593
 30
-0.0000000000000316
 11
-66.4999999999820375
 21
139.5261092284981999
 31
-0.000000000000031
210
0.0
220
1.0
230
-0.0000000000000002
  0
ARC
  5
33F5
  8
0
  6
CONTINUOUS
 62
     3
 10
73.4134886551968435
 20
139.055073883789504
 30
0.0
 40
6.9295165546918804
210
0.0
220
-0.0000000000000002
230
-1.0
 50
176.1023017659651941
 51
201.2517228702847092
  0
ARC
  5
33F6
  8
0
  6
CONTINUOUS
 62
     3
 10
-73.4134886552327686
 20
139.055073883789504
 30
0.0
 40
6.9295165546918724
210
0.0
220
-0.0000000000000002
230
-1.0
 50
338.7482771297151771
 51
3.897698234034749
  0
LINE
  5
33F7
  8
0
  6
CONTINUOUS
 62
     3
 10
66.9552002196671623
 20
136.5433592971398866
 30
-0.0000000000000303
 11
69.5000000000179483
 21
130.000000000017792
 31
-0.0000000000000289
210
0.0
220
1.0
230
-0.0000000000000002
  0
LINE
  5
33F8
  8
0
  6
CONTINUOUS
 62
     3
 10
-66.955200219631223
 20
136.5433592971398866
 30
-0.0000000000000303
 11
-69.4999999999820233
 21
130.000000000017792
 31
-0.0000000000000289
210
0.0
220
1.0
230
-0.0000000000000002
  0
LINE
  5
33F9
  8
0
  6
VERDECKT
 62
     1
 10
67.2260054995511638
 20
130.000000000017792
 30
-0.0000000000000289
 11
72.641006756911537
 21
123.5962930378978939
 31
-0.0000000000000274
210
0.0
220
1.0
230
-0.0000000000000002
  0
LINE
  5
33FA
  8
0
  6
VERDECKT
 62
     1
 10
-67.226005499515253
 20
130.000000000017792
 30
-0.0000000000000289
 11
-72.6410067568756119
 21
123.5962930378978939
 31
-0.0000000000000274
210
0.0
220
1.0
230
-0.0000000000000002
  0
ARC
  5
33FB
  8
0
  6
VERDECKT
 62
     1
 10
-58.4291075598166003
 20
111.5786519314299028
 30
0.0
 40
18.6118719249907585
210
0.0
220
-0.0000000000000002
230
-1.0
 50
139.7820004160861913
 51
176.1971817690005082
  0
ARC
  5
33FC
  8
0
  6
VERDECKT
 62
     1
 10
58.4291075597806682
 20
111.5786519314299028
 30
0.0
 40
18.6118719249907585
210
0.0
220
-0.0000000000000002
230
-1.0
 50
3.80281823099953
 51
40.2179995839138229
  0
LINE
  5
33FD
  8
0
  6
VERDECKT
 62
     1
 10
-76.9999999999821512
 20
15.1091523572892505
 30
-0.0000000000000034
 11
-76.9999999999821512
 21
112.813046733238096
 31
-0.000000000000025
210
0.0
220
1.0
230
-0.0000000000000002
  0
LINE
  5
33FE
  8
0
  6
VERDECKT
 62
     1
 10
77.0000000000180762
 20
15.1091523572892505
 30
-0.0000000000000034
 11
77.0000000000180762
 21
112.813046733238096
 31
-0.000000000000025
210
0.0
220
1.0
230
-0.0000000000000002
  0
LINE
  5
33FF
  8
0
  6
VERDECKT
 62
     1
 10
-75.6781204532346692
 20
0.0000000000178497
 30
0.0
 11
-76.9999999999822649
 21
15.1091523572892505
 31
-0.0000000000000034
210
0.0
220
1.0
230
-0.0000000000000002
  0
LINE
  5
3400
  8
0
  6
VERDECKT
 62
     1
 10
75.6781204532705942
 20
0.0000000000178497
 30
0.0
 11
77.0000000000181899
 21
15.1091523572892505
 31
-0.0000000000000034
210
0.0
220
1.0
230
-0.0000000000000002
  0
LINE
  5
3401
  8
0
  6
VERDECKT
 62
     1
 10
64.6240623517168871
 20
135.6401393753801869
 30
-0.0000000000000301
 11
66.8175878470816116
 21
130.000000000017792
 31
-0.0000000000000289
210
0.0
220
1.0
230
-0.0000000000000002
  0
LINE
  5
3402
  8
0
  6
VERDECKT
 62
     1
 10
-64.624062351680962
 20
135.6401393753801869
 30
-0.0000000000000301
 11
-66.8175878470456865
 21
130.000000000017792
 31
-0.0000000000000289
210
0.0
220
1.0
230
-0.0000000000000002
  0
ARC
  5
3403
  8
0
  6
VERDECKT
 62
     1
 10
76.4107915466712626
 20
139.526109228497603
 30
0.0
 40
12.4107915466892198
210
0.0
220
-0.0000000000000002
230
-1.0
 50
179.9999999999971863
 51
198.246884680700191
  0
ARC
  5
3404
  8
0
  6
VERDECKT
 62
     1
 10
-76.4107915467071876
 20
139.526109228497603
 30
0.0
 40
12.4107915466892198
210
0.0
220
-0.0000000000000002
230
-1.0
 50
341.753115319299809
 51
0.0000000000027607
  0
LINE
  5
3405
  8
0
  6
VERDECKT
 62
     1
 10
64.0000000000179625
 20
142.500000000017593
 30
-0.0000000000000316
 11
64.0000000000179625
 21
139.5261092284981999
 31
-0.000000000000031
210
0.0
220
1.0
230
-0.0000000000000002
  0
LINE
  5
3406
  8
0
  6
VERDECKT
 62
     1
 10
-63.9999999999820375
 20
142.500000000017593
 30
-0.0000000000000316
 11
-63.9999999999820375
 21
139.5261092284981999
 31
-0.000000000000031
210
0.0
220
1.0
230
-0.0000000000000002
  0
ARC
  5
3407
  8
0
  6
VERDECKT
 62
     1
 10
76.4999999999838138
 20
142.5000000000169962
 30
0.0
 40
12.5000000000017906
210
0.0
220
-0.0000000000000002
230
-1.0
 50
145.2280559680527858
 51
179.9999999999974136
  0
ARC
  5
3408
  8
0
  6
VERDECKT
 62
     1
 10
-76.5000000000198241
 20
142.5000000000169962
 30
0.0
 40
12.5000000000018598
210
0.0
220
-0.0000000000000002
230
-1.0
 50
0.0000000000027353
 51
34.7719440319471218
  0
ARC
  5
3409
  8
0
  6
VERDECKT
 62
     1
 10
53.4999999999814406
 20
158.4687194226889915
 30
0.0
 40
15.5000000000006004
210
0.0
220
-0.0000000000000002
230
-1.0
 50
325.2280559680531837
 51
359.9999999999992042
  0
ARC
  5
340A
  8
0
  6
VERDECKT
 62
     1
 10
-53.5000000000174865
 20
158.4687194226889915
 30
0.0
 40
15.5000000000004707
210
0.0
220
-0.0000000000000002
230
-1.0
 50
180.0000000000005969
 51
214.7719440319469015
  0
LINE
  5
340B
  8
0
  6
VERDECKT
 62
     1
 10
69.0000000000179625
 20
182.000000000017593
 30
-0.0000000000000404
 11
69.0000000000179625
 21
158.4687194226887925
 31
-0.0000000000000352
210
0.0
220
1.0
230
-0.0000000000000002
  0
LINE
  5
340C
  8
0
  6
VERDECKT
 62
     1
 10
-68.9999999999820375
 20
182.000000000017593
 30
-0.0000000000000404
 11
-68.9999999999820375
 21
158.4687194226887925
 31
-0.0000000000000352
210
0.0
220
1.0
230
-0.0000000000000002
  0
ARC
  5
340D
  8
0
  6
VERDECKT
 62
     1
 10
88.8933035583785056
 20
182.1333196672883048
 30
0.0
 40
19.8937502899828011
210
0.0
220
-0.0000000000000002
230
-1.0
 50
154.828852256936301
 51
180.3839754358743903
  0
ARC
  5
340E
  8
0
  6
VERDECKT
 62
     1
 10
-88.8933035584144164
 20
182.1333196672883048
 30
0.0
 40
19.8937502899828011
210
0.0
220
-0.0000000000000002
230
-1.0
 50
359.616024564125496
 51
25.171147743063699
  0
ARC
  5
340F
  8
0
  6
VERDECKT
 62
     1
 10
45.9999999999829683
 20
202.2910000000173909
 30
0.0
 40
27.4999999999990798
210
0.0
220
-0.0000000000000002
230
-1.0
 50
334.8288522569350221
 51
0.0000000000005343
  0
ARC
  5
3410
  8
0
  6
VERDECKT
 62
     1
 10
-46.0000000000194689
 20
202.2910000000173056
 30
0.0
 40
27.4999999999984901
210
0.0
220
-0.0000000000000002
230
-1.0
 50
179.9999999999992042
 51
205.1711477430652053
  0
LINE
  5
3411
  8
0
  6
VERDECKT
 62
     1
 10
73.5000000000179625
 20
211.3976225555533972
 30
-0.0000000000000469
 11
73.5000000000179625
 21
202.2910000000177035
 31
-0.0000000000000449
210
0.0
220
1.0
230
-0.0000000000000002
  0
LINE
  5
3412
  8
0
  6
VERDECKT
 62
     1
 10
-73.4999999999820233
 20
211.3976225555533972
 30
-0.0000000000000469
 11
-73.4999999999820233
 21
202.2910000000177035
 31
-0.0000000000000449
210
0.0
220
1.0
230
-0.0000000000000002
  0
ARC
  5
3413
  8
0
  6
VERDECKT
 62
     1
 10
45.9999999999847233
 20
211.3976225555537098
 30
0.0
 40
27.4999999999973213
210
0.0
220
-0.0000000000000002
230
-1.0
 50
359.9999999999992042
 51
25.0000000000006288
  0
ARC
  5
3414
  8
0
  6
VERDECKT
 62
     1
 10
-46.0000000000206413
 20
211.3976225555537098
 30
0.0
 40
27.4999999999973213
210
0.0
220
-0.0000000000000002
230
-1.0
 50
154.9999999999994031
 51
180.0000000000005969
  0
LINE
  5
3415
  8
0
  6
VERDECKT
 62
     1
 10
70.0000000000178062
 20
225.0000000000177067
 30
-0.00000000000005
 11
70.9234641435259192
 21
223.0196247534219935
 31
-0.0000000000000495
210
0.0
220
1.0
230
-0.0000000000000002
  0
LINE
  5
3416
  8
0
  6
VERDECKT
 62
     1
 10
-69.9999999999818812
 20
225.0000000000177067
 30
-0.00000000000005
 11
-70.9234641434899942
 21
223.0196247534219935
 31
-0.0000000000000495
210
0.0
220
1.0
230
-0.0000000000000002
  0
ENDBLK
  5
3418
  8
0
  0
BLOCK
  8
0
  2
A$C1695198A
 70
     0
 10
0.0
 20
0.0
 30
0.0
  3
A$C1695198A
  1

  0
CIRCLE
  5
341C
  8
0
  6
CONTINUOUS
 62
     3
 10
0.0000000000179876
 20
0.0000000000000234
 30
0.0
 40
79.5
  0
CIRCLE
  5
341D
  8
0
  6
CONTINUOUS
 62
     3
 10
0.0000000000179942
 20
0.0000000000000252
 30
0.0
 40
64.0
  0
CIRCLE
  5
341E
  8
0
  6
CONTINUOUS
 62
     3
 10
0.0000000000180125
 20
0.0000000000000302
 30
0.0
 40
69.9999999999998863
  0
CIRCLE
  5
341F
  8
0
  6
CONTINUOUS
 62
     3
 10
0.0000000000180125
 20
0.0000000000000302
 30
0.0
 40
72.7584447974062414
  0
CIRCLE
  5
3420
  8
0
  6
CONTINUOUS
 62
     3
 10
0.000000000018003
 20
0.0000000000000276
 30
0.0
 40
68.9995532684136634
  0
CIRCLE
  5
3421
  8
0
  6
CONTINUOUS
 62
     3
 10
0.0000000000180095
 20
0.0000000000000294
 30
0.0
 40
76.0000000126470923
  0
CIRCLE
  5
3422
  8
0
  6
VERDECKT
 62
     1
 10
0.0000000000179625
 20
0.0000000000000165
 30
0.0
 40
78.187670047111169
  0
CIRCLE
  5
3423
  8
0
  6
VERDECKT
 62
     1
 10
0.0000000000179914
 20
0.0000000000000244
 30
0.0
 40
70.5
  0
CIRCLE
  5
3424
  8
0
  6
VERDECKT
 62
     1
 10
0.0000000000179914
 20
0.0000000000000244
 30
0.0
 40
67.2260054995332439
  0
CIRCLE
  5
3425
  8
0
  6
VERDECKT
 62
     1
 10
0.0000000000179876
 20
0.0000000000000234
 30
0.0
 40
77.0
  0
CIRCLE
  5
3426
  8
0
  6
VERDECKT
 62
     1
 10
0.0000000000179625
 20
0.0000000000000165
 30
0.0
 40
75.6781204532526317
  0
CIRCLE
  5
3427
  8
0
  6
VERDECKT
 62
     1
 10
0.0000000000179914
 20
0.0000000000000244
 30
0.0
 40
66.8175878470636917
  0
CIRCLE
  5
3428
  8
0
  6
VERDECKT
 62
     1
 10
0.0000000000180029
 20
0.0000000000000276
 30
0.0
 40
69.0
  0
CIRCLE
  5
3429
  8
0
  6
VERDECKT
 62
     1
 10
0.0000000000180095
 20
0.0000000000000294
 30
0.0
 40
73.5
  0
CIRCLE
  5
342A
  8
0
  6
VERDECKT
 62
     1
 10
0.0000000000180029
 20
0.0000000000000276
 30
0.0
 40
71.5
  0
CIRCLE
  5
342B
  8
0
  6
VERDECKT
 62
     1
 10
0.0000000000179942
 20
0.0000000000000252
 30
0.0
 40
66.5
  0
CIRCLE
  5
342C
  8
0
  6
VERDECKT
 62
     1
 10
0.0000000000179914
 20
0.0000000000000244
 30
0.0
 40
69.5
  0
CIRCLE
  5
342D
  8
0
  6
VERDECKT
 62
     1
 10
0.0000000000179934
 20
0.000000000000025
 30
0.0
 40
66.4839721005229336
  0
ENDBLK
  5
342F
  8
0
  0
ENDSEC
  0
SECTION
  2
ENTITIES
  0
TEXT
  5
8F
  8
VOLL
 10
78.076754716981128
 20
31.025947764705851
 30
0.0
 40
1.8
  1

  7
GREEKS
  0
TEXT
  5
2D86
  8
VOLL
 10
607.3729377861239982
 20
387.2810390670533138
 30
0.0
 40
1.8
  1

  7
GREEKS
  0
INSERT
  5
3419
  8
STEMPEL
  2
A$C224C2EB8
 10
0.0
 20
0.0
 30
0.0
  0
INSERT
  5
3430
  8
STEMPEL
  2
A$C1695198A
 10
0.0
 20
-179.4999999999820943
 30
0.0
  0
VIEWPORT
  5
3160
 67
     1
  8
0
 10
7.2369335471514296
 20
10.1998517793376209
 30
0.0
 40
41.1464172257517333
 41
20.9557118274578897
 68
     1
 69
     1
1001
ACAD
1000
MVIEW
1002
{
1070
    16
1010
0.0
1020
0.0
1030
0.0
1010
0.0
1020
0.0
1030
1.0
1040
0.0
1040
20.9557118274578897
1040
7.2369335471514296
1040
10.1998517793376209
1040
50.0
1040
0.0
1040
0.0
1070
     0
1070
  1500
1070
     1
1070
     1
1070
     0
1070
     0
1070
     0
1070
     0
1040
0.0
1040
0.0
1040
0.0
1040
10.0
1040
10.0
1040
10.0
1040
10.0
1070
     0
1002
{
1002
}
1002
}
  0
VIEWPORT
  5
3164
 67
     1
  8
DEFPOINTS
 10
7.2370065384758311
 20
10.2001799627908394
 30
0.0
 40
14.8580429485709899
 41
20.7909979883034097
 68
     2
 69
     2
1001
ACAD
1000
MVIEW
1002
{
1070
    16
1010
0.0
1020
0.0
1030
0.0
1010
0.0
1020
0.0
1030
1.0
1040
0.0
1040
610.0719070195973472
1040
209.3940568628704
1040
297.2246191861516991
1040
50.0
1040
0.0
1040
0.0
1070
     0
1070
  1500
1070
     1
1070
     0
1070
     0
1070
     0
1070
     0
1070
     0
1040
0.0
1040
0.0
1040
0.0
1040
1.0
1040
1.0
1040
10.0
1040
10.0
1070
     0
1002
{
1002
}
1002
}
  0
VIEWPORT
  5
3168
 67
     1
  8
DEFPOINTS
 10
11.7530042240170403
 20
9.6575918637490901
 30
0.0
 40
3.9314352398043289
 41
5.1839960237942071
 68
     3
 69
     3
1001
ACAD
1000
MVIEW
1002
{
1070
    16
1010
906.0506585782352431
1020
380.0193156678589048
1030
1.8615664739400919
1010
0.0
1020
114.4631340303587024
1030
471.1483462877255874
1040
3.1415926535897931
1040
268.191290726823695
1040
0.0
1040
0.0
1040
50.0
1040
0.0
1040
0.0
1070
     0
1070
  1500
1070
     1
1070
     0
1070
     0
1070
     0
1070
     0
1070
     0
1040
0.0
1040
0.0
1040
0.0
1040
1.0
1040
1.0
1040
10.0
1040
10.0
1070
     0
1002
{
1002
}
1002
}
  0
ENDSEC
  0
EOF
