  0
SECTION
  2
HEADER
  9
$ACADVER
  1
AC1009
  9
$INSBASE
 10
509.9391017861535147
 20
-118.0350180316795985
 30
403.1361558984037856
  9
$EXTMIN
 10
-50.9999999999998508
 20
-151.0000000000001137
 30
-0.0000000000000455
  9
$EXTMAX
 10
51.0000000000002913
 20
195.0000000000015916
 30
0.0
  9
$LIMMIN
 10
0.0
 20
0.000000000000008
  9
$LIMMAX
 10
594.0
 20
840.0
  9
$ORTHOMODE
 70
     1
  9
$REGENMODE
 70
     1
  9
$FILLMODE
 70
     1
  9
$QTEXTMODE
 70
     0
  9
$MIRRTEXT
 70
     1
  9
$DRAGMODE
 70
     2
  9
$LTSCALE
 40
20.0
  9
$OSMODE
 70
   511
  9
$ATTMODE
 70
     1
  9
$TEXTSIZE
 40
2.0
  9
$TRACEWID
 40
1.0
  9
$TEXTSTYLE
  7
STANDARD
  9
$CLAYER
  8
STEMPEL
  9
$CELTYPE
  6
BYLAYER
  9
$CECOLOR
 62
   256
  9
$DIMSCALE
 40
1.0
  9
$DIMASZ
 40
3.5
  9
$DIMEXO
 40
1.0
  9
$DIMDLI
 40
0.38
  9
$DIMRND
 40
0.0
  9
$DIMDLE
 40
0.0
  9
$DIMEXE
 40
1.0
  9
$DIMTP
 40
0.0
  9
$DIMTM
 40
0.000000001
  9
$DIMTXT
 40
3.5
  9
$DIMCEN
 40
0.09
  9
$DIMTSZ
 40
0.0
  9
$DIMTOL
 70
     0
  9
$DIMLIM
 70
     0
  9
$DIMTIH
 70
     0
  9
$DIMTOH
 70
     0
  9
$DIMSE1
 70
     0
  9
$DIMSE2
 70
     0
  9
$DIMTAD
 70
     1
  9
$DIMZIN
 70
     8
  9
$DIMBLK
  1

  9
$DIMASO
 70
     1
  9
$DIMSHO
 70
     0
  9
$DIMPOST
  1

  9
$DIMAPOST
  1

  9
$DIMALT
 70
     0
  9
$DIMALTD
 70
     2
  9
$DIMALTF
 40
25.3999999999999986
  9
$DIMLFAC
 40
2.0
  9
$DIMTOFL
 70
     1
  9
$DIMTVP
 40
0.0
  9
$DIMTIX
 70
     0
  9
$DIMSOXD
 70
     0
  9
$DIMSAH
 70
     0
  9
$DIMBLK1
  1

  9
$DIMBLK2
  1

  9
$DIMSTYLE
  2
LORO
  9
$DIMCLRD
 70
     0
  9
$DIMCLRE
 70
     0
  9
$DIMCLRT
 70
     1
  9
$DIMTFAC
 40
0.5
  9
$DIMGAP
 40
1.5
  9
$LUNITS
 70
     2
  9
$LUPREC
 70
     2
  9
$SKETCHINC
 40
1.0
  9
$FILLETRAD
 40
11.0
  9
$AUNITS
 70
     0
  9
$AUPREC
 70
     0
  9
$MENU
  1
ACAD
  9
$ELEVATION
 40
0.0
  9
$PELEVATION
 40
0.0
  9
$THICKNESS
 40
0.0
  9
$LIMCHECK
 70
     0
  9
$BLIPMODE
 70
     0
  9
$CHAMFERA
 40
0.0
  9
$CHAMFERB
 40
0.0
  9
$SKPOLY
 70
     0
  9
$TDCREATE
 40
2455397.867048610933125
  9
$TDUPDATE
 40
2460539.5323842591606081
  9
$TDINDWG
 40
1.6464189467999999
  9
$TDUSRTIMER
 40
1.6464189467999999
  9
$USRTIMER
 70
     1
  9
$ANGBASE
 50
0.0
  9
$ANGDIR
 70
     0
  9
$PDMODE
 70
     0
  9
$PDSIZE
 40
0.0
  9
$PLINEWID
 40
0.0
  9
$COORDS
 70
     1
  9
$SPLFRAME
 70
     0
  9
$SPLINETYPE
 70
     6
  9
$SPLINESEGS
 70
     8
  9
$ATTDIA
 70
     1
  9
$ATTREQ
 70
     1
  9
$HANDLING
 70
     1
  9
$HANDSEED
  5
22CFD
  9
$SURFTAB1
 70
     6
  9
$SURFTAB2
 70
     6
  9
$SURFTYPE
 70
     6
  9
$SURFU
 70
     6
  9
$SURFV
 70
     6
  9
$UCSNAME
  2

  9
$UCSORG
 10
0.0
 20
0.0
 30
0.0
  9
$UCSXDIR
 10
1.0
 20
0.0000000000000004
 30
0.0
  9
$UCSYDIR
 10
-0.0000000000000004
 20
1.0
 30
0.0
  9
$PUCSNAME
  2

  9
$PUCSORG
 10
0.0
 20
0.0
 30
0.0
  9
$PUCSXDIR
 10
1.0
 20
0.0
 30
0.0
  9
$PUCSYDIR
 10
0.0
 20
1.0
 30
0.0
  9
$USERI1
 70
     0
  9
$USERI2
 70
     0
  9
$USERI3
 70
     0
  9
$USERI4
 70
     0
  9
$USERI5
 70
     0
  9
$USERR1
 40
0.0
  9
$USERR2
 40
0.0
  9
$USERR3
 40
0.0
  9
$USERR4
 40
0.0
  9
$USERR5
 40
0.0
  9
$WORLDVIEW
 70
     1
  9
$SHADEDGE
 70
     3
  9
$SHADEDIF
 70
    70
  9
$TILEMODE
 70
     1
  9
$MAXACTVP
 70
    16
  9
$PLIMCHECK
 70
     0
  9
$PEXTMIN
 10
58.0833332068009511
 20
199.7499997097594928
 30
-0.0000000000000006
  9
$PEXTMAX
 10
82.972265038024716
 20
253.4999999681093072
 30
0.0
  9
$PLIMMIN
 10
-0.2161014211277746
 20
-0.248749711076556
  9
$PLIMMAX
 10
209.7838985788723107
 20
296.7512502889234725
  9
$UNITMODE
 70
     0
  9
$VISRETAIN
 70
     0
  9
$PLINEGEN
 70
     0
  9
$PSLTSCALE
 70
     0
  0
ENDSEC
  0
SECTION
  2
TABLES
  0
TABLE
  2
VPORT
 70
     1
  0
VPORT
  2
*ACTIVE
 70
     0
 10
0.0
 20
0.0
 11
1.0
 21
1.0
 12
0.0000000000002274
 22
-50.001777648925021
 13
0.0
 23
0.0
 14
1.0
 24
1.0
 15
10.0
 25
10.0
 16
-0.0000000000006268
 26
0.0
 36
2823.0282505659401977
 17
-0.0000000000000284
 27
72.0017776489257813
 37
-0.0000000000000216
 40
347.7835051546409204
 41
1.8847807394668961
 42
207.9750642040671949
 43
0.0
 44
0.0
 50
0.0
 51
0.0000000000000223
 71
     0
 72
  1500
 73
     1
 74
     0
 75
     0
 76
     0
 77
     0
 78
     0
  0
ENDTAB
  0
TABLE
  2
LTYPE
 70
    13
  0
LTYPE
  2
CONTINUOUS
 70
     0
  3
Solid line
 72
    65
 73
     0
 40
0.0
  0
LTYPE
  2
STRICHPUNKT
 70
     0
  3
__ . __ . __ . __ . __ . __ . __ . __ . __ . __
 72
    65
 73
     4
 40
1.0
 49
0.5
 49
-0.25
 49
0.0
 49
-0.25
  0
LTYPE
  2
HIDDEN
 70
     0
  3
Hidden __ __ __ __ __ __ __ __ __ __ __ __ __ __
 72
    65
 73
     2
 40
0.375
 49
0.25
 49
-0.125
  0
LTYPE
  2
PHANTOM2
 70
     0
  3
Phantom (.5x) ___ _ _ ___ _ _ ___ _ _ ___ _ _
 72
    65
 73
     6
 40
1.25
 49
0.625
 49
-0.125
 49
0.125
 49
-0.125
 49
0.125
 49
-0.125
  0
LTYPE
  2
CENTER
 70
     0
  3
Center ____ _ ____ _ ____ _ ____ _ ____ _ ____
 72
    65
 73
     4
 40
2.0
 49
1.25
 49
-0.25
 49
0.25
 49
-0.25
  0
LTYPE
  2
AMCONSTR
 70
     0
  3
_______________________
 72
    65
 73
     2
 40
9999.0
 49
9999.0
 49
0.0
  0
LTYPE
  2
CENTER2
 70
     0
  3
Center (.5x) ___ _ ___ _ ___ _ ___ _ ___ _ ___
 72
    65
 73
     4
 40
1.125
 49
0.75
 49
-0.125
 49
0.125
 49
-0.125
  0
LTYPE
  2
HIDDEN2
 70
     0
  3
Hidden (.5x) _ _ _ _ _ _ _ _ _ _ _ _ _ _ _ _ _
 72
    65
 73
     2
 40
0.1875
 49
0.125
 49
-0.0625
  0
LTYPE
  2
AMZIGZAG2
 70
     0
  3
/\/-/\/-/\/-/\/-/\/-/\/
 72
    65
 73
     2
 40
0.4401
 49
0.0001
 49
-0.4400000000000001
  0
LTYPE
  2
ACANSTGB
 70
     0
  3
__ . . __ . .
 72
    65
 73
     6
 40
0.35433070866
 49
0.15748031496
 49
-0.03937007874
 49
0.03937007874
 49
-0.03937007874
 49
0.03937007874
 49
-0.03937007874
  0
LTYPE
  2
ACANSTGL
 70
     0
  3
_ _ _ _ _
 72
    65
 73
     2
 40
0.11811023622
 49
0.07874015748
 49
-0.03937007874
  0
LTYPE
  2
AUSGEZOGEN
 70
     0
  3
Ausgezogene Linie
 72
    65
 73
     0
 40
0.0
  0
LTYPE
  2
VERDECKT
 70
     0
  3
Verdeckt __ __ __ __ __ __ __ __ __ __ __ __ __
 72
    65
 73
     2
 40
0.375
 49
0.25
 49
-0.125
  0
ENDTAB
  0
TABLE
  2
LAYER
 70
     7
  0
LAYER
  2
0
 70
     0
 62
     7
  6
CONTINUOUS
  0
LAYER
  2
VOLL
 70
     0
 62
     1
  6
CONTINUOUS
  0
LAYER
  2
STEMPEL
 70
     0
 62
     3
  6
CONTINUOUS
  0
LAYER
  2
ADSK_ASSOC_ENTITY_BACKUPS
 70
     1
 62
    -7
  6
CONTINUOUS
  0
LAYER
  2
INDEX
 70
     0
 62
  -255
  6
CONTINUOUS
  0
ENDTAB
  0
TABLE
  2
STYLE
 70
     4
  0
STYLE
  2
STANDARD
 70
     0
 40
0.0
 41
0.8
 50
0.0
 71
     0
 42
2.0
  3
simplex.shx
  4

  0
STYLE
  2
GREEKS
 70
     0
 40
0.0
 41
0.8
 50
0.0
 71
     0
 42
2.5
  3
SIMPLEX.shx
  4

  0
STYLE
  2

 70
     1
 40
0.0
 41
1.0
 50
0.0
 71
     0
 42
2.5
  3
genltshp.shx
  4

  0
STYLE
  2
ACANSGDT
 70
     0
 40
0.0
 41
1.0
 50
0.0
 71
     0
 42
2.5
  3
amgdt.shx
  4

  0
ENDTAB
  0
TABLE
  2
VIEW
 70
     0
  0
ENDTAB
  0
TABLE
  2
UCS
 70
     0
  0
ENDTAB
  0
TABLE
  2
APPID
 70
    49
  0
APPID
  2
ACAD
 70
     0
  0
APPID
  2
ACAD_NAV_VCDISPLAY
 70
     0
  0
APPID
  2
GRADIENTCOLOR1ACI
 70
     0
  0
APPID
  2
GRADIENTCOLOR2ACI
 70
     0
  0
APPID
  2
ACAD_DSTYLE_DIMRADIAL_EXTENSION
 70
     0
  0
APPID
  2
ACADANNOMONITORALERTICONDI
 70
     0
  0
APPID
  2
ACAD_EXEMPT_FROM_CAD_STANDARDS
 70
     0
  0
APPID
  2
ACAD_MLEADERVER
 70
     0
  0
APPID
  2
ACAD_PSEXT
 70
     0
  0
APPID
  2
ACAECLAYERSTANDARD
 70
     0
  0
APPID
  2
ACCMTRANSPARENCY
 70
     0
  0
APPID
  2
ACAD_OBJECT_CHANGE_GUID
 70
     0
  0
APPID
  2
MCAD_NO_VIS
 70
     0
  0
APPID
  2
ACAD_TEMP_GRAPHIC
 70
     0
  0
APPID
  2
ACATTRIBSERVICES
 70
     0
  0
APPID
  2
DESIGNERASSEMBLIES
 70
     0
  0
APPID
  2
ACAD_DSTYLE_DIMJAG
 70
     0
  0
APPID
  2
ACAD_DSTYLE_DIMBREAK
 70
     0
  0
APPID
  2
GENIUS_GENSCREG_15
 70
     0
  0
APPID
  2
GENIUS_GENOBJ-N-SDF_13
 70
     0
  0
APPID
  2
GENIUS_GENODEF_13
 70
     0
  0
APPID
  2
ACAD_STEPID
 70
     0
  0
APPID
  2
ACAD_DSTYLE_DIMARC_LENGTH_
 70
     0
  0
APPID
  2
ACAD_DSTYLE_DIM_LINETYPE
 70
     0
  0
APPID
  2
ACAD_DSTYLE_DIM_EXT1_LINETYPE
 70
     0
  0
APPID
  2
ACAD_DSTYLE_DIM_EXT2_LINETYPE
 70
     0
  0
APPID
  2
RAK
 70
     0
  0
APPID
  2
ACADANNOPO
 70
     0
  0
APPID
  2
ACSYNERGY
 70
     0
  0
APPID
  2
SYNERGY_BODY_TBR_ID
 70
     0
  0
APPID
  2
ACAD_VIEW_EDGE_ID
 70
     0
  0
APPID
  2
ACSYNERGYSKETCH
 70
     0
  0
APPID
  2
ACAD_MODELDOC_XFORM
 70
     0
  0
APPID
  2
GENIUS_GENDTOL_13
 70
     0
  0
APPID
  2
ACAD_DSTYLE_DIMINSPECT
 70
     0
  0
APPID
  2
ACAD_DSTYLE_DIMANGULAR_EXT
 70
     0
  0
APPID
  2
PLOTTRANSPARENCY
 70
     0
  0
APPID
  2
ACAUTHENVIRON
 70
     0
  0
APPID
  2
ACDBDYNAMICBLOCKTRUENAME
 70
     0
  0
APPID
  2
ACDBDYNAMICBLOCKGUID
 70
     0
  0
APPID
  2
PE_URL
 70
     0
  0
APPID
  2
ACADANNOAV
 70
     0
  0
APPID
  2
ACAD_TC
 70
     0
  0
APPID
  2
ACAD_DIMASSOC_CALC_DIMLFAC
 70
     0
  0
APPID
  2
ACAD_DIMASSOC_DIMLFAC
 70
     0
  0
APPID
  2
ACAD_DIMASSOC_OVERRIDDEN_D
 70
     0
  0
APPID
  2
ACAD_DSTYLE_DIMTALN
 70
     0
  0
APPID
  2
ACADANNOTATIVE
 70
     0
  0
APPID
  2
HATCHBACKGROUNDCOLOR
 70
     0
  0
ENDTAB
  0
TABLE
  2
DIMSTYLE
 70
    10
  0
DIMSTYLE
  2
AM_ANSI
 70
     0
  3

  4
mm
  5

  6

  7

 40
1.0
 41
0.12
 42
0.05
 43
0.5
 44
0.1
 45
0.0
 46
0.0
 47
0.1
 48
0.1
140
0.12
141
0.0
142
0.0
143
25.3999999999999986
144
1.0
145
0.0
146
0.71
147
0.06
 71
     0
 72
     0
 73
     1
 74
     1
 75
     0
 76
     0
 77
     0
 78
     7
170
     0
171
     2
172
     0
173
     0
174
     0
175
     0
176
   256
177
   256
178
   255
  0
DIMSTYLE
  2
AM_ANSI$3
 70
     0
  3

  4
mm
  5

  6

  7

 40
1.0
 41
0.12
 42
0.05
 43
0.5
 44
0.1
 45
0.0
 46
0.0
 47
0.1
 48
0.1
140
0.12
141
0.0
142
0.0
143
25.3999999999999986
144
1.0
145
0.0
146
0.71
147
0.06
 71
     0
 72
     0
 73
     1
 74
     1
 75
     0
 76
     0
 77
     0
 78
     7
170
     0
171
     2
172
     0
173
     0
174
     0
175
     0
176
   256
177
   256
178
   255
  0
DIMSTYLE
  2
AM_ANSI$4
 70
     0
  3

  4
mm
  5

  6

  7

 40
1.0
 41
0.12
 42
0.05
 43
0.5
 44
0.1
 45
0.0
 46
0.0
 47
0.1
 48
0.1
140
0.12
141
0.0
142
0.0
143
25.3999999999999986
144
1.0
145
0.0
146
0.71
147
0.06
 71
     0
 72
     0
 73
     1
 74
     1
 75
     0
 76
     0
 77
     0
 78
     7
170
     0
171
     2
172
     0
173
     0
174
     0
175
     0
176
   256
177
   256
178
   255
  0
DIMSTYLE
  2
AM_ANSI$7
 70
     0
  3

  4
mm
  5

  6

  7

 40
1.0
 41
0.12
 42
0.05
 43
0.5
 44
0.1
 45
0.0
 46
0.0
 47
0.1
 48
0.1
140
0.12
141
0.0
142
0.0
143
25.3999999999999986
144
1.0
145
0.0
146
0.71
147
0.06
 71
     0
 72
     0
 73
     1
 74
     1
 75
     0
 76
     0
 77
     0
 78
     7
170
     0
171
     2
172
     0
173
     0
174
     0
175
     0
176
   256
177
   256
178
   255
  0
DIMSTYLE
  2
AM_ANSI$SF
 70
     0
  3

  4
mm
  5

  6

  7

 40
1.0
 41
0.12
 42
0.05
 43
0.5
 44
0.1
 45
0.0
 46
0.0
 47
0.1
 48
0.1
140
0.12
141
0.0
142
0.0
143
25.3999999999999986
144
1.0
145
0.0
146
0.71
147
0.06
 71
     0
 72
     0
 73
     1
 74
     1
 75
     1
 76
     1
 77
     0
 78
     7
170
     0
171
     2
172
     0
173
     0
174
     0
175
     0
176
   256
177
   256
178
   255
  0
DIMSTYLE
  2
AM_ANSI$SH
 70
     0
  3

  4
mm
  5

  6
GENAXEH
  7

 40
1.0
 41
0.12
 42
0.05
 43
0.5
 44
0.1
 45
0.0
 46
0.0
 47
0.1
 48
0.1
140
0.12
141
0.0
142
0.0
143
25.3999999999999986
144
1.0
145
0.0
146
0.71
147
0.06
 71
     0
 72
     0
 73
     1
 74
     1
 75
     1
 76
     1
 77
     0
 78
     7
170
     0
171
     2
172
     0
173
     1
174
     0
175
     0
176
   256
177
   256
178
   255
  0
DIMSTYLE
  2
AM_ANSI$0
 70
     0
  3

  4
"
  5

  6

  7

 40
1.0
 41
3.5
 42
1.0
 43
10.0
 44
1.0
 45
0.0
 46
0.0
 47
0.1
 48
0.1
140
3.5
141
0.0
142
0.0
143
0.0393701
144
1.0
145
0.0
146
0.71
147
1.5
 71
     0
 72
     0
 73
     1
 74
     1
 75
     0
 76
     0
 77
     0
 78
     8
170
     0
171
     2
172
     0
173
     0
174
     0
175
     0
176
   256
177
   256
178
     2
  0
DIMSTYLE
  2
LORO
 70
     0
  3

  4

  5

  6

  7

 40
1.0
 41
3.5
 42
1.0
 43
0.38
 44
1.0
 45
0.0
 46
0.0
 47
0.0
 48
0.000000001
140
3.5
141
0.09
142
0.0
143
25.3999999999999986
144
2.0
145
0.0
146
0.5
147
1.5
 71
     0
 72
     0
 73
     0
 74
     0
 75
     0
 76
     0
 77
     1
 78
     8
170
     0
171
     2
172
     1
173
     0
174
     0
175
     0
176
     0
177
     0
178
     1
  0
ENDTAB
  0
ENDSEC
  0
SECTION
  2
BLOCKS
  0
BLOCK
  8
0
  2
$MODEL_SPACE
 70
     0
 10
0.0
 20
0.0
 30
0.0
  3
$MODEL_SPACE
  1

  0
ENDBLK
  5
38
  8
0
  0
BLOCK
 67
     1
  8
0
  2
$PAPER_SPACE
 70
     2
 10
0.0
 20
0.0
 30
0.0
  3
$PAPER_SPACE
  1

  0
ENDBLK
  5
36
 67
     1
  8
0
  0
BLOCK
  8
0
  2
GENAXEH
 70
     0
 10
0.0
 20
0.0
 30
0.0
  3
GENAXEH
  1

  0
LINE
  5
1721
  8
0
 10
-1.0
 20
0.0
 30
0.0
 11
1.0
 21
0.0
 31
0.0
  0
ENDBLK
  5
1723
  8
0
  0
BLOCK
  8
0
  2
*S1
 70
     1
 10
0.0
 20
0.0
 30
0.0
  3
*S1
  1

  0
ENDBLK
  5
2101
  8
0
  0
BLOCK
  8
0
  2
*U2
 70
     1
 10
0.0
 20
0.0
 30
0.0
  3
*U2
  1

  0
ENDBLK
  5
3EBB
  8
0
  0
BLOCK
  8
0
  2
A$CF55B0ACA
 70
     0
 10
0.0
 20
0.0
 30
0.0
  3
A$CF55B0ACA
  1

  0
CIRCLE
  5
22C3D
  8
0
  6
CONTINUOUS
 62
     3
 10
0.0000000000000299
 20
-0.0000000000000079
 30
0.0
 40
34.8999999999999773
  0
CIRCLE
  5
22C3E
  8
0
  6
CONTINUOUS
 62
     3
 10
0.0000000000000433
 20
0.0000000000000401
 30
0.0
 40
39.4500924592585989
  0
CIRCLE
  5
22C3F
  8
0
  6
CONTINUOUS
 62
     3
 10
0.0000000000000431
 20
0.0000000000000396
 30
0.0
 40
38.0
  0
CIRCLE
  5
22C40
  8
0
  6
CONTINUOUS
 62
     3
 10
0.0000000000000408
 20
0.0000000000000312
 30
0.0
 40
42.1000000000000227
  0
CIRCLE
  5
22C41
  8
0
  6
CONTINUOUS
 62
     3
 10
0.0000000000000399
 20
0.0000000000000279
 30
0.0
 40
42.1000932431257269
  0
CIRCLE
  5
22C42
  8
0
  6
CONTINUOUS
 62
     3
 10
0.000000000000249
 20
-0.0000000000000787
 30
0.0
 40
51.0
  0
CIRCLE
  5
22C43
  8
0
  6
VERDECKT
 62
     1
 10
0.0000000000000264
 20
-0.0000000000000603
 30
0.0
 40
37.5980545461168916
  0
CIRCLE
  5
22C44
  8
0
  6
VERDECKT
 62
     1
 10
0.0000000000000265
 20
-0.0000000000000603
 30
0.0
 40
39.0
  0
CIRCLE
  5
22C45
  8
0
  6
VERDECKT
 62
     1
 10
0.0000000000000299
 20
-0.0000000000000079
 30
0.0
 40
36.5
  0
CIRCLE
  5
22C46
  8
0
  6
VERDECKT
 62
     1
 10
0.0000000000000408
 20
0.0000000000000312
 30
0.0
 40
40.4999999999999929
  0
CIRCLE
  5
22C47
  8
0
  6
VERDECKT
 62
     1
 10
0.0000000000000369
 20
0.0000000000000173
 30
0.0
 40
39.6000000000000227
  0
CIRCLE
  5
22C48
  8
0
  6
VERDECKT
 62
     1
 10
0.0000000000000399
 20
0.0000000000000279
 30
0.0
 40
40.5000932431257326
  0
CIRCLE
  5
22C49
  8
0
  6
VERDECKT
 62
     1
 10
0.000000000000249
 20
-0.0000000000000787
 30
0.0
 40
49.0
  0
CIRCLE
  5
22C4A
  8
0
  6
VERDECKT
 62
     1
 10
0.0000000000000264
 20
-0.0000000000001416
 30
0.0
 40
38.2475681826501486
  0
CIRCLE
  5
22C4B
  8
0
  6
VERDECKT
 62
     1
 10
0.0000000000000266
 20
-0.0000000000001416
 30
0.0
 40
40.0000000000035669
  0
CIRCLE
  5
22C4C
  8
0
  6
VERDECKT
 62
     1
 10
0.0000000000002274
 20
-0.0000000000001323
 30
0.0
 40
48.1327239685572223
  0
CIRCLE
  5
22C4D
  8
0
  6
VERDECKT
 62
     1
 10
0.0000000000002274
 20
-0.0000000000001324
 30
0.0
 40
50.125113364740848
  0
ENDBLK
  5
22C4F
  8
0
  0
BLOCK
  8
0
  2
A$C8463A55D
 70
     0
 10
0.0
 20
0.0
 30
0.0
  3
A$C8463A55D
  1

  0
LINE
  5
22C53
  8
0
  6
CONTINUOUS
 62
     3
 10
39.4500924592590891
 20
195.0000000000015064
 30
-0.0000000000000433
 11
-39.4500924592585633
 21
195.0000000000015064
 31
-0.0000000000000433
210
0.0000000000000002
220
1.0
230
-0.0000000000000002
  0
ARC
  5
22C54
  8
0
  6
CONTINUOUS
 62
     3
 10
41.5000000000000924
 20
125.279738373201198
 30
0.0
 40
5.0000000000001128
210
0.0
220
-0.0000000000000002
230
-1.0
 50
180.0000000000003126
 51
208.8107937429086007
  0
ARC
  5
22C55
  8
0
  6
CONTINUOUS
 62
     3
 10
-41.5000000000000071
 20
125.279738373201198
 30
0.0
 40
4.999999999999984
210
0.0
220
-0.0000000000000002
230
-1.0
 50
331.1892062570901771
 51
0.0000000000000109
  0
LINE
  5
22C56
  8
0
  6
CONTINUOUS
 62
     3
 10
37.11892045661412
 20
122.8701446243453006
 30
-0.0000000000000273
 11
38.6974999999998417
 21
120.0
 31
-0.0000000000000266
210
0.0000000000000002
220
1.0
230
-0.0000000000000002
  0
LINE
  5
22C57
  8
0
  6
CONTINUOUS
 62
     3
 10
-37.1189204566140489
 20
122.8701446243453006
 30
-0.0000000000000273
 11
-38.697499999999792
 21
120.0
 31
-0.0000000000000266
210
0.0000000000000002
220
1.0
230
-0.0000000000000002
  0
LINE
  5
22C58
  8
0
  6
CONTINUOUS
 62
     3
 10
36.5000000000000284
 20
134.6934003354328979
 30
-0.0000000000000299
 11
36.5000000000000213
 21
125.279738373201198
 31
-0.0000000000000278
210
0.0000000000000002
220
1.0
230
-0.0000000000000002
  0
LINE
  5
22C59
  8
0
  6
CONTINUOUS
 62
     3
 10
-36.4999999999999716
 20
134.6934003354328979
 30
-0.0000000000000299
 11
-36.4999999999999787
 21
125.279738373201198
 31
-0.0000000000000278
210
0.0000000000000002
220
1.0
230
-0.0000000000000002
  0
ARC
  5
22C5A
  8
0
  6
CONTINUOUS
 62
     3
 10
-44.5000000000006466
 20
134.6934003354307947
 30
0.0
 40
8.0000000000006324
210
0.0
220
-0.0000000000000002
230
-1.0
 50
0.0000000000148704
 51
32.3280641221693728
  0
ARC
  5
22C5B
  8
0
  6
CONTINUOUS
 62
     3
 10
44.5000000000004476
 20
134.6934003354309084
 30
0.0
 40
8.0000000000004903
210
0.0
220
-0.0000000000000002
230
-1.0
 50
147.6719358778308901
 51
179.9999999999855049
  0
ARC
  5
22C5C
  8
0
  6
CONTINUOUS
 62
     3
 10
-27.5999999999989001
 20
145.3887264174169047
 30
0.0
 40
12.00000000000116
210
0.0
220
-0.0000000000000002
230
-1.0
 50
180.0000000000015916
 51
212.3280641221554106
  0
ARC
  5
22C5D
  8
0
  6
CONTINUOUS
 62
     3
 10
27.5999999999986905
 20
145.38872641741699
 30
0.0
 40
12.0000000000013003
210
0.0
220
-0.0000000000000002
230
-1.0
 50
327.6719358778444189
 51
359.9999999999980105
  0
LINE
  5
22C5E
  8
0
  6
CONTINUOUS
 62
     3
 10
-39.5999999999999872
 20
145.3887264174165921
 30
-0.0000000000000323
 11
-39.5999999999999872
 21
166.3300000000025989
 31
-0.0000000000000369
210
0.0000000000000002
220
1.0
230
-0.0000000000000002
  0
LINE
  5
22C5F
  8
0
  6
CONTINUOUS
 62
     3
 10
39.6000000000000512
 20
145.3887264174165921
 30
-0.0000000000000323
 11
39.6000000000000512
 21
166.3300000000025989
 31
-0.0000000000000369
210
0.0000000000000002
220
1.0
230
-0.0000000000000002
  0
ARC
  5
22C60
  8
0
  6
CONTINUOUS
 62
     3
 10
-51.6000000000018488
 20
166.330000000002201
 30
0.0
 40
12.0000000000017994
210
0.0
220
-0.0000000000000002
230
-1.0
 50
0.0000000000015121
 51
21.1831543930283708
  0
ARC
  5
22C61
  8
0
  6
CONTINUOUS
 62
     3
 10
51.6000000000017991
 20
166.330000000002201
 30
0.0
 40
12.0000000000017994
210
0.0
220
-0.0000000000000002
230
-1.0
 50
158.8168456069716115
 51
179.9999999999984936
  0
ARC
  5
22C62
  8
0
  6
CONTINUOUS
 62
     3
 10
-17.0999999999882206
 20
179.7000000000045929
 30
0.0
 40
25.0000932431375489
210
0.0
220
-0.0000000000000002
230
-1.0
 50
179.8435140456656995
 51
201.1831543930327939
  0
ARC
  5
22C63
  8
0
  6
CONTINUOUS
 62
     3
 10
17.0999999999881389
 20
179.7000000000045929
 30
0.0
 40
25.0000932431375489
210
0.0
220
-0.0000000000000002
230
-1.0
 50
338.8168456069672061
 51
0.1564859543342822
  0
LINE
  5
22C64
  8
0
  6
CONTINUOUS
 62
     3
 10
-42.0999999999999872
 20
179.7682800481879042
 30
-0.0000000000000399
 11
-42.0999999999999872
 21
183.7748883740977135
 31
-0.0000000000000408
210
0.0000000000000002
220
1.0
230
-0.0000000000000002
  0
LINE
  5
22C65
  8
0
  6
CONTINUOUS
 62
     3
 10
42.1000000000000583
 20
179.7682800481879042
 30
-0.0000000000000399
 11
42.1000000000000583
 21
183.7748883740977135
 31
-0.0000000000000408
210
0.0000000000000002
220
1.0
230
-0.0000000000000002
  0
ARC
  5
22C66
  8
0
  6
CONTINUOUS
 62
     3
 10
-17.1000000000008896
 20
183.7748883740979124
 30
0.0
 40
24.9999999999991616
210
0.0
220
-0.0000000000000002
230
-1.0
 50
154.9999999999957936
 51
180.0000000000003979
  0
ARC
  5
22C67
  8
0
  6
CONTINUOUS
 62
     3
 10
17.1000000000010992
 20
183.7748883740979977
 30
0.0
 40
24.9999999999988702
210
0.0
220
-0.0000000000000002
230
-1.0
 50
359.9999999999993179
 51
25.0000000000043912
  0
LINE
  5
22C68
  8
0
  6
CONTINUOUS
 62
     3
 10
39.4500924592586628
 20
195.0000000000015064
 30
-0.0000000000000433
 11
39.75769467591563
 21
194.3403449176167044
 31
-0.0000000000000432
210
0.0000000000000002
220
1.0
230
-0.0000000000000002
  0
LINE
  5
22C69
  8
0
  6
CONTINUOUS
 62
     3
 10
-39.4500924592585775
 20
195.0000000000015064
 30
-0.0000000000000433
 11
-39.7576946759155376
 21
194.3403449176167896
 31
-0.0000000000000432
210
0.0000000000000002
220
1.0
230
-0.0000000000000002
  0
LINE
  5
22C6A
  8
0
  6
CONTINUOUS
 62
     3
 10
40.0000000000038867
 20
120.0
 30
-0.0000000000000266
 11
-40.0000000000036096
 21
120.0000000000000995
 31
-0.0000000000000266
210
0.0000000000000002
220
1.0
230
-0.0000000000000002
  0
LINE
  5
22C6B
  8
0
  6
CONTINUOUS
 62
     3
 10
50.1251133647410825
 20
0.0000000000000473
 30
0.0
 11
-50.1251133647406206
 21
0.0000000000000664
 31
0.0
210
0.0000000000000002
220
1.0
230
-0.0000000000000002
  0
ARC
  5
22C6C
  8
0
  6
CONTINUOUS
 62
     3
 10
-41.0000000000002771
 20
97.431432344521923
 30
0.0
 40
9.9999999999999591
210
0.0
220
-0.0000000000000002
230
-1.0
 50
151.1892062570348969
 51
180.0
  0
ARC
  5
22C6D
  8
0
  6
CONTINUOUS
 62
     3
 10
40.9999999999998224
 20
97.4314323445219657
 30
0.0
 40
9.9999999999999272
210
0.0
220
-0.0000000000000002
230
-1.0
 50
359.9999999999997726
 51
28.8107937429646483
  0
LINE
  5
22C6E
  8
0
  6
CONTINUOUS
 62
     3
 10
40.0000000000036025
 20
120.0
 30
-0.0000000000000266
 11
49.7621590867672197
 21
102.2506198422421022
 31
-0.0000000000000227
210
0.0000000000000002
220
1.0
230
-0.0000000000000002
  0
LINE
  5
22C6F
  8
0
  6
CONTINUOUS
 62
     3
 10
-40.0000000000035669
 20
120.0
 30
-0.0000000000000266
 11
-49.7621590867670989
 21
102.2506198422423012
 31
-0.0000000000000227
210
0.0000000000000002
220
1.0
230
-0.0000000000000002
  0
LINE
  5
22C70
  8
0
  6
CONTINUOUS
 62
     3
 10
-50.9999999999997726
 20
10.0436609429100496
 30
-0.0000000000000022
 11
-50.9999999999997513
 21
97.4314323445219657
 31
-0.0000000000000216
210
0.0000000000000002
220
1.0
230
-0.0000000000000002
  0
LINE
  5
22C71
  8
0
  6
CONTINUOUS
 62
     3
 10
51.0000000000002203
 20
10.0436609429100301
 30
-0.0000000000000022
 11
51.0000000000002487
 21
97.431432344521923
 31
-0.0000000000000216
210
0.0000000000000002
220
1.0
230
-0.0000000000000002
  0
ARC
  5
22C72
  8
0
  6
CONTINUOUS
 62
     3
 10
-49.9999999999995666
 20
10.0436609429100194
 30
0.0
 40
1.0000000000006599
210
0.0
220
-0.0000000000000002
230
-1.0
 50
179.9999999999994884
 51
184.9999999999961062
  0
ARC
  5
22C73
  8
0
  6
CONTINUOUS
 62
     3
 10
49.9999999999991118
 20
10.0436609429100407
 30
0.0
 40
1.0000000000006599
210
0.0
220
-0.0000000000000002
230
-1.0
 50
355.0000000000038085
 51
0.0000000000005325
  0
LINE
  5
22C74
  8
0
  6
CONTINUOUS
 62
     3
 10
-50.1251133647406206
 20
0.0000000000000664
 30
0.0
 11
-50.9961946980915215
 21
9.9565052001623897
 31
-0.0000000000000022
210
0.0000000000000002
220
1.0
230
-0.0000000000000002
  0
LINE
  5
22C75
  8
0
  6
CONTINUOUS
 62
     3
 10
50.1251133647410825
 20
0.0000000000000473
 30
0.0
 11
50.9961946980919834
 21
9.9565052001623702
 31
-0.0000000000000022
210
0.0000000000000002
220
1.0
230
-0.0000000000000002
  0
LINE
  5
22C76
  8
0
  6
VERDECKT
 62
     1
 10
-37.5980545461168134
 20
118.6789300003648009
 30
-0.0000000000000264
 11
37.5980545461168489
 21
118.6789300003649004
 31
-0.0000000000000264
210
0.0000000000000002
220
1.0
230
-0.0000000000000002
  0
LINE
  5
22C77
  8
0
  6
VERDECKT
 62
     1
 10
-38.9999999999999787
 20
119.4499999999981981
 30
-0.0000000000000265
 11
39.0000000000000213
 21
119.4499999999981981
 31
-0.0000000000000265
210
0.0000000000000002
220
1.0
230
-0.0000000000000002
  0
LINE
  5
22C78
  8
0
  6
VERDECKT
 62
     1
 10
38.0000000000000426
 20
194.3238107812163094
 30
-0.0000000000000431
 11
-37.9999999999999716
 21
194.3238107812163094
 31
-0.0000000000000431
210
0.0000000000000002
220
1.0
230
-0.0000000000000002
  0
ARC
  5
22C79
  8
0
  6
VERDECKT
 62
     1
 10
41.4999999999999005
 20
125.279738373201198
 30
0.0
 40
6.5999999999999508
210
0.0
220
-0.0000000000000002
230
-1.0
 50
179.9999999999998863
 51
208.8107937429180083
  0
ARC
  5
22C7A
  8
0
  6
VERDECKT
 62
     1
 10
-41.4999999999999503
 20
125.279738373201198
 30
0.0
 40
6.5999999999999472
210
0.0
220
-0.0000000000000002
230
-1.0
 50
331.1892062570819917
 51
0.0000000000001254
  0
LINE
  5
22C7B
  8
0
  6
VERDECKT
 62
     1
 10
35.7169750027310613
 20
122.099074624710596
 30
-0.0000000000000271
 11
37.5980545461168916
 21
118.6789300003649004
 31
-0.0000000000000264
210
0.0000000000000002
220
1.0
230
-0.0000000000000002
  0
LINE
  5
22C7C
  8
0
  6
VERDECKT
 62
     1
 10
-35.7169750027310187
 20
122.099074624710596
 30
-0.0000000000000271
 11
-37.5980545461168703
 21
118.6789300003649004
 31
-0.0000000000000264
210
0.0000000000000002
220
1.0
230
-0.0000000000000002
  0
LINE
  5
22C7D
  8
0
  6
VERDECKT
 62
     1
 10
34.9000000000000128
 20
134.6934003354328979
 30
-0.0000000000000299
 11
34.8999999999999986
 21
125.279738373201198
 31
-0.0000000000000278
210
0.0000000000000002
220
1.0
230
-0.0000000000000002
  0
LINE
  5
22C7E
  8
0
  6
VERDECKT
 62
     1
 10
-34.8999999999999488
 20
134.6934003354328979
 30
-0.0000000000000299
 11
-34.8999999999999631
 21
125.279738373201198
 31
-0.0000000000000278
210
0.0000000000000002
220
1.0
230
-0.0000000000000002
  0
LINE
  5
22C7F
  8
0
  6
VERDECKT
 62
     1
 10
38.6974999999998417
 20
120.0
 30
-0.0000000000000266
 11
39.0000000000000213
 21
119.4499999999981981
 31
-0.0000000000000265
210
0.0000000000000002
220
1.0
230
-0.0000000000000002
  0
LINE
  5
22C80
  8
0
  6
VERDECKT
 62
     1
 10
-38.697499999999792
 20
120.0
 30
-0.0000000000000266
 11
-38.9999999999999787
 21
119.4499999999982975
 31
-0.0000000000000265
210
0.0000000000000002
220
1.0
230
-0.0000000000000002
  0
LINE
  5
22C81
  8
0
  6
VERDECKT
 62
     1
 10
-37.5980545461168703
 20
118.6789300003649004
 30
-0.0000000000000264
 11
-38.9999999999999787
 21
119.4499999999982975
 31
-0.0000000000000265
210
0.0000000000000002
220
1.0
230
-0.0000000000000002
  0
LINE
  5
22C82
  8
0
  6
VERDECKT
 62
     1
 10
37.5980545461168703
 20
118.6789300003648009
 30
-0.0000000000000264
 11
39.0000000000000213
 21
119.4499999999981981
 31
-0.0000000000000265
210
0.0000000000000002
220
1.0
230
-0.0000000000000002
  0
LINE
  5
22C83
  8
0
  6
VERDECKT
 62
     1
 10
-37.9999999999999716
 20
194.3238107812161957
 30
-0.0000000000000431
 11
-39.4500924592585704
 21
195.0000000000015064
 31
-0.0000000000000433
210
0.0000000000000002
220
1.0
230
-0.0000000000000002
  0
LINE
  5
22C84
  8
0
  6
VERDECKT
 62
     1
 10
38.0000000000000426
 20
194.3238107812161957
 30
-0.0000000000000431
 11
39.450092459258741
 21
195.0000000000015064
 31
-0.0000000000000433
210
0.0000000000000002
220
1.0
230
-0.0000000000000002
  0
LINE
  5
22C85
  8
0
  6
VERDECKT
 62
     1
 10
38.0000000000000426
 20
194.3238107812163094
 30
-0.0000000000000431
 11
38.3076022166570027
 21
193.6641556988315074
 31
-0.000000000000043
210
0.0000000000000002
220
1.0
230
-0.0000000000000002
  0
LINE
  5
22C86
  8
0
  6
VERDECKT
 62
     1
 10
-37.9999999999999716
 20
194.3238107812163094
 30
-0.0000000000000431
 11
-38.3076022166569317
 21
193.6641556988315074
 31
-0.000000000000043
210
0.0000000000000002
220
1.0
230
-0.0000000000000002
  0
ARC
  5
22C87
  8
0
  6
VERDECKT
 62
     1
 10
-17.0999999999992482
 20
183.7748883740974861
 30
0.0
 40
23.4000000000007802
210
0.0
220
-0.0000000000000002
230
-1.0
 50
154.9999999999965894
 51
179.9999999999996021
  0
ARC
  5
22C88
  8
0
  6
VERDECKT
 62
     1
 10
17.0999999999991807
 20
183.7748883740974861
 30
0.0
 40
23.4000000000007802
210
0.0
220
-0.0000000000000002
230
-1.0
 50
0.0000000000003671
 51
25.0000000000033715
  0
LINE
  5
22C89
  8
0
  6
VERDECKT
 62
     1
 10
-40.4999999999999574
 20
179.7660589659267885
 30
-0.0000000000000399
 11
-40.4999999999999574
 21
183.7748883740975998
 31
-0.0000000000000408
210
0.0000000000000002
220
1.0
230
-0.0000000000000002
  0
LINE
  5
22C8A
  8
0
  6
VERDECKT
 62
     1
 10
40.5000000000000284
 20
179.7660589659267885
 30
-0.0000000000000399
 11
40.5000000000000284
 21
183.7748883740975998
 31
-0.0000000000000408
210
0.0000000000000002
220
1.0
230
-0.0000000000000002
  0
ARC
  5
22C8B
  8
0
  6
VERDECKT
 62
     1
 10
-17.0999999999914714
 20
179.700000000004394
 30
0.0
 40
23.4000932431343003
210
0.0
220
-0.0000000000000002
230
-1.0
 50
179.8382525687268014
 51
201.1831543930335897
  0
ARC
  5
22C8C
  8
0
  6
VERDECKT
 62
     1
 10
17.0999999999910308
 20
179.7000000000045077
 30
0.0
 40
23.4000932431346698
210
0.0
220
-0.0000000000000002
230
-1.0
 50
338.8168456069664103
 51
0.1617474312730362
  0
ARC
  5
22C8D
  8
0
  6
VERDECKT
 62
     1
 10
-51.5999999999999304
 20
166.3300000000031957
 30
0.0
 40
13.5999999999997794
210
0.0
220
-0.0000000000000002
230
-1.0
 50
359.9999999999993747
 51
21.1831543930307404
  0
ARC
  5
22C8E
  8
0
  6
VERDECKT
 62
     1
 10
51.5999999999998309
 20
166.3300000000031957
 30
0.0
 40
13.5999999999997492
210
0.0
220
-0.0000000000000002
230
-1.0
 50
158.8168456069691956
 51
180.0000000000003979
  0
LINE
  5
22C8F
  8
0
  6
VERDECKT
 62
     1
 10
-38.0000000000000924
 20
145.3887264174186953
 30
-0.0000000000000323
 11
-38.0000000000000924
 21
166.3300000000031105
 31
-0.0000000000000369
210
0.0000000000000002
220
1.0
230
-0.0000000000000002
  0
LINE
  5
22C90
  8
0
  6
VERDECKT
 62
     1
 10
38.0000000000001421
 20
145.3887264174186953
 30
-0.0000000000000323
 11
38.0000000000001421
 21
166.3300000000031105
 31
-0.0000000000000369
210
0.0000000000000002
220
1.0
230
-0.0000000000000002
  0
ARC
  5
22C91
  8
0
  6
VERDECKT
 62
     1
 10
-27.600000000000211
 20
145.3887264174184111
 30
0.0
 40
10.3999999999998103
210
0.0
220
-0.0000000000000002
230
-1.0
 50
179.9999999999984084
 51
212.3280641221618055
  0
ARC
  5
22C92
  8
0
  6
VERDECKT
 62
     1
 10
27.5999999999999091
 20
145.3887264174184963
 30
0.0
 40
10.4000000000000608
210
0.0
220
-0.0000000000000002
230
-1.0
 50
327.671935877838223
 51
0.0000000000012577
  0
ARC
  5
22C93
  8
0
  6
VERDECKT
 62
     1
 10
-44.5000000000005329
 20
134.6934003354328127
 30
0.0
 40
9.6000000000005254
210
0.0
220
-0.0000000000000002
230
-1.0
 50
0.0000000000008633
 51
32.32806412216231
  0
ARC
  5
22C94
  8
0
  6
VERDECKT
 62
     1
 10
44.5000000000005116
 20
134.693400335432699
 30
0.0
 40
9.6000000000005716
210
0.0
220
-0.0000000000000002
230
-1.0
 50
147.6719358778379956
 51
179.9999999999988916
  0
LINE
  5
22C95
  8
0
  6
VERDECKT
 62
     1
 10
38.247568182649978
 20
119.0361625004559016
 30
-0.0000000000000264
 11
-38.2475681826501628
 21
119.0361625004560011
 31
-0.0000000000000264
210
0.0000000000000002
220
1.0
230
-0.0000000000000002
  0
LINE
  5
22C96
  8
0
  6
VERDECKT
 62
     1
 10
48.1327239685574568
 20
0.1743114854953569
 30
0.0
 11
-48.1327239685570021
 21
0.1743114854953752
 31
0.0
210
0.0000000000000002
220
1.0
230
-0.0000000000000002
  0
ARC
  5
22C97
  8
0
  6
VERDECKT
 62
     1
 10
-41.0000000000002132
 20
97.4314323445218946
 30
0.0
 40
8.0000000000000249
210
0.0
220
-0.0000000000000002
230
-1.0
 50
151.1892062570350106
 51
180.0
  0
ARC
  5
22C98
  8
0
  6
VERDECKT
 62
     1
 10
40.9999999999996021
 20
97.4314323445218946
 30
0.0
 40
8.0000000000001492
210
0.0
220
-0.0000000000000002
230
-1.0
 50
0.0000000000003162
 51
28.8107937429647016
  0
LINE
  5
22C99
  8
0
  6
VERDECKT
 62
     1
 10
38.247568182650177
 20
119.0361625004559016
 30
-0.0000000000000264
 11
48.0097272694137871
 21
101.2867823426980038
 31
-0.0000000000000225
210
0.0000000000000002
220
1.0
230
-0.0000000000000002
  0
LINE
  5
22C9A
  8
0
  6
VERDECKT
 62
     1
 10
-38.2475681826501415
 20
119.0361625004560011
 30
-0.0000000000000264
 11
-48.0097272694136521
 21
101.2867823426982028
 31
-0.0000000000000225
210
0.0000000000000002
220
1.0
230
-0.0000000000000002
  0
LINE
  5
22C9B
  8
0
  6
VERDECKT
 62
     1
 10
-48.9999999999997726
 20
10.1309828287243793
 30
-0.0000000000000022
 11
-48.9999999999997513
 21
97.431432344521923
 31
-0.0000000000000216
210
0.0000000000000002
220
1.0
230
-0.0000000000000002
  0
LINE
  5
22C9C
  8
0
  6
VERDECKT
 62
     1
 10
49.0000000000002274
 20
10.1309828287243597
 30
-0.0000000000000022
 11
49.0000000000002487
 21
97.4314323445218946
 31
-0.0000000000000216
210
0.0000000000000002
220
1.0
230
-0.0000000000000002
  0
LINE
  5
22C9D
  8
0
  6
VERDECKT
 62
     1
 10
-38.2475681826501486
 20
119.0361625004560011
 30
-0.0000000000000264
 11
-40.0000000000036025
 21
120.0000000000000995
 31
-0.0000000000000266
210
0.0000000000000002
220
1.0
230
-0.0000000000000002
  0
LINE
  5
22C9E
  8
0
  6
VERDECKT
 62
     1
 10
38.247568182650177
 20
119.0361625004559016
 30
-0.0000000000000264
 11
40.0000000000036025
 21
120.0
 31
-0.0000000000000266
210
0.0000000000000002
220
1.0
230
-0.0000000000000002
  0
ARC
  5
22C9F
  8
0
  6
VERDECKT
 62
     1
 10
-47.9999999999995666
 20
10.1309828287243509
 30
0.0
 40
1.0000000000006599
210
0.0
220
-0.0000000000000002
230
-1.0
 50
179.9999999999994884
 51
184.9999999999961062
  0
ARC
  5
22CA0
  8
0
  6
VERDECKT
 62
     1
 10
47.9999999999991118
 20
10.1309828287243704
 30
0.0
 40
1.0000000000006599
210
0.0
220
-0.0000000000000002
230
-1.0
 50
355.0000000000038085
 51
0.0000000000005325
  0
LINE
  5
22CA1
  8
0
  6
VERDECKT
 62
     1
 10
-48.1327239685570021
 20
0.1743114854953752
 30
0.0
 11
-48.9961946980915215
 21
10.0438270859767194
 31
-0.0000000000000022
210
0.0000000000000002
220
1.0
230
-0.0000000000000002
  0
LINE
  5
22CA2
  8
0
  6
VERDECKT
 62
     1
 10
48.1327239685574568
 20
0.1743114854953569
 30
0.0
 11
48.9961946980919834
 21
10.0438270859766998
 31
-0.0000000000000022
210
0.0000000000000002
220
1.0
230
-0.0000000000000002
  0
LINE
  5
22CA3
  8
0
  6
VERDECKT
 62
     1
 10
48.1327239685574568
 20
0.1743114854953569
 30
0.0
 11
50.1251133647410825
 21
0.0000000000000473
 31
0.0
210
0.0000000000000002
220
1.0
230
-0.0000000000000002
  0
LINE
  5
22CA4
  8
0
  6
VERDECKT
 62
     1
 10
-48.1327239685570021
 20
0.1743114854953752
 30
0.0
 11
-50.1251133647406206
 21
0.0000000000000663
 31
0.0
210
0.0000000000000002
220
1.0
230
-0.0000000000000002
  0
ENDBLK
  5
22CA6
  8
0
  0
ENDSEC
  0
SECTION
  2
ENTITIES
  0
TEXT
  5
5DDE
  8
VOLL
 10
78.076754716981128
 20
31.025947764705851
 30
0.0
 40
1.8
  1

  7
GREEKS
  0
INSERT
  5
5DDF
  8
ADSK_ASSOC_ENTITY_BACKUPS
  2
*S1
 10
0.0
 20
0.0
 30
0.0
  0
INSERT
  5
22C50
  8
STEMPEL
  2
A$CF55B0ACA
 10
0.0000000000000426
 20
-100.0
 30
0.0
  0
INSERT
  5
22CA7
  8
STEMPEL
  2
A$C8463A55D
 10
0.0
 20
0.0
 30
0.0
 50
0.0000000000000223
  0
VIEWPORT
  5
1571
 67
     1
  8
0
 10
70.52779912241283
 20
226.6249998389344
 30
0.0
 40
101.8291660849961033
 41
54.0270621153514981
 68
     1
 69
     1
1001
ACAD
1000
MVIEW
1002
{
1070
    16
1010
0.0
1020
0.0
1030
0.0
1010
0.0
1020
0.0
1030
1.0
1040
0.0
1040
54.0270621153514981
1040
70.52779912241283
1040
226.6249998389344
1040
50.0
1040
0.0
1040
0.0
1070
     0
1070
  1500
1070
     1
1070
     1
1070
     0
1070
     0
1070
     0
1070
     0
1040
0.0
1040
0.0
1040
0.0
1040
10.0
1040
10.0
1040
10.0
1040
10.0
1070
     0
1002
{
1002
}
1002
}
1001
GENIUS_GENOBJ-N-SDF_13
1002
{
1000
OWNER
1000
GEN
1002
}
1001
GENIUS_GENODEF_13
1002
{
1000
HIER
1070
     0
1002
}
1002
{
1000
MANEDIT
1070
     0
1002
}
1002
{
1000
NOSEL
1070
     0
1002
}
1002
{
1000
BEHIND
1070
     0
1002
}
1002
{
1000
OTHER
1070
     0
1002
}
1002
{
1000
REACTOR
1002
}
1001
GENIUS_GENSCREG_15
1000
PF
1040
1.0
1000
DF
1040
1.0
1000
MIN
1011
-98.3237311841076007
1021
0.0
1031
0.0
1021
-84.5929851452383446
1031
0.0
1000
MAX
1011
756.7695330154733711
1021
0.0
1031
0.0
1021
339.8977580961391141
1031
0.0
1000
FLAGS
1070
     4
  0
CIRCLE
  5
22304
 67
     1
  8
INDEX
 62
   150
 10
61.0000000000011795
 20
202.2499999999996874
 30
-0.0000000000000004
 40
2.5
  0
TEXT
  5
22305
 67
     1
  8
INDEX
 62
   150
 10
62.5000000000011795
 20
201.3357142857140047
 30
-0.0000000000000004
 40
3.0
  1
A
 50
90.0
 41
0.8
 72
     4
 11
61.0000000000011795
 21
202.2499999999996874
 31
-0.0000000000000004
  0
CIRCLE
  5
22306
 67
     1
  8
INDEX
 62
   150
 10
60.5833333333346076
 20
251.000000000000199
 30
-0.0000000000000004
 40
2.5
  0
TEXT
  5
22307
 67
     1
  8
INDEX
 62
   150
 10
62.0833333333346076
 20
250.0857142857144879
 30
-0.0000000000000004
 40
3.0
  1
A
 50
90.0
 41
0.8
 72
     4
 11
60.5833333333346076
 21
251.000000000000199
 31
-0.0000000000000004
  0
CIRCLE
  5
2230C
 67
     1
  8
INDEX
 62
   150
 10
80.4722650584422041
 20
206.3979072925579885
 30
0.0
 40
2.5
  0
TEXT
  5
2230D
 67
     1
  8
INDEX
 62
   150
 10
81.9722650584421757
 20
205.4836215782723059
 30
0.0
 40
3.0
  1
A
 50
90.0
 41
0.8
 72
     4
 11
80.4722650584422041
 21
206.3979072925579885
 31
0.0
  0
ENDSEC
  0
EOF
