  0
SECTION
  2
HEADER
  9
$ACADVER
  1
AC1009
  9
$INSBASE
 10
0.0
 20
0.0
 30
0.0
  9
$EXTMIN
 10
-26.5072168565907305
 20
-31.5165958485675901
 30
-0.0041284461036071
  9
$EXTMAX
 10
65.009506607439107
 20
196.5829944316990918
 30
0.0061932991541198
  9
$LIMMIN
 10
0.0
 20
0.0
  9
$LIMMAX
 10
210.0
 20
297.0
  9
$ORTHOMODE
 70
     1
  9
$REGENMODE
 70
     1
  9
$FILLMODE
 70
     1
  9
$QTEXTMODE
 70
     0
  9
$MIRRTEXT
 70
     1
  9
$DRAGMODE
 70
     2
  9
$LTSCALE
 40
10.0
  9
$OSMODE
 70
  1327
  9
$ATTMODE
 70
     1
  9
$TEXTSIZE
 40
3.5
  9
$TRACEWID
 40
0.5
  9
$TEXTSTYLE
  7
STANDARD
  9
$CLAYER
  8
0
  9
$CELTYPE
  6
BYLAYER
  9
$CECOLOR
 62
   256
  9
$DIMSCALE
 40
1.0
  9
$DIMASZ
 40
3.5
  9
$DIMEXO
 40
1.0
  9
$DIMDLI
 40
7.0
  9
$DIMRND
 40
0.0
  9
$DIMDLE
 40
0.0
  9
$DIMEXE
 40
1.0
  9
$DIMTP
 40
0.0
  9
$DIMTM
 40
0.0
  9
$DIMTXT
 40
3.5
  9
$DIMCEN
 40
1.5
  9
$DIMTSZ
 40
0.0
  9
$DIMTOL
 70
     0
  9
$DIMLIM
 70
     0
  9
$DIMTIH
 70
     0
  9
$DIMTOH
 70
     0
  9
$DIMSE1
 70
     0
  9
$DIMSE2
 70
     0
  9
$DIMTAD
 70
     1
  9
$DIMZIN
 70
     8
  9
$DIMBLK
  1

  9
$DIMASO
 70
     1
  9
$DIMSHO
 70
     0
  9
$DIMPOST
  1

  9
$DIMAPOST
  1

  9
$DIMALT
 70
     0
  9
$DIMALTD
 70
     2
  9
$DIMALTF
 40
25.3999999999999986
  9
$DIMLFAC
 40
1.0
  9
$DIMTOFL
 70
     1
  9
$DIMTVP
 40
0.0
  9
$DIMTIX
 70
     0
  9
$DIMSOXD
 70
     0
  9
$DIMSAH
 70
     0
  9
$DIMBLK1
  1

  9
$DIMBLK2
  1

  9
$DIMSTYLE
  2
STANDARD
  9
$DIMCLRD
 70
     0
  9
$DIMCLRE
 70
     0
  9
$DIMCLRT
 70
     1
  9
$DIMTFAC
 40
0.5142857142857143
  9
$DIMGAP
 40
1.5
  9
$LUNITS
 70
     2
  9
$LUPREC
 70
     2
  9
$SKETCHINC
 40
1.0
  9
$FILLETRAD
 40
0.0
  9
$AUNITS
 70
     0
  9
$AUPREC
 70
     0
  9
$MENU
  1
ACAD
  9
$ELEVATION
 40
0.0
  9
$PELEVATION
 40
0.0
  9
$THICKNESS
 40
0.0
  9
$LIMCHECK
 70
     0
  9
$BLIPMODE
 70
     0
  9
$CHAMFERA
 40
0.0
  9
$CHAMFERB
 40
0.0
  9
$SKPOLY
 70
     0
  9
$TDCREATE
 40
2455397.8646990740671754
  9
$TDUPDATE
 40
2458387.4966203710064292
  9
$TDINDWG
 40
0.0639216898
  9
$TDUSRTIMER
 40
0.0639216898
  9
$USRTIMER
 70
     1
  9
$ANGBASE
 50
0.0
  9
$ANGDIR
 70
     0
  9
$PDMODE
 70
     0
  9
$PDSIZE
 40
0.0
  9
$PLINEWID
 40
0.0
  9
$COORDS
 70
     1
  9
$SPLFRAME
 70
     0
  9
$SPLINETYPE
 70
     6
  9
$SPLINESEGS
 70
     8
  9
$ATTDIA
 70
     0
  9
$ATTREQ
 70
     0
  9
$HANDLING
 70
     1
  9
$HANDSEED
  5
DFC
  9
$SURFTAB1
 70
     6
  9
$SURFTAB2
 70
     6
  9
$SURFTYPE
 70
     6
  9
$SURFU
 70
     6
  9
$SURFV
 70
     6
  9
$UCSNAME
  2

  9
$UCSORG
 10
0.0
 20
0.0
 30
0.0
  9
$UCSXDIR
 10
1.0
 20
0.0
 30
0.0
  9
$UCSYDIR
 10
0.0
 20
1.0
 30
0.0
  9
$PUCSNAME
  2

  9
$PUCSORG
 10
0.0
 20
0.0
 30
0.0
  9
$PUCSXDIR
 10
1.0
 20
0.0
 30
0.0
  9
$PUCSYDIR
 10
0.0
 20
1.0
 30
0.0
  9
$USERI1
 70
     0
  9
$USERI2
 70
     0
  9
$USERI3
 70
     0
  9
$USERI4
 70
     0
  9
$USERI5
 70
     0
  9
$USERR1
 40
0.0
  9
$USERR2
 40
0.0
  9
$USERR3
 40
0.0
  9
$USERR4
 40
0.0
  9
$USERR5
 40
0.0
  9
$WORLDVIEW
 70
     1
  9
$SHADEDGE
 70
     3
  9
$SHADEDIF
 70
    70
  9
$TILEMODE
 70
     1
  9
$MAXACTVP
 70
    16
  9
$PLIMCHECK
 70
     0
  9
$PEXTMIN
 10
-0.1167375554756163
 20
-0.1455257278359774
 30
0.0
  9
$PEXTMAX
 10
5.3445999787947471
 20
7.2515576258316328
 30
0.0
  9
$PLIMMIN
 10
-0.2500002402958907
 20
-0.2499999962453767
  9
$PLIMMAX
 10
10.7499995194082203
 20
8.2499997634587334
  9
$UNITMODE
 70
     0
  9
$VISRETAIN
 70
     0
  9
$PLINEGEN
 70
     0
  9
$PSLTSCALE
 70
     0
  0
ENDSEC
  0
SECTION
  2
TABLES
  0
TABLE
  2
VPORT
 70
     1
  0
VPORT
  2
*ACTIVE
 70
     0
 10
0.0
 20
0.0
 11
1.0
 21
1.0
 12
0.0011441479225596
 22
32.5331998382806376
 13
0.0
 23
0.0
 14
1.0
 24
1.0
 15
10.0
 25
10.0
 16
-0.0000000000001279
 26
0.0
 36
583.8120287733227087
 17
19.2500007275016287
 27
49.9999994532851417
 37
65.7499999999999289
 40
229.8060710055555091
 41
1.8514357053682891
 42
50.0
 43
0.0
 44
0.0
 50
0.0
 51
0.0
 71
     0
 72
  1500
 73
     1
 74
     0
 75
     0
 76
     0
 77
     0
 78
     0
  0
ENDTAB
  0
TABLE
  2
LTYPE
 70
     4
  0
LTYPE
  2
CONTINUOUS
 70
     0
  3
Solid line
 72
    65
 73
     0
 40
0.0
  0
LTYPE
  2
AUSGEZOGEN
 70
     0
  3
Ausgezogene Linie
 72
    65
 73
     0
 40
0.0
  0
LTYPE
  2
VERDECKT
 70
     0
  3
Verdeckt __ __ __ __ __ __ __ __ __ __ __ __ __
 72
    65
 73
     2
 40
0.375
 49
0.25
 49
-0.125
  0
ENDTAB
  0
TABLE
  2
LAYER
 70
    10
  0
LAYER
  2
0
 70
     0
 62
     7
  6
CONTINUOUS
  0
LAYER
  2
VOLL
 70
     0
 62
     1
  6
CONTINUOUS
  0
LAYER
  2
BEM
 70
     0
 62
     7
  6
CONTINUOUS
  0
LAYER
  2
TEXT
 70
     0
 62
     7
  6
CONTINUOUS
  0
LAYER
  2
DEFPOINTS
 70
     0
 62
     7
  6
AUSGEZOGEN
  0
ENDTAB
  0
TABLE
  2
STYLE
 70
     3
  0
STYLE
  2
STANDARD
 70
     0
 40
0.0
 41
0.8
 50
0.0
 71
     0
 42
3.5
  3
simplex.shx
  4

  0
STYLE
  2
GREEKS
 70
     0
 40
0.0
 41
0.8
 50
0.0
 71
     0
 42
2.5
  3
SIMPLEX.shx
  4

  0
ENDTAB
  0
TABLE
  2
VIEW
 70
     2
  0
ENDTAB
  0
TABLE
  2
UCS
 70
     0
  0
ENDTAB
  0
TABLE
  2
APPID
 70
     8
  0
APPID
  2
ACAD
 70
     0
  0
APPID
  2
ACAECLAYERSTANDARD
 70
     0
  0
APPID
  2
ACCMTRANSPARENCY
 70
     0
  0
APPID
  2
ACAD_NAV_VCDISPLAY
 70
     0
  0
APPID
  2
ACAD_PSEXT
 70
     0
  0
APPID
  2
ACAD_MLEADERVER
 70
     0
  0
APPID
  2
ACAD_OBJECT_CHANGE_GUID
 70
     0
  0
APPID
  2
ACAD_EXEMPT_FROM_CAD_STANDARDS
 70
     0
  0
ENDTAB
  0
TABLE
  2
DIMSTYLE
 70
     1
  0
DIMSTYLE
  2
STANDARD
 70
     0
  3

  4

  5

  6

  7

 40
1.0
 41
0.18
 42
0.0625
 43
0.38
 44
0.18
 45
0.0
 46
0.0
 47
0.0
 48
0.0
140
0.18
141
0.09
142
0.0
143
25.3999999999999986
144
1.0
145
0.0
146
1.0
147
0.09
 71
     0
 72
     0
 73
     1
 74
     1
 75
     0
 76
     0
 77
     0
 78
     0
170
     0
171
     2
172
     0
173
     0
174
     0
175
     0
176
     0
177
     0
178
     0
  0
ENDTAB
  0
ENDSEC
  0
SECTION
  2
BLOCKS
  0
BLOCK
  8
0
  2
$MODEL_SPACE
 70
     0
 10
0.0
 20
0.0
 30
0.0
  3
$MODEL_SPACE
  1

  0
ENDBLK
  5
36
  8
0
  0
BLOCK
 67
     1
  8
0
  2
$PAPER_SPACE
 70
     0
 10
0.0
 20
0.0
 30
0.0
  3
$PAPER_SPACE
  1

  0
ENDBLK
  5
34
 67
     1
  8
0
  0
BLOCK
  8
0
  2
A$C2920467B
 70
     0
 10
0.0
 20
0.0
 30
0.0
  3
A$C2920467B
  1

  0
LINE
  5
D60
  8
0
  6
CONTINUOUS
 62
     3
 10
23.5312790625745301
 20
-55.94282803865039
 30
0.0000000000000142
 11
23.5312790625745301
 21
-29.4428280386503403
 31
0.0000000000000142
  0
LINE
  5
D61
  8
0
  6
CONTINUOUS
 62
     3
 10
23.5312790625745407
 20
-29.4428280386503403
 30
0.0000000000000142
 11
23.5312790625745798
 21
-2.9428280386502941
 31
0.0000000000000142
  0
LINE
  5
D62
  8
0
  6
CONTINUOUS
 62
     3
 10
52.031279062574697
 20
-59.0491811885869495
 30
0.0000000000000142
 11
52.0312790625745833
 21
-29.4428280386503403
 31
0.0
  0
LINE
  5
D63
  8
0
  6
CONTINUOUS
 62
     3
 10
52.0312790625745833
 20
-29.4428280386503403
 30
0.0
 11
52.031279062574697
 21
0.1635251112862583
 31
0.0000000000000142
  0
LINE
  5
D64
  8
0
  6
CONTINUOUS
 62
     3
 10
23.5312790625745798
 20
-2.9428280386502901
 30
0.0000000000000142
 11
23.5407479226615699
 21
-2.9428280386502901
 31
0.0000000000000142
  0
LINE
  5
D65
  8
0
  6
CONTINUOUS
 62
     3
 10
23.5312790625745798
 20
-55.9428280386503971
 30
0.0000000000000142
 11
23.5407479226615699
 21
-55.9428280386503971
 31
0.0000000000000142
  0
ARC
  5
D66
  8
0
  6
CONTINUOUS
 62
     3
 10
23.5407479226617014
 20
-57.9428280386503118
 30
0.0000000000000142
 40
1.999999999999907
 50
54.5689596985310317
 51
90.0000000000036522
  0
ARC
  5
D67
  8
0
  6
CONTINUOUS
 62
     3
 10
23.5407479226617014
 20
-0.9428280386503828
 30
0.0000000000000142
 40
1.9999999999999041
 50
269.9999999999964189
 51
305.4310403014688973
  0
ARC
  5
D68
  8
0
  6
CONTINUOUS
 62
     3
 10
39.193279062574149
 20
-35.9428280386514416
 30
0.0000000000000142
 40
25.0000320571270116
 50
234.568959698529909
 51
270.0917549916209737
  0
ARC
  5
D69
  8
0
  6
CONTINUOUS
 62
     3
 10
39.193279062574149
 20
-22.9428280386492887
 30
0.0000000000000142
 40
25.00003205712704
 50
89.9082450083789695
 51
125.4310403014701052
  0
LINE
  5
D6A
  8
0
  6
CONTINUOUS
 62
     3
 10
39.233314764522099
 20
2.0571719613496811
 30
0.0000000000000142
 11
43.6487777199137597
 21
2.0571719613496811
 31
0.0000000000000152
  0
LINE
  5
D6B
  8
0
  6
CONTINUOUS
 62
     3
 10
39.233314764522099
 20
-60.9428280386503829
 30
0.0000000000000142
 11
43.6487777199137597
 21
-60.9428280386503829
 31
0.0000000000000152
  0
ARC
  5
D6C
  8
0
  6
CONTINUOUS
 62
     3
 10
43.6487777199133973
 20
-41.4428280386498926
 30
0.0000000000000142
 40
19.5000000000004512
 50
270.0000000000010232
 51
295.4594285688202717
  0
ARC
  5
D6D
  8
0
  6
CONTINUOUS
 62
     3
 10
43.6487777199133831
 20
-17.44282803865093
 30
0.0000000000000142
 40
19.5000000000005791
 50
64.5405714311798988
 51
89.9999999999988773
  0
ARC
  5
D6E
  8
0
  6
CONTINUOUS
 62
     3
 10
-12.9687209374254309
 20
-29.4428280386503403
 30
0.0
 40
26.5000000000000213
 50
90.0
 51
270.0
  0
LINE
  5
D6F
  8
0
  6
CONTINUOUS
 62
     3
 10
23.5312790625745798
 20
-2.9428280386503469
 30
0.0000000000000142
 11
23.5312790625745798
 21
-55.9428280386503403
 31
0.0000000000000142
  0
LINE
  5
D70
  8
0
  6
CONTINUOUS
 62
     3
 10
-12.9687209374254309
 20
-55.9428280386503403
 30
0.0
 11
23.5312790625745905
 21
-55.9428280386503403
 31
0.0000000000000142
  0
LINE
  5
D71
  8
0
  6
CONTINUOUS
 62
     3
 10
23.5312790625745691
 20
-2.9428280386503469
 30
0.0000000000000142
 11
-12.9687209374254309
 21
-2.94282803865035
 31
0.0
  0
ARC
  5
D72
  8
0
  6
VERDECKT
 62
     1
 10
43.6487777199132765
 20
-17.4428280386512213
 30
0.0000000000000142
 40
18.0000000000008491
 50
62.2448206083851829
 51
89.9999999999984936
  0
ARC
  5
D73
  8
0
  6
VERDECKT
 62
     1
 10
43.6487777199132907
 20
-41.4428280386495302
 30
0.0000000000000142
 40
18.0000000000007994
 50
270.0000000000014211
 51
297.7551793916148881
  0
LINE
  5
D74
  8
0
  6
VERDECKT
 62
     1
 10
43.6487777199137597
 20
-59.4428280386503687
 30
0.0000000000000142
 11
39.1544630085913283
 21
-59.4428280386503687
 31
0.0000000000000132
  0
LINE
  5
D75
  8
0
  6
VERDECKT
 62
     1
 10
43.6487777199137597
 20
0.5571719613496811
 30
0.0000000000000142
 11
39.1544630085913283
 21
0.5571719613496811
 31
0.0000000000000132
  0
ARC
  5
D76
  8
0
  6
VERDECKT
 62
     1
 10
39.1932790625744403
 20
-22.9428280386498891
 30
0.0000000000000142
 40
23.5000320571276511
 50
90.0946380445972466
 51
125.4310403014696931
  0
ARC
  5
D77
  8
0
  6
VERDECKT
 62
     1
 10
39.1932790625744687
 20
-35.9428280386507666
 30
0.0000000000000142
 40
23.5000320571277008
 50
234.5689596985303069
 51
269.905361955402725
  0
ARC
  5
D78
  8
0
  6
VERDECKT
 62
     1
 10
23.5407479226616303
 20
-0.9428280386503189
 30
0.0000000000000142
 40
3.4999999999999991
 50
270.0
 51
305.4310403014704889
  0
ARC
  5
D79
  8
0
  6
VERDECKT
 62
     1
 10
23.5407479226616303
 20
-57.9428280386503616
 30
0.0000000000000142
 40
3.4999999999999889
 50
54.5689596985294685
 51
90.0
  0
LINE
  5
D7A
  8
0
  6
VERDECKT
 62
     1
 10
23.5407479226616303
 20
-54.4428280386503687
 30
0.0000000000000142
 11
23.5312790625745798
 21
-54.4428280386503687
 31
0.0000000000000142
  0
LINE
  5
D7B
  8
0
  6
VERDECKT
 62
     1
 10
23.5407479226616303
 20
-4.4428280386503181
 30
0.0000000000000142
 11
23.5312790625745798
 21
-4.4428280386503181
 31
0.0000000000000142
  0
CIRCLE
  5
D7C
  8
0
  6
VERDECKT
 62
     1
 10
-12.9687209374255392
 20
-29.4428280386503509
 30
0.0
 40
25.0
  0
CIRCLE
  5
D7D
  8
0
  6
VERDECKT
 62
     1
 10
-12.9687209374255605
 20
-29.4428280386503616
 30
0.0
 40
24.2943609354776413
  0
ARC
  5
D7E
  8
0
  6
VERDECKT
 62
     1
 10
-12.9687209374254309
 20
-29.4428280386503687
 30
0.0
 40
26.5000000000000213
 50
270.0000000000001137
 51
90.0000000000000995
  0
CIRCLE
  5
D7F
  8
0
  6
VERDECKT
 62
     1
 10
-12.9687209374253296
 20
-29.4428280386503616
 30
0.0
 40
25.8000906917928283
  0
LINE
  5
D80
  8
0
  6
VERDECKT
 62
     1
 10
23.531279062574459
 20
-4.4428280386503474
 30
0.0000000000000142
 11
-12.9687209374255108
 21
-4.44282803865035
 31
0.0
  0
LINE
  5
D81
  8
0
  6
VERDECKT
 62
     1
 10
-12.9687209374255108
 20
-54.4428280386503474
 30
0.0
 11
23.5312790625744697
 21
-54.4428280386503474
 31
0.0000000000000142
  0
ENDBLK
  5
D83
  8
0
  0
BLOCK
  8
0
  2
A$C307C5E39
 70
     0
 10
0.0
 20
0.0
 30
0.0
  3
A$C307C5E39
  1

  0
LINE
  5
D87
  8
0
  6
CONTINUOUS
 62
     3
 10
36.5000000000000568
 20
73.4999999999998295
 30
-0.0000000000000163
 11
36.4999999999998295
 21
126.4999999999999005
 31
-0.0000000000000281
210
0.0
220
1.0
230
-0.0000000000000002
  0
LINE
  5
D88
  8
0
  6
CONTINUOUS
 62
     3
 10
65.0000000000001137
 20
70.3936468500633055
 30
-0.0000000000000156
 11
64.9999999999998863
 21
129.6063531499364956
 31
-0.0000000000000288
210
0.0
220
1.0
230
-0.0000000000000002
  0
LINE
  5
D89
  8
0
  6
CONTINUOUS
 62
     3
 10
36.4999999999998295
 20
126.4999999999999005
 30
-0.0000000000000281
 11
36.5094688600868267
 21
126.4999999999999005
 31
-0.0000000000000281
210
0.0
220
1.0
230
-0.0000000000000002
  0
LINE
  5
D8A
  8
0
  6
CONTINUOUS
 62
     3
 10
36.4999999999999716
 20
73.4999999999997726
 30
-0.0000000000000163
 11
36.5094688600869617
 21
73.4999999999997726
 31
-0.0000000000000163
210
0.0
220
1.0
230
-0.0000000000000002
  0
ARC
  5
D8B
  8
0
  6
CONTINUOUS
 62
     3
 10
-36.5094688600870612
 20
71.4999999999997442
 30
0.0
 40
2.000000000000028
210
0.0
220
-0.0000000000000002
230
-1.0
 50
89.9999999999973568
 51
125.431040301467803
  0
ARC
  5
D8C
  8
0
  6
CONTINUOUS
 62
     3
 10
-36.5094688600869475
 20
128.4999999999996874
 30
0.0
 40
1.999999999999801
210
0.0
220
-0.0000000000000002
230
-1.0
 50
234.5689596985295111
 51
270.0000000000036948
  0
ARC
  5
D8D
  8
0
  6
CONTINUOUS
 62
     3
 10
-52.1619999999994732
 20
93.4999999999987352
 30
0.0
 40
25.0000320571269583
210
0.0
220
-0.0000000000000002
230
-1.0
 50
269.9082450083786853
 51
305.4310403014699205
  0
ARC
  5
D8E
  8
0
  6
CONTINUOUS
 62
     3
 10
-52.1619999999995514
 20
106.5000000000006963
 30
0.0
 40
25.0000320571272816
210
0.0
220
-0.0000000000000002
230
-1.0
 50
54.5689596985298877
 51
90.0917549916206042
  0
LINE
  5
D8F
  8
0
  6
CONTINUOUS
 62
     3
 10
52.2020357019473025
 20
131.4999999999998863
 30
-0.0000000000000292
 11
56.6174986573389489
 21
131.4999999999998863
 31
-0.0000000000000292
210
0.0
220
1.0
230
-0.0000000000000002
  0
LINE
  5
D90
  8
0
  6
CONTINUOUS
 62
     3
 10
52.2020357019475014
 20
68.4999999999998579
 30
-0.0000000000000152
 11
56.6174986573391621
 21
68.4999999999998579
 31
-0.0000000000000152
210
0.0
220
1.0
230
-0.0000000000000002
  0
ARC
  5
D91
  8
0
  6
CONTINUOUS
 62
     3
 10
-56.6174986573386718
 20
88.0000000000006537
 30
0.0
 40
19.5000000000007816
210
0.0
220
-0.0000000000000002
230
-1.0
 50
244.5405714311796999
 51
269.9999999999985789
  0
ARC
  5
D92
  8
0
  6
CONTINUOUS
 62
     3
 10
-56.6174986573386008
 20
111.9999999999994031
 30
0.0
 40
19.5000000000005116
210
0.0
220
-0.0000000000000002
230
-1.0
 50
90.0000000000010232
 51
115.4594285688201012
  0
LINE
  5
D93
  8
0
  6
CONTINUOUS
 62
     3
 10
-25.8000906917928283
 20
-0.0000000000000995
 30
0.0
 11
25.8000906917928283
 21
0.0000000000000711
 31
0.0
210
0.0
220
1.0
230
-0.0000000000000002
  0
LINE
  5
D94
  8
0
  6
CONTINUOUS
 62
     3
 10
36.4999999999998934
 20
126.499999999999801
 30
-0.0000000000000281
 11
36.4999999999998934
 21
73.4999999999998295
 31
-0.0000000000000163
210
0.0
220
1.0
230
-0.0000000000000002
  0
LINE
  5
D95
  8
0
  6
CONTINUOUS
 62
     3
 10
26.4999999999998792
 20
63.4999999999998295
 30
-0.0000000000000141
 11
26.5000000000000107
 21
7.9999999999997806
 31
-0.0000000000000018
210
0.0
220
1.0
230
-0.0000000000000002
  0
LINE
  5
D96
  8
0
  6
CONTINUOUS
 62
     3
 10
-26.5000000000002416
 20
63.4999999999998295
 30
-0.0000000000000141
 11
-26.5000000000001101
 21
7.9999999999996456
 31
-0.0000000000000018
210
0.0
220
1.0
230
-0.0000000000000002
  0
LINE
  5
D97
  8
0
  6
CONTINUOUS
 62
     3
 10
-25.8000906917928283
 20
-0.0000000000000715
 30
0.0
 11
-26.5000000000001705
 21
7.9999999999996456
 31
-0.0000000000000018
210
0.0
220
1.0
230
-0.0000000000000002
  0
LINE
  5
D98
  8
0
  6
CONTINUOUS
 62
     3
 10
25.8000906917928496
 20
0.0000000000000626
 30
0.0
 11
26.5000000000001492
 21
7.9999999999997833
 31
-0.0000000000000018
210
0.0
220
1.0
230
-0.0000000000000002
  0
ARC
  5
D99
  8
0
  6
CONTINUOUS
 62
     3
 10
-36.4999999999998579
 20
63.4999999999998508
 30
0.0
 40
62.9999999999999716
210
0.0
220
-0.0000000000000002
230
-1.0
 50
360.0
 51
90.0000000000000284
  0
ARC
  5
D9A
  8
0
  6
CONTINUOUS
 62
     3
 10
36.4999999999998934
 20
63.4999999999998295
 30
-0.0000000000000141
 40
10.0
 50
90.0
 51
180.0
  0
ARC
  5
D9B
  8
0
  6
VERDECKT
 62
     1
 10
-56.6174986573386718
 20
111.9999999999994031
 30
0.0
 40
18.0000000000004512
210
0.0
220
-0.0000000000000002
230
-1.0
 50
90.0000000000010942
 51
117.7551793916155987
  0
ARC
  5
D9C
  8
0
  6
VERDECKT
 62
     1
 10
-56.6174986573386079
 20
88.0000000000006963
 30
0.0
 40
18.0000000000007887
210
0.0
220
-0.0000000000000002
230
-1.0
 50
242.2448206083849129
 51
269.9999999999984084
  0
LINE
  5
D9D
  8
0
  6
VERDECKT
 62
     1
 10
56.6174986573391266
 20
69.9999999999998437
 30
-0.0000000000000155
 11
52.1231839460167024
 21
69.9999999999998437
 31
-0.0000000000000155
210
0.0
220
1.0
230
-0.0000000000000002
  0
LINE
  5
D9E
  8
0
  6
VERDECKT
 62
     1
 10
56.6174986573390129
 20
129.9999999999998863
 30
-0.0000000000000289
 11
52.1231839460165816
 21
129.9999999999998863
 31
-0.0000000000000289
210
0.0
220
1.0
230
-0.0000000000000002
  0
ARC
  5
D9F
  8
0
  6
VERDECKT
 62
     1
 10
-52.1619999999997574
 20
106.5000000000002984
 30
0.0
 40
23.5000320571277008
210
0.0
220
-0.0000000000000002
230
-1.0
 50
54.568959698530179
 51
89.9053619554025829
  0
ARC
  5
DA0
  8
0
  6
VERDECKT
 62
     1
 10
-52.1619999999997006
 20
93.4999999999992042
 30
0.0
 40
23.5000320571274592
210
0.0
220
-0.0000000000000002
230
-1.0
 50
270.0946380445969908
 51
305.4310403014696931
  0
ARC
  5
DA1
  8
0
  6
VERDECKT
 62
     1
 10
-36.5094688600868835
 20
128.4999999999998863
 30
0.0
 40
3.5000000000000542
210
0.0
220
-0.0000000000000002
230
-1.0
 50
234.5689596985299943
 51
269.9999999999998863
  0
ARC
  5
DA2
  8
0
  6
VERDECKT
 62
     1
 10
-36.5094688600869901
 20
71.4999999999997584
 30
0.0
 40
3.5000000000000711
210
0.0
220
-0.0000000000000002
230
-1.0
 50
90.0000000000000995
 51
125.4310403014698068
  0
LINE
  5
DA3
  8
0
  6
VERDECKT
 62
     1
 10
36.5094688600869901
 20
74.9999999999998295
 30
-0.0000000000000167
 11
36.4999999999999716
 21
74.9999999999998295
 31
-0.0000000000000167
210
0.0
220
1.0
230
-0.0000000000000002
  0
LINE
  5
DA4
  8
0
  6
VERDECKT
 62
     1
 10
36.5094688600868835
 20
124.9999999999999005
 30
-0.0000000000000278
 11
36.4999999999998295
 21
124.9999999999999005
 31
-0.0000000000000278
210
0.0
220
1.0
230
-0.0000000000000002
  0
LINE
  5
DA5
  8
0
  6
VERDECKT
 62
     1
 10
24.9999999999998792
 20
63.4999999999998792
 30
-0.0000000000000141
 11
24.9999999999997797
 21
8.0654914143624712
 31
-0.0000000000000018
210
0.0
220
1.0
230
-0.0000000000000002
  0
LINE
  5
DA6
  8
0
  6
VERDECKT
 62
     1
 10
-25.0000000000001208
 20
63.4999999999998792
 30
-0.0000000000000141
 11
-25.0000000000002203
 21
8.0654914143625565
 31
-0.0000000000000018
210
0.0
220
1.0
230
-0.0000000000000002
  0
LINE
  5
DA7
  8
0
  6
VERDECKT
 62
     1
 10
-24.2943609354778687
 20
-0.0000000000000577
 30
0.0
 11
-25.0000000000001705
 21
8.0654914143625565
 31
-0.0000000000000018
210
0.0
220
1.0
230
-0.0000000000000002
  0
LINE
  5
DA8
  8
0
  6
VERDECKT
 62
     1
 10
24.2943609354774104
 20
-0.0000000000000409
 30
0.0
 11
24.99999999999973
 21
8.0654914143624712
 31
-0.0000000000000018
210
0.0
220
1.0
230
-0.0000000000000002
  0
ARC
  5
DA9
  8
0
  6
VERDECKT
 62
     1
 10
-36.4999999999997797
 20
63.4999999999998721
 30
0.0
 40
61.4999999999999787
210
0.0
220
-0.0000000000000002
230
-1.0
 50
0.0000000000000127
 51
89.9999999999999858
  0
ARC
  5
DAA
  8
0
  6
VERDECKT
 62
     1
 10
36.4999999999997726
 20
63.4999999999998792
 30
-0.0000000000000141
 40
11.4999999999999698
 50
90.0
 51
180.0
  0
ENDBLK
  5
DAC
  8
0
  0
ENDSEC
  0
SECTION
  2
ENTITIES
  0
TEXT
  5
8F
  8
VOLL
 10
78.076754716981128
 20
31.025947764705851
 30
0.0
 40
1.8
  1

  7
GREEKS
  0
TEXT
  5
6CD
  8
VOLL
 10
578.722130398660056
 20
31.8433041544388082
 30
0.0
 40
1.8
  1

  7
GREEKS
  0
TEXT
  5
6CE
  8
TEXT
 10
910.5543986022531726
 20
37.4015396876643536
 30
0.0
 40
2.5
  1
  
  7
GREEKS
 72
     1
 11
912.8163033641579887
 21
37.4015396876643536
 31
0.0
  0
TEXT
  5
6CF
  8
BEM
 10
1154.6741159147350118
 20
172.9604217180666126
 30
0.0
 40
2.5
  1
 
 72
     4
 11
1155.8050682956870787
 21
172.9604217180666126
 31
0.0
  0
TEXT
  5
6D0
  8
BEM
 10
733.8617325554561148
 20
52.1767150441153618
 30
0.0
 40
2.5
  1

  7
GREEKS
  0
TEXT
  5
6D1
  8
VOLL
 10
719.7955395357346333
 20
31.9934543870802486
 30
0.0
 40
1.8
  1

  7
GREEKS
  0
TEXT
  5
6D2
  8
BEM
 10
754.2836043750193085
 20
36.7191787103008522
 30
0.0
 40
2.5
  1

 41
0.8
  7
GREEKS
  0
TEXT
  5
6D3
  8
BEM
 10
754.2836043750193085
 20
32.0254101562486895
 30
0.0
 40
2.5
  1

 41
0.8
  7
GREEKS
  0
TEXT
  5
6D4
  8
BEM
 10
754.2836043750193085
 20
26.7875663375852113
 30
0.0
 40
2.5
  1

 41
0.8
  7
GREEKS
  0
TEXT
  5
6D5
  8
BEM
 10
754.2106598976447458
 20
22.2823773874875712
 30
0.0
 40
1.8
  1

 41
0.8
  7
GREEKS
  0
TEXT
  5
6D6
  8
BEM
 10
741.527089018033621
 20
47.8739664837128487
 30
0.0
 40
2.0
  1

 41
0.8
  7
GREEKS
 72
     1
 11
741.527089018033621
 21
47.8739664837128487
 31
0.0
  0
TEXT
  5
6D7
  8
TEXT
 10
1051.6278077393269541
 20
37.5516899203057974
 30
0.0
 40
2.5
  1
  
  7
GREEKS
 72
     1
 11
1053.8897125012319975
 21
37.5516899203057974
 31
0.0
  0
TEXT
  5
6D8
  8
BEM
 10
1295.7475250518089069
 20
173.1105719507079925
 30
0.0
 40
2.5
  1
 
 72
     4
 11
1296.8784774327621108
 21
173.1105719507079925
 31
0.0
  0
TEXT
  5
6DE
  8
VOLL
 10
317.8738389535641886
 20
234.3318368939931986
 30
0.0
 40
1.8
  1

  7
GREEKS
  0
TEXT
  5
6DF
  8
TEXT
 10
649.706107157157021
 20
239.8900724272187119
 30
0.0
 40
2.5
  1
  
  7
GREEKS
 72
     1
 11
651.968011919061837
 21
239.8900724272187119
 31
0.0
  0
TEXT
  5
6E0
  8
BEM
 10
893.8258244696389738
 20
375.4489544576210278
 30
0.0
 40
2.5
  1
 
 72
     4
 11
894.9567768505913818
 21
375.4489544576210278
 31
0.0
  0
TEXT
  5
6E1
  8
BEM
 10
483.219452033214111
 20
274.4850675925789005
 30
0.0
 40
2.5
  1

  7
GREEKS
  0
TEXT
  5
6E2
  8
VOLL
 10
469.1532590134925726
 20
254.3018069355437092
 30
0.0
 40
1.8
  1

  7
GREEKS
  0
TEXT
  5
6E3
  8
BEM
 10
503.6413238527773046
 20
259.027531258764327
 30
0.0
 40
2.5
  1

 41
0.8
  7
GREEKS
  0
TEXT
  5
6E4
  8
BEM
 10
503.6413238527773046
 20
254.3337627047121998
 30
0.0
 40
2.5
  1

 41
0.8
  7
GREEKS
  0
TEXT
  5
6E5
  8
BEM
 10
503.6413238527773046
 20
249.0959188860485938
 30
0.0
 40
2.5
  1

 41
0.8
  7
GREEKS
  0
TEXT
  5
6E6
  8
BEM
 10
503.5683793754027988
 20
244.5907299359510887
 30
0.0
 40
1.8
  1

 41
0.8
  7
GREEKS
  0
TEXT
  5
6E7
  8
BEM
 10
490.8848084957916171
 20
270.1823190321762809
 30
0.0
 40
2.0
  1

 41
0.8
  7
GREEKS
 72
     1
 11
490.8848084957916171
 21
270.1823190321762809
 31
0.0
  0
TEXT
  5
6E8
  8
TEXT
 10
800.985527217085405
 20
259.8600424687692794
 30
0.0
 40
2.5
  1
  
  7
GREEKS
 72
     1
 11
803.2474319789903348
 21
259.8600424687692794
 31
0.0
  0
TEXT
  5
6E9
  8
BEM
 10
1045.1052445295670168
 20
395.41892449917151
 30
0.0
 40
2.5
  1
 
 72
     4
 11
1046.2361969105199933
 21
395.41892449917151
 31
0.0
  0
INSERT
  5
D84
  8
0
  2
A$C2920467B
 10
12.9687209374253101
 20
29.4428280386503616
 30
-0.0000000000000995
  0
INSERT
  5
DAD
  8
0
  2
A$C307C5E39
 10
0.0
 20
61.2686992058723519
 30
0.0
  0
VIEWPORT
  5
BAC
 67
     1
  8
0
 10
3.7498340474236578
 20
3.6197836891466548
 30
0.0
 40
13.8070918102315208
 41
7.4575054214399543
 68
     1
 69
     1
1001
ACAD
1000
MVIEW
1002
{
1070
    16
1010
0.0
1020
0.0
1030
0.0
1010
0.0
1020
0.0
1030
1.0
1040
0.0
1040
7.4575054214399543
1040
3.7498340474236578
1040
3.6197836891466548
1040
50.0
1040
0.0
1040
0.0
1070
     0
1070
  1500
1070
     1
1070
     1
1070
     0
1070
     0
1070
     0
1070
     0
1040
0.0
1040
0.0
1040
0.0
1040
10.0
1040
10.0
1040
10.0
1040
10.0
1070
     0
1002
{
1002
}
1002
}
  0
ENDSEC
  0
EOF
