  0
SECTION
  2
HEADER
  9
$ACADVER
  1
AC1009
  9
$INSBASE
 10
0.0
 20
0.0
 30
0.0
  9
$EXTMIN
 10
-191.5187750749969098
 20
-161.5134416881639936
 30
-0.0000000000001224
  9
$EXTMAX
 10
83.021553698486855
 20
532.839662029686906
 30
0.0000000000001221
  9
$LIMMIN
 10
0.0
 20
0.0
  9
$LIMMAX
 10
419.9999999999998863
 20
594.0
  9
$ORTHOMODE
 70
     1
  9
$REGENMODE
 70
     1
  9
$FILLMODE
 70
     1
  9
$QTEXTMODE
 70
     0
  9
$MIRRTEXT
 70
     1
  9
$DRAGMODE
 70
     2
  9
$LTSCALE
 40
20.0
  9
$OSMODE
 70
  2559
  9
$ATTMODE
 70
     1
  9
$TEXTSIZE
 40
3.5
  9
$TRACEWID
 40
0.5
  9
$TEXTSTYLE
  7
STANDARD
  9
$CLAYER
  8
STEMPEL
  9
$CELTYPE
  6
BYLAYER
  9
$CECOLOR
 62
   256
  9
$DIMSCALE
 40
2.0
  9
$DIMASZ
 40
3.5
  9
$DIMEXO
 40
1.0
  9
$DIMDLI
 40
7.0
  9
$DIMRND
 40
0.0
  9
$DIMDLE
 40
0.0
  9
$DIMEXE
 40
1.0
  9
$DIMTP
 40
0.0
  9
$DIMTM
 40
0.0
  9
$DIMTXT
 40
3.5
  9
$DIMCEN
 40
1.5
  9
$DIMTSZ
 40
0.0
  9
$DIMTOL
 70
     0
  9
$DIMLIM
 70
     0
  9
$DIMTIH
 70
     0
  9
$DIMTOH
 70
     0
  9
$DIMSE1
 70
     0
  9
$DIMSE2
 70
     0
  9
$DIMTAD
 70
     1
  9
$DIMZIN
 70
     8
  9
$DIMBLK
  1

  9
$DIMASO
 70
     1
  9
$DIMSHO
 70
     0
  9
$DIMPOST
  1

  9
$DIMAPOST
  1

  9
$DIMALT
 70
     0
  9
$DIMALTD
 70
     2
  9
$DIMALTF
 40
25.3999999999999986
  9
$DIMLFAC
 40
1.0
  9
$DIMTOFL
 70
     1
  9
$DIMTVP
 40
0.0
  9
$DIMTIX
 70
     0
  9
$DIMSOXD
 70
     0
  9
$DIMSAH
 70
     0
  9
$DIMBLK1
  1

  9
$DIMBLK2
  1

  9
$DIMSTYLE
  2
STANDARD
  9
$DIMCLRD
 70
     0
  9
$DIMCLRE
 70
     0
  9
$DIMCLRT
 70
     1
  9
$DIMTFAC
 40
0.5
  9
$DIMGAP
 40
1.5
  9
$LUNITS
 70
     2
  9
$LUPREC
 70
     2
  9
$SKETCHINC
 40
1.0
  9
$FILLETRAD
 40
26.0
  9
$AUNITS
 70
     0
  9
$AUPREC
 70
     0
  9
$MENU
  1
ACAD
  9
$ELEVATION
 40
0.0
  9
$PELEVATION
 40
0.0
  9
$THICKNESS
 40
0.0
  9
$LIMCHECK
 70
     0
  9
$BLIPMODE
 70
     0
  9
$CHAMFERA
 40
0.0
  9
$CHAMFERB
 40
0.0
  9
$SKPOLY
 70
     0
  9
$TDCREATE
 40
2455397.8646990740671754
  9
$TDUPDATE
 40
2458375.5952083328738809
  9
$TDINDWG
 40
0.1150380093
  9
$TDUSRTIMER
 40
0.1150380093
  9
$USRTIMER
 70
     1
  9
$ANGBASE
 50
0.0
  9
$ANGDIR
 70
     0
  9
$PDMODE
 70
     0
  9
$PDSIZE
 40
0.0
  9
$PLINEWID
 40
0.0
  9
$COORDS
 70
     1
  9
$SPLFRAME
 70
     0
  9
$SPLINETYPE
 70
     6
  9
$SPLINESEGS
 70
     8
  9
$ATTDIA
 70
     1
  9
$ATTREQ
 70
     1
  9
$HANDLING
 70
     1
  9
$HANDSEED
  5
1158
  9
$SURFTAB1
 70
     6
  9
$SURFTAB2
 70
     6
  9
$SURFTYPE
 70
     6
  9
$SURFU
 70
     6
  9
$SURFV
 70
     6
  9
$UCSNAME
  2

  9
$UCSORG
 10
0.0
 20
0.0
 30
0.0
  9
$UCSXDIR
 10
1.0
 20
0.0
 30
0.0
  9
$UCSYDIR
 10
0.0
 20
1.0
 30
0.0
  9
$PUCSNAME
  2

  9
$PUCSORG
 10
0.0
 20
0.0
 30
0.0
  9
$PUCSXDIR
 10
1.0
 20
0.0
 30
0.0
  9
$PUCSYDIR
 10
0.0
 20
1.0
 30
0.0
  9
$USERI1
 70
     0
  9
$USERI2
 70
     0
  9
$USERI3
 70
     0
  9
$USERI4
 70
     0
  9
$USERI5
 70
     0
  9
$USERR1
 40
0.0
  9
$USERR2
 40
0.0
  9
$USERR3
 40
0.0
  9
$USERR4
 40
0.0
  9
$USERR5
 40
0.0
  9
$WORLDVIEW
 70
     1
  9
$SHADEDGE
 70
     3
  9
$SHADEDIF
 70
    70
  9
$TILEMODE
 70
     1
  9
$MAXACTVP
 70
    16
  9
$PLIMCHECK
 70
     0
  9
$PEXTMIN
 10
-0.1573710496922303
 20
-0.2199093911510488
 30
-0.0000000349181948
  9
$PEXTMAX
 10
16.0254137474215703
 20
22.1599393160493499
 30
0.0000000814935746
  9
$PLIMMIN
 10
-0.2500002402958907
 20
-0.2499999962453767
  9
$PLIMMAX
 10
10.7499995194082203
 20
8.2499997634587334
  9
$UNITMODE
 70
     0
  9
$VISRETAIN
 70
     0
  9
$PLINEGEN
 70
     0
  9
$PSLTSCALE
 70
     0
  0
ENDSEC
  0
SECTION
  2
TABLES
  0
TABLE
  2
VPORT
 70
     1
  0
VPORT
  2
*ACTIVE
 70
     0
 10
0.0
 20
0.0
 11
1.0
 21
1.0
 12
-79.9986106882550843
 22
-64.3368898292385438
 13
0.0
 23
0.0
 14
1.0
 24
1.0
 15
10.0
 25
10.0
 16
-0.0000000000003268
 26
0.0
 36
1477.5027668559080212
 17
25.75
 27
250.0
 37
0.0
 40
697.8927117232094588
 41
1.868197278911564
 42
50.0
 43
0.0
 44
0.0
 50
0.0
 51
0.0
 71
     0
 72
  1500
 73
     1
 74
     0
 75
     0
 76
     0
 77
     0
 78
     0
  0
ENDTAB
  0
TABLE
  2
LTYPE
 70
     4
  0
LTYPE
  2
CONTINUOUS
 70
     0
  3
Solid line
 72
    65
 73
     0
 40
0.0
  0
LTYPE
  2
AUSGEZOGEN
 70
     0
  3
Ausgezogene Linie
 72
    65
 73
     0
 40
0.0
  0
LTYPE
  2
VERDECKT
 70
     0
  3
_ _ _ _ _ _ _ _ _ _ _ _ _ _ _ _ _ _ _ _ _ _ _
 72
    65
 73
     2
 40
0.375
 49
0.25
 49
-0.125
  0
ENDTAB
  0
TABLE
  2
LAYER
 70
    10
  0
LAYER
  2
0
 70
     0
 62
     7
  6
CONTINUOUS
  0
LAYER
  2
VOLL
 70
     0
 62
     1
  6
CONTINUOUS
  0
LAYER
  2
BEM
 70
     0
 62
     7
  6
CONTINUOUS
  0
LAYER
  2
STEMPEL
 70
     0
 62
     3
  6
CONTINUOUS
  0
LAYER
  2
TEXT
 70
     0
 62
     7
  6
CONTINUOUS
  0
LAYER
  2
DEFPOINTS
 70
     0
 62
     7
  6
AUSGEZOGEN
  0
ENDTAB
  0
TABLE
  2
STYLE
 70
     2
  0
STYLE
  2
STANDARD
 70
     0
 40
0.0
 41
0.8
 50
0.0
 71
     0
 42
3.5
  3
simplex.shx
  4

  0
STYLE
  2
GREEKS
 70
     0
 40
0.0
 41
0.8
 50
0.0
 71
     0
 42
2.5
  3
SIMPLEX.shx
  4

  0
ENDTAB
  0
TABLE
  2
VIEW
 70
     0
  0
ENDTAB
  0
TABLE
  2
UCS
 70
     0
  0
ENDTAB
  0
TABLE
  2
APPID
 70
     9
  0
APPID
  2
ACAD
 70
     0
  0
APPID
  2
ACAD_NAV_VCDISPLAY
 70
     0
  0
APPID
  2
ACAECLAYERSTANDARD
 70
     0
  0
APPID
  2
ACCMTRANSPARENCY
 70
     0
  0
APPID
  2
ACAD_PSEXT
 70
     0
  0
APPID
  2
ACAD_MLEADERVER
 70
     0
  0
APPID
  2
ACAD_OBJECT_CHANGE_GUID
 70
     0
  0
APPID
  2
ACADANNOMONITORALERTICONDI
 70
     0
  0
APPID
  2
ACAD_EXEMPT_FROM_CAD_STANDARDS
 70
     0
  0
ENDTAB
  0
TABLE
  2
DIMSTYLE
 70
     1
  0
DIMSTYLE
  2
STANDARD
 70
     0
  3

  4

  5

  6

  7

 40
1.0
 41
0.18
 42
0.0625
 43
0.38
 44
0.18
 45
0.0
 46
0.0
 47
0.0
 48
0.0
140
0.18
141
0.09
142
0.0
143
25.3999999999999986
144
1.0
145
0.0
146
1.0
147
0.09
 71
     0
 72
     0
 73
     1
 74
     1
 75
     0
 76
     0
 77
     0
 78
     0
170
     0
171
     2
172
     0
173
     0
174
     0
175
     0
176
     0
177
     0
178
     0
  0
ENDTAB
  0
ENDSEC
  0
SECTION
  2
BLOCKS
  0
BLOCK
  8
0
  2
$MODEL_SPACE
 70
     0
 10
0.0
 20
0.0
 30
0.0
  3
$MODEL_SPACE
  1

  0
ENDBLK
  5
36
  8
0
  0
BLOCK
 67
     1
  8
0
  2
$PAPER_SPACE
 70
     0
 10
0.0
 20
0.0
 30
0.0
  3
$PAPER_SPACE
  1

  0
ENDBLK
  5
34
 67
     1
  8
0
  0
BLOCK
  8
0
  2
A$C5FA205C2
 70
     0
 10
0.0
 20
0.0
 30
0.0
  3
A$C5FA205C2
  1

  0
LINE
  5
1076
  8
0
  6
CONTINUOUS
 62
     3
 10
25.8000906917932298
 20
0.0000000000000284
 30
0.0
 11
-25.8000906917932298
 21
-0.0000000000000497
 31
0.0
210
0.0
220
1.0
230
-0.0000000000000002
  0
LINE
  5
1077
  8
0
  6
CONTINUOUS
 62
     3
 10
82.9999999999989768
 20
529.6070448491913112
 30
-0.0000000000001176
 11
82.9999999999994316
 21
470.3929551508090867
 31
-0.0000000000001044
210
0.0
220
1.0
230
-0.0000000000000002
  0
LINE
  5
1078
  8
0
  6
CONTINUOUS
 62
     3
 10
-25.8000906917932298
 20
-0.0000000000000488
 30
0.0
 11
-26.5000000000004583
 21
7.999999999999666
 31
-0.0000000000000018
210
0.0
220
1.0
230
-0.0000000000000002
  0
LINE
  5
1079
  8
0
  6
CONTINUOUS
 62
     3
 10
25.8000906917932404
 20
0.0000000000000266
 30
0.0
 11
26.5000000000004512
 21
7.9999999999997451
 31
-0.0000000000000018
210
0.0
220
1.0
230
-0.0000000000000002
  0
ARC
  5
107A
  8
0
  6
CONTINUOUS
 62
     3
 10
-36.499999999999261
 20
463.4999999999998863
 30
0.0
 40
62.9999999999999289
210
0.0
220
-0.0000000000000002
230
-1.0
 50
359.9999999999998863
 51
89.9999999999999432
  0
ARC
  5
107B
  8
0
  6
CONTINUOUS
 62
     3
 10
36.4999999999993534
 20
463.4999999999997726
 30
-0.0000000000001029
 40
10.0000000000000497
 50
89.9999999999995168
 51
180.0
  0
LINE
  5
107C
  8
0
  6
CONTINUOUS
 62
     3
 10
-26.4999999999999893
 20
7.9999999999996669
 30
-0.0000000000000018
 11
-26.5000000000006786
 21
463.4999999999997726
 31
-0.0000000000001029
210
0.0
220
1.0
230
-0.0000000000000002
  0
LINE
  5
107D
  8
0
  6
CONTINUOUS
 62
     3
 10
26.5000000000000213
 20
7.9999999999997451
 30
-0.0000000000000018
 11
26.4999999999993214
 21
463.4999999999998863
 31
-0.0000000000001029
210
0.0
220
1.0
230
-0.0000000000000002
  0
ARC
  5
107E
  8
0
  6
CONTINUOUS
 62
     3
 10
-74.6174986573367534
 20
511.9935663871481779
 30
0.0
 40
19.5064336128517084
210
0.0
220
-0.0000000000000002
230
-1.0
 50
90.0000000000037375
 51
115.4504317769737014
  0
ARC
  5
107F
  8
0
  6
CONTINUOUS
 62
     3
 10
-74.6174986573367534
 20
488.0064336128519926
 30
0.0
 40
19.5064336128517617
210
0.0
220
-0.0000000000000002
230
-1.0
 50
244.5495682230254886
 51
269.9999999999953957
  0
LINE
  5
1080
  8
0
  6
CONTINUOUS
 62
     3
 10
74.6174986573383023
 20
468.5000000000001137
 30
-0.000000000000104
 11
70.1219642979914539
 21
468.5000000000001137
 31
-0.000000000000104
210
0.0
220
1.0
230
-0.0000000000000002
  0
LINE
  5
1081
  8
0
  6
CONTINUOUS
 62
     3
 10
74.6174986573380465
 20
531.5000000000001137
 30
-0.000000000000118
 11
70.1219642979912123
 21
531.5000000000001137
 31
-0.000000000000118
210
0.0
220
1.0
230
-0.0000000000000002
  0
ARC
  5
1082
  8
0
  6
CONTINUOUS
 62
     3
 10
-70.1620000000033315
 20
506.499999999983288
 30
0.0
 40
25.0000320571450487
210
0.0
220
-0.0000000000000002
230
-1.0
 50
70.5369005553137782
 51
89.9082450082319156
  0
ARC
  5
1083
  8
0
  6
CONTINUOUS
 62
     3
 10
-70.1620000000039141
 20
493.5000000000204068
 30
0.0
 40
25.0000320571486192
210
0.0
220
-0.0000000000000002
230
-1.0
 50
270.0917549917688234
 51
289.4630994446840759
  0
ARC
  5
1084
  8
0
  6
CONTINUOUS
 62
     3
 10
-58.4999999999994174
 20
539.5000000000005684
 30
0.0
 40
10.0000000000007905
210
0.0
220
-0.0000000000000002
230
-1.0
 50
250.5369005553164072
 51
270.0
  0
ARC
  5
1085
  8
0
  6
CONTINUOUS
 62
     3
 10
-58.5000000000001492
 20
460.50000000000108
 30
0.0
 40
9.9999999999989768
210
0.0
220
-0.0000000000000002
230
-1.0
 50
89.9999999999972857
 51
109.4630994446844028
  0
LINE
  5
1086
  8
0
  6
CONTINUOUS
 62
     3
 10
58.4999999999996732
 20
470.5000000000001137
 30
-0.0000000000001045
 11
50.4083269131955518
 21
470.5000000000001137
 31
-0.0000000000001045
210
0.0
220
1.0
230
-0.0000000000000002
  0
LINE
  5
1087
  8
0
  6
CONTINUOUS
 62
     3
 10
58.4999999999994316
 20
529.4999999999998863
 30
-0.0000000000001176
 11
50.4083269131953102
 21
529.4999999999998863
 31
-0.0000000000001176
210
0.0
220
1.0
230
-0.0000000000000002
  0
ARC
  5
1088
  8
0
  6
CONTINUOUS
 62
     3
 10
-50.4083269131939105
 20
517.5000000000051159
 30
0.0
 40
11.9999999999948894
210
0.0
220
-0.0000000000000002
230
-1.0
 50
58.2116693829428229
 51
90.0000000000066933
  0
ARC
  5
1089
  8
0
  6
CONTINUOUS
 62
     3
 10
-50.408326913194152
 20
482.4999999999949978
 30
0.0
 40
11.9999999999950493
210
0.0
220
-0.0000000000000002
230
-1.0
 50
269.9999999999932925
 51
301.7883306170568858
  0
ARC
  5
108A
  8
0
  6
CONTINUOUS
 62
     3
 10
-39.8726731603427709
 20
534.4999999999986358
 30
0.0
 40
7.9999999999986331
210
0.0
220
-0.0000000000000002
230
-1.0
 50
238.2116693829418921
 51
270.000000000001819
  0
ARC
  5
108B
  8
0
  6
CONTINUOUS
 62
     3
 10
-39.8726731603428917
 20
465.5000000000005116
 30
0.0
 40
7.9999999999995453
210
0.0
220
-0.0000000000000002
230
-1.0
 50
89.9999999999989342
 51
121.7883306170553936
  0
LINE
  5
108C
  8
0
  6
CONTINUOUS
 62
     3
 10
39.8726731603427424
 20
473.5
 30
-0.0000000000001051
 11
36.4999999999994316
 21
473.5
 31
-0.0000000000001051
210
0.0
220
1.0
230
-0.0000000000000002
  0
LINE
  5
108D
  8
0
  6
CONTINUOUS
 62
     3
 10
39.8726731603425222
 20
526.4999999999997726
 30
-0.0000000000001169
 11
36.4999999999991971
 21
526.4999999999997726
 31
-0.0000000000001169
210
0.0
220
1.0
230
-0.0000000000000002
  0
LINE
  5
108E
  8
0
  6
VERDECKT
 62
     1
 10
-24.2943609354782701
 20
-0.0000000000000613
 30
0.0
 11
-25.0000000000005684
 21
8.0654914143632457
 31
-0.0000000000000018
210
0.0
220
1.0
230
-0.0000000000000002
  0
LINE
  5
108F
  8
0
  6
VERDECKT
 62
     1
 10
24.2943609354782808
 20
0.0000000000000107
 30
0.0
 11
25.0000000000005507
 21
8.0654914143633185
 31
-0.0000000000000018
210
0.0
220
1.0
230
-0.0000000000000002
  0
ARC
  5
1090
  8
0
  6
VERDECKT
 62
     1
 10
-36.4999999999993108
 20
463.4999999999997726
 30
0.0
 40
61.4999999999999787
210
0.0
220
-0.0000000000000002
230
-1.0
 50
360.0
 51
89.9999999999999147
  0
ARC
  5
1091
  8
0
  6
VERDECKT
 62
     1
 10
36.4999999999993534
 20
463.4999999999997726
 30
-0.0000000000001029
 40
11.5000000000000497
 50
89.9999999999996163
 51
180.0
  0
LINE
  5
1092
  8
0
  6
VERDECKT
 62
     1
 10
-24.9999999999999787
 20
8.0654914143632563
 30
-0.0000000000000018
 11
-25.0000000000006786
 21
463.4999999999997726
 31
-0.0000000000001029
210
0.0
220
1.0
230
-0.0000000000000002
  0
LINE
  5
1093
  8
0
  6
VERDECKT
 62
     1
 10
25.0000000000000213
 20
8.0654914143633274
 30
-0.0000000000000018
 11
24.9999999999993214
 21
463.4999999999998863
 31
-0.0000000000001029
210
0.0
220
1.0
230
-0.0000000000000002
  0
LINE
  5
1094
  8
0
  6
VERDECKT
 62
     1
 10
39.8726731603428632
 20
474.9999999999998863
 30
-0.0000000000001055
 11
36.4999999999994316
 21
474.9999999999998863
 31
-0.0000000000001055
210
0.0
220
1.0
230
-0.0000000000000002
  0
LINE
  5
1095
  8
0
  6
VERDECKT
 62
     1
 10
39.8726731603426288
 20
525.0
 30
-0.0000000000001166
 11
36.4999999999991971
 21
525.0
 31
-0.0000000000001166
210
0.0
220
1.0
230
-0.0000000000000002
  0
ARC
  5
1096
  8
0
  6
VERDECKT
 62
     1
 10
-39.8726731603425577
 20
534.5000000000003411
 30
0.0
 40
9.5000000000002292
210
0.0
220
-0.0000000000000002
230
-1.0
 50
238.2116693829532039
 51
269.9999999999994884
  0
ARC
  5
1097
  8
0
  6
VERDECKT
 62
     1
 10
-39.8726731603427922
 20
465.4999999999993747
 30
0.0
 40
9.5000000000004547
210
0.0
220
-0.0000000000000002
230
-1.0
 50
90.0000000000004405
 51
121.7883306170463982
  0
ARC
  5
1098
  8
0
  6
VERDECKT
 62
     1
 10
-50.4083269131963192
 20
517.4999999999961346
 30
0.0
 40
10.5000000000037499
210
0.0
220
-0.0000000000000002
230
-1.0
 50
58.2116693829513778
 51
89.9999999999932641
  0
ARC
  5
1099
  8
0
  6
VERDECKT
 62
     1
 10
-50.4083269131965608
 20
482.500000000003979
 30
0.0
 40
10.5000000000039204
210
0.0
220
-0.0000000000000002
230
-1.0
 50
270.0
 51
301.7883306170415949
  0
LINE
  5
109A
  8
0
  6
VERDECKT
 62
     1
 10
58.4999999999994387
 20
472.0000000000001137
 30
-0.0000000000001048
 11
50.4083269131953173
 21
472.0000000000001137
 31
-0.0000000000001048
210
0.0
220
1.0
230
-0.0000000000000002
  0
LINE
  5
109B
  8
0
  6
VERDECKT
 62
     1
 10
58.4999999999991971
 20
527.9999999999998863
 30
-0.0000000000001172
 11
50.4083269131950829
 21
527.9999999999998863
 31
-0.0000000000001172
210
0.0
220
1.0
230
-0.0000000000000002
  0
ARC
  5
109C
  8
0
  6
VERDECKT
 62
     1
 10
-58.4999999999989697
 20
539.5000000000003411
 30
0.0
 40
11.5000000000005702
210
0.0
220
-0.0000000000000002
230
-1.0
 50
250.5369005553133093
 51
269.9999999999988063
  0
ARC
  5
109D
  8
0
  6
VERDECKT
 62
     1
 10
-58.4999999999996874
 20
460.5000000000017053
 30
0.0
 40
11.4999999999985203
210
0.0
220
-0.0000000000000002
230
-1.0
 50
89.999999999998721
 51
109.4630994446876997
  0
ARC
  5
109E
  8
0
  6
VERDECKT
 62
     1
 10
-70.162012050620234
 20
506.4999659003166812
 30
0.0
 40
23.5000682234918088
210
0.0
220
-0.0000000000000002
230
-1.0
 50
70.5369005553107229
 51
89.9023590785595843
  0
ARC
  5
109F
  8
0
  6
VERDECKT
 62
     1
 10
-70.1620120506212004
 20
493.5000340996872978
 30
0.0
 40
23.5000682234958411
210
0.0
220
-0.0000000000000002
230
-1.0
 50
270.097640921442121
 51
289.4630994446876002
  0
LINE
  5
10A0
  8
0
  6
VERDECKT
 62
     1
 10
74.6174986573395387
 20
470.0000000000001137
 30
-0.0000000000001044
 11
70.1219642979914539
 21
470.0000000000001137
 31
-0.0000000000001044
210
0.0
220
1.0
230
-0.0000000000000002
  0
LINE
  5
10A1
  8
0
  6
VERDECKT
 62
     1
 10
74.6174986573392971
 20
530.0000000000001137
 30
-0.0000000000001177
 11
70.1219642979912123
 21
530.0000000000001137
 31
-0.0000000000001177
210
0.0
220
1.0
230
-0.0000000000000002
  0
ARC
  5
10A2
  8
0
  6
VERDECKT
 62
     1
 10
-74.6174986573383308
 20
511.9999999999996021
 30
0.0
 40
18.0000000000002807
210
0.0
220
-0.0000000000000002
230
-1.0
 50
90.0000000000030838
 51
117.7551793916145044
  0
ARC
  5
10A3
  8
0
  6
VERDECKT
 62
     1
 10
-74.617498657338345
 20
488.0000000000006253
 30
0.0
 40
18.0000000000002807
210
0.0
220
-0.0000000000000002
230
-1.0
 50
242.244820608384714
 51
269.9999999999961915
  0
ENDBLK
  5
10A5
  8
0
  0
BLOCK
  8
0
  2
A$C5F316595
 70
     0
 10
0.0
 20
0.0
 30
0.0
  3
A$C5F316595
  1

  0
ARC
  5
10A9
  8
0
  6
CONTINUOUS
 62
     3
 10
-0.0000000000005789
 20
0.0000000000000573
 30
0.0
 40
26.5
 50
180.0
 51
270.0
  0
ARC
  5
10AA
  8
0
  6
CONTINUOUS
 62
     3
 10
-0.0000000000005789
 20
0.0000000000000005
 30
0.0
 40
26.5000000000000284
 50
90.0
 51
179.9999999999998863
  0
LINE
  5
10AB
  8
0
  6
CONTINUOUS
 62
     3
 10
82.9999999999993463
 20
29.6070448491911407
 30
0.0
 11
82.9999999999993037
 21
0.000000000000032
 31
0.0
  0
LINE
  5
10AC
  8
0
  6
CONTINUOUS
 62
     3
 10
82.9999999999993463
 20
0.0000000000000219
 30
0.0
 11
82.9999999999994316
 21
-29.6070448491910483
 31
0.0
  0
LINE
  5
10AD
  8
0
  6
CONTINUOUS
 62
     3
 10
36.4999999999994316
 20
26.5000000000000284
 30
0.0
 11
-0.0000000000005755
 21
26.5000000000000284
 31
0.0
  0
LINE
  5
10AE
  8
0
  6
CONTINUOUS
 62
     3
 10
-0.0000000000005932
 20
-26.4999999999999716
 30
0.0
 11
36.4999999999994387
 21
-26.4999999999999716
 31
0.0
  0
ARC
  5
10AF
  8
0
  6
CONTINUOUS
 62
     3
 10
74.6174986573369097
 20
11.9935663871484302
 30
0.0
 40
19.50643361285141
 50
64.5495682230256307
 51
89.9999999999960067
  0
ARC
  5
10B0
  8
0
  6
CONTINUOUS
 62
     3
 10
74.6174986573369097
 20
-11.9935663871483698
 30
0.0
 40
19.50643361285141
 50
270.0000000000040927
 51
295.4504317769744262
  0
LINE
  5
10B1
  8
0
  6
CONTINUOUS
 62
     3
 10
74.6174986573382739
 20
-31.4999999999999112
 30
0.0
 11
70.1219642979914397
 21
-31.4999999999999112
 31
-0.000000000000001
  0
LINE
  5
10B2
  8
0
  6
CONTINUOUS
 62
     3
 10
74.6174986573382739
 20
31.4999999999999787
 30
0.0
 11
70.1219642979914397
 21
31.4999999999999787
 31
-0.000000000000001
  0
ARC
  5
10B3
  8
0
  6
CONTINUOUS
 62
     3
 10
70.1620000000038999
 20
6.4999999999795151
 30
0.0
 40
25.0000320571487684
 50
90.091754991768866
 51
109.4630994446839054
  0
ARC
  5
10B4
  8
0
  6
CONTINUOUS
 62
     3
 10
70.1620000000038999
 20
-6.4999999999794724
 30
0.0
 40
25.0000320571487507
 50
250.5369005553160093
 51
269.9082450082311766
  0
ARC
  5
10B5
  8
0
  6
CONTINUOUS
 62
     3
 10
58.499999999999801
 20
39.5000000000004832
 30
0.0
 40
10.0000000000005702
 50
269.9999999999992042
 51
289.4630994446832233
  0
ARC
  5
10B6
  8
0
  6
CONTINUOUS
 62
     3
 10
58.4999999999997584
 20
-39.5000000000005613
 30
0.0
 40
10.0000000000006999
 50
70.5369005553169615
 51
90.0000000000006253
  0
LINE
  5
10B7
  8
0
  6
CONTINUOUS
 62
     3
 10
58.4999999999996518
 20
-29.4999999999998508
 30
0.0
 11
50.4083269131955376
 21
-29.4999999999998508
 31
-0.0000000000000018
  0
LINE
  5
10B8
  8
0
  6
CONTINUOUS
 62
     3
 10
58.4999999999996518
 20
29.4999999999999183
 30
0.0
 11
50.4083269131955376
 21
29.4999999999999183
 31
-0.0000000000000018
  0
ARC
  5
10B9
  8
0
  6
CONTINUOUS
 62
     3
 10
50.4083269131940312
 20
17.5000000000054001
 30
0.0
 40
11.9999999999946496
 50
89.9999999999927809
 51
121.7883306170571984
  0
ARC
  5
10BA
  8
0
  6
CONTINUOUS
 62
     3
 10
50.4083269131940668
 20
-17.5000000000051692
 30
0.0
 40
11.9999999999948201
 50
238.2116693829358951
 51
270.0
  0
ARC
  5
10BB
  8
0
  6
CONTINUOUS
 62
     3
 10
39.8726731603429627
 20
34.4999999999989768
 30
0.0
 40
7.9999999999989866
 50
269.9999999999984084
 51
301.7883306170572268
  0
ARC
  5
10BC
  8
0
  6
CONTINUOUS
 62
     3
 10
39.8726731603429627
 20
-34.4999999999989484
 30
0.0
 40
7.9999999999990123
 50
58.2116693829429792
 51
90.0000000000015206
  0
LINE
  5
10BD
  8
0
  6
CONTINUOUS
 62
     3
 10
39.8726731603427424
 20
-26.4999999999999112
 30
0.0
 11
36.4999999999994316
 21
-26.4999999999999112
 31
-0.0000000000000008
  0
LINE
  5
10BE
  8
0
  6
CONTINUOUS
 62
     3
 10
39.8726731603427424
 20
26.4999999999999787
 30
0.0
 11
36.4999999999994316
 21
26.4999999999999787
 31
-0.0000000000000008
  0
CIRCLE
  5
10BF
  8
0
  6
VERDECKT
 62
     1
 10
0.0
 20
0.0000000000000005
 30
0.0
 40
24.2943609354781707
  0
CIRCLE
  5
10C0
  8
0
  6
VERDECKT
 62
     1
 10
0.0
 20
0.0000000000000005
 30
0.0
 40
25.8000906917932511
  0
CIRCLE
  5
10C1
  8
0
  6
VERDECKT
 62
     1
 10
-0.0000000000005789
 20
0.0000000000000289
 30
0.0
 40
25.0
  0
ARC
  5
10C2
  8
0
  6
VERDECKT
 62
     1
 10
-0.0000000000005789
 20
0.0000000000000289
 30
0.0
 40
26.5
 50
270.0
 51
90.0
  0
LINE
  5
10C3
  8
0
  6
VERDECKT
 62
     1
 10
36.4999999999994316
 20
25.0000000000000284
 30
0.0
 11
-0.0000000000005755
 21
25.0000000000000284
 31
0.0
  0
LINE
  5
10C4
  8
0
  6
VERDECKT
 62
     1
 10
-0.0000000000005932
 20
-24.9999999999999716
 30
0.0
 11
36.4999999999994387
 21
-24.9999999999999716
 31
0.0
  0
LINE
  5
10C5
  8
0
  6
VERDECKT
 62
     1
 10
39.8726731603428632
 20
-25.0000000000000284
 30
0.0
 11
36.4999999999994316
 21
-25.0000000000000284
 31
-0.0000000000000008
  0
LINE
  5
10C6
  8
0
  6
VERDECKT
 62
     1
 10
39.8726731603428632
 20
25.0000000000000888
 30
0.0
 11
36.4999999999994316
 21
25.0000000000000888
 31
-0.0000000000000008
  0
ARC
  5
10C7
  8
0
  6
VERDECKT
 62
     1
 10
39.8726731603427282
 20
34.5000000000008171
 30
0.0
 40
9.500000000000691
 50
270.0000000000007958
 51
301.7883306170458013
  0
ARC
  5
10C8
  8
0
  6
VERDECKT
 62
     1
 10
39.8726731603427424
 20
-34.5000000000007319
 30
0.0
 40
9.5000000000006573
 50
58.2116693829541987
 51
89.9999999999993179
  0
ARC
  5
10C9
  8
0
  6
VERDECKT
 62
     1
 10
50.4083269131965324
 20
17.4999999999961808
 30
0.0
 40
10.5000000000037605
 50
90.0000000000066365
 51
121.7883306170485014
  0
ARC
  5
10CA
  8
0
  6
VERDECKT
 62
     1
 10
50.4083269131965679
 20
-17.4999999999959712
 30
0.0
 40
10.5000000000039098
 50
238.211669382958604
 51
270.0
  0
LINE
  5
10CB
  8
0
  6
VERDECKT
 62
     1
 10
58.4999999999994316
 20
-27.9999999999998614
 30
0.0
 11
50.4083269131953102
 21
-27.9999999999998614
 31
-0.0000000000000018
  0
LINE
  5
10CC
  8
0
  6
VERDECKT
 62
     1
 10
58.4999999999994316
 20
27.9999999999999183
 30
0.0
 11
50.4083269131953102
 21
27.9999999999999183
 31
-0.0000000000000018
  0
ARC
  5
10CD
  8
0
  6
VERDECKT
 62
     1
 10
58.4999999999993321
 20
39.4999999999999787
 30
0.0
 40
11.5000000000001901
 50
270.0000000000005116
 51
289.463099444686577
  0
ARC
  5
10CE
  8
0
  6
VERDECKT
 62
     1
 10
58.4999999999993179
 20
-39.5
 30
0.0
 40
11.5000000000002593
 50
70.5369005553135651
 51
89.9999999999994458
  0
ARC
  5
10CF
  8
0
  6
VERDECKT
 62
     1
 10
70.1620120506213567
 20
6.4999659003125601
 30
0.0
 40
23.5000682234960188
 50
90.0976409214425331
 51
109.4630994446879981
  0
ARC
  5
10D0
  8
0
  6
VERDECKT
 62
     1
 10
70.1620120506213141
 20
-6.4999659003126729
 30
0.0
 40
23.5000682234958411
 50
250.5369005553120019
 51
269.9023590785574811
  0
LINE
  5
10D1
  8
0
  6
VERDECKT
 62
     1
 10
74.6174986573395245
 20
-29.9999999999999112
 30
0.0
 11
70.1219642979914397
 21
-29.9999999999999112
 31
-0.000000000000001
  0
LINE
  5
10D2
  8
0
  6
VERDECKT
 62
     1
 10
74.6174986573395245
 20
29.9999999999999787
 30
0.0
 11
70.1219642979914397
 21
29.9999999999999787
 31
-0.000000000000001
  0
ARC
  5
10D3
  8
0
  6
VERDECKT
 62
     1
 10
74.6174986573384729
 20
11.9999999999996092
 30
0.0
 40
18.0000000000002203
 50
62.244820608385119
 51
89.9999999999966604
  0
ARC
  5
10D4
  8
0
  6
VERDECKT
 62
     1
 10
74.6174986573385013
 20
-11.9999999999996803
 30
0.0
 40
18.0000000000000817
 50
270.0000000000032969
 51
297.7551793916150018
  0
ENDBLK
  5
10D6
  8
0
  0
BLOCK
  8
0
  2
A$C10D17098
 70
     0
 10
0.0
 20
0.0
 30
0.0
  3
A$C10D17098
  1

  0
LINE
  5
10DA
  8
0
  6
CONTINUOUS
 62
     3
 10
25.8000906917932511
 20
-0.0000000000000197
 30
0.0
 11
-25.8000906917932511
 21
-0.0000000000000051
 31
0.0
210
0.0000000000000002
220
1.0
230
0.0000000000000002
  0
CIRCLE
  5
10DB
  8
0
  6
CONTINUOUS
 62
     3
 10
-0.0000000000001421
 20
500.0
 30
0.0
 40
29.6070448491910909
210
0.0
220
0.0000000000000002
230
-1.0
  0
CIRCLE
  5
10DC
  8
0
  6
CONTINUOUS
 62
     3
 10
-0.0000000000001421
 20
500.0
 30
0.0
 40
31.4999999999998117
210
0.0
220
0.0000000000000002
230
-1.0
  0
CIRCLE
  5
10DD
  8
0
  6
CONTINUOUS
 62
     3
 10
-0.0000000000001421
 20
499.9999999999998863
 30
0.0
 40
25.0000000000001883
210
0.0
220
0.0000000000000002
230
-1.0
  0
CIRCLE
  5
10DE
  8
0
  6
CONTINUOUS
 62
     3
 10
-0.0000000000001421
 20
500.0
 30
0.0
 40
27.9290197827826887
210
0.0
220
0.0000000000000002
230
-1.0
  0
LINE
  5
10DF
  8
0
  6
CONTINUOUS
 62
     3
 10
-25.8000906917932404
 20
-0.0000000000000027
 30
0.0
 11
-26.5000000000004512
 21
7.9999999999997131
 31
0.0000000000000018
210
0.0000000000000002
220
1.0
230
0.0000000000000002
  0
LINE
  5
10E0
  8
0
  6
CONTINUOUS
 62
     3
 10
25.8000906917932404
 20
-0.0000000000000177
 30
0.0
 11
26.5000000000004512
 21
7.9999999999996971
 31
0.0000000000000018
210
0.0000000000000002
220
1.0
230
0.0000000000000002
  0
LINE
  5
10E1
  8
0
  6
CONTINUOUS
 62
     3
 10
26.5000000000001315
 20
463.4999999999997726
 30
0.0000000000001029
 11
26.5000000000001386
 21
482.9706136340739135
 31
0.0000000000001072
210
0.0000000000000002
220
1.0
230
0.0000000000000002
  0
LINE
  5
10E2
  8
0
  6
CONTINUOUS
 62
     3
 10
-26.4999999999998685
 20
482.9706136340739135
 30
0.0000000000001072
 11
-26.4999999999998685
 21
463.4999999999997726
 31
0.0000000000001029
210
0.0000000000000002
220
1.0
230
0.0000000000000002
  0
LINE
  5
10E3
  8
0
  6
CONTINUOUS
 62
     3
 10
-26.5
 20
7.9999999999997131
 30
0.0000000000000018
 11
-26.4999999999998685
 21
463.4999999999997726
 31
0.0000000000001029
210
0.0000000000000002
220
1.0
230
0.0000000000000002
  0
LINE
  5
10E4
  8
0
  6
CONTINUOUS
 62
     3
 10
26.5
 20
7.9999999999996971
 30
0.0000000000000018
 11
26.5000000000001315
 21
463.4999999999997726
 31
0.0000000000001029
210
0.0000000000000002
220
1.0
230
0.0000000000000002
  0
CIRCLE
  5
10E5
  8
0
  6
VERDECKT
 62
     1
 10
-0.0000000000001421
 20
499.9999999999998863
 30
0.0
 40
29.4999999999998792
210
0.0
220
0.0000000000000002
230
-1.0
  0
CIRCLE
  5
10E6
  8
0
  6
VERDECKT
 62
     1
 10
-0.0000000000001421
 20
499.9999999999998863
 30
0.0
 40
26.4999999999999716
210
0.0
220
0.0000000000000002
230
-1.0
  0
CIRCLE
  5
10E7
  8
0
  6
VERDECKT
 62
     1
 10
-0.0000000000001421
 20
499.9999999999998863
 30
0.0
 40
27.9999999999997691
210
0.0
220
0.0000000000000002
230
-1.0
  0
CIRCLE
  5
10E8
  8
0
  6
VERDECKT
 62
     1
 10
-0.0000000000001421
 20
500.0
 30
0.0
 40
29.9999999999998117
210
0.0
220
0.0000000000000002
230
-1.0
  0
LINE
  5
10E9
  8
0
  6
VERDECKT
 62
     1
 10
-24.2943609354782808
 20
-0.0000000000000177
 30
0.0
 11
-25.0000000000005613
 21
8.0654914143632883
 31
0.0000000000000018
210
0.0000000000000002
220
1.0
230
0.0000000000000002
  0
LINE
  5
10EA
  8
0
  6
VERDECKT
 62
     1
 10
24.2943609354782701
 20
-0.000000000000032
 30
0.0
 11
25.0000000000005684
 21
8.0654914143632741
 31
0.0000000000000018
210
0.0000000000000002
220
1.0
230
0.0000000000000002
  0
LINE
  5
10EB
  8
0
  6
VERDECKT
 62
     1
 10
25.0000000000001315
 20
463.4999999999997726
 30
0.0000000000001029
 11
25.0000000000001386
 21
499.9999999999997726
 31
0.000000000000111
210
0.0000000000000002
220
1.0
230
0.0000000000000002
  0
LINE
  5
10EC
  8
0
  6
VERDECKT
 62
     1
 10
-24.9999999999998614
 20
499.9999999999997726
 30
0.000000000000111
 11
-24.9999999999998685
 21
463.4999999999997726
 31
0.0000000000001029
210
0.0000000000000002
220
1.0
230
0.0000000000000002
  0
LINE
  5
10ED
  8
0
  6
VERDECKT
 62
     1
 10
-25.0
 20
8.0654914143632972
 30
0.0000000000000018
 11
-24.9999999999998685
 21
463.4999999999997726
 31
0.0000000000001029
210
0.0000000000000002
220
1.0
230
0.0000000000000002
  0
LINE
  5
10EE
  8
0
  6
VERDECKT
 62
     1
 10
25.0
 20
8.0654914143632812
 30
0.0000000000000018
 11
25.0000000000001315
 21
463.4999999999997726
 31
0.0000000000001029
210
0.0000000000000002
220
1.0
230
0.0000000000000002
  0
LINE
  5
10EF
  8
0
  6
VERDECKT
 62
     1
 10
26.5000000000001386
 20
482.9706136340739135
 30
0.0000000000001072
 11
26.5000000000001492
 21
499.9999999999997726
 31
0.000000000000111
210
0.0000000000000002
220
1.0
230
0.0000000000000002
  0
LINE
  5
10F0
  8
0
  6
VERDECKT
 62
     1
 10
-26.4999999999998614
 20
499.9999999999997726
 30
0.000000000000111
 11
-26.4999999999998685
 21
482.9706136340739135
 31
0.0000000000001072
210
0.0000000000000002
220
1.0
230
0.0000000000000002
  0
ENDBLK
  5
10F2
  8
0
  0
BLOCK
  8
0
  2
*U9
 70
     1
 10
0.0
 20
0.0
 30
0.0
  3
*U9
  1

  0
TEXT
  5
1142
  8
BEM
 62
     1
 10
231.5164240012381924
 20
545.7336869734212996
 30
0.0
 40
7.0
  1
83
 41
0.8
  0
ENDBLK
  5
1144
  8
0
  0
BLOCK
  8
0
  2
*U10
 70
     1
 10
0.0
 20
0.0
 30
0.0
  3
*U10
  1

  0
TEXT
  5
1146
  8
BEM
 62
     1
 10
234.5073900330889956
 20
465.1036595884360736
 30
0.0
 40
7.0
  1
R36.5
 50
308.7363347901094812
 41
0.8
  0
ENDBLK
  5
1148
  8
0
  0
BLOCK
  8
0
  2
*U11
 70
     1
 10
0.0
 20
0.0
 30
0.0
  3
*U11
  1

  0
TEXT
  5
114A
  8
BEM
 62
     1
 10
158.8307687890074931
 20
528.541812081438934
 30
0.0
 40
7.0
  1
90°
 50
45.0000000000001492
 41
0.8
  0
ENDBLK
  5
114C
  8
0
  0
BLOCK
  8
0
  2
*U12
 70
     1
 10
0.0
 20
0.0
 30
0.0
  3
*U12
  1

  0
TEXT
  5
1151
  8
BEM
 62
     1
 10
179.0830906679047985
 20
179.7125110610928971
 30
0.0
 40
7.0
  1
\U+220553x1.5
 41
0.8
  0
ENDBLK
  5
1153
  8
0
  0
BLOCK
  8
0
  2
*U13
 70
     1
 10
0.0
 20
0.0
 30
0.0
  3
*U13
  1

  0
TEXT
  5
1155
  8
BEM
 62
     1
 10
149.9021459658524122
 20
343.9172448045193278
 30
0.0
 40
7.0
  1
500
 50
90.0
 41
0.8
  0
ENDBLK
  5
1157
  8
0
  0
ENDSEC
  0
SECTION
  2
ENTITIES
  0
TEXT
  5
8F
  8
VOLL
 10
78.076754716981128
 20
31.025947764705851
 30
0.0
 40
1.8
  1

  7
GREEKS
  0
TEXT
  5
54E
  8
VOLL
 10
811.6938627170596874
 20
185.377088152025209
 30
0.0
 40
1.8
  1

  7
GREEKS
  0
TEXT
  5
54F
  8
TEXT
 10
1143.5261309206530314
 20
190.9353236852506939
 30
0.0
 40
2.5
  1
  
  7
GREEKS
 72
     1
 11
1145.7880356825569379
 21
190.9353236852506939
 31
0.0
  0
TEXT
  5
550
  8
BEM
 10
1387.6458482331349842
 20
326.4942057156529813
 30
0.0
 40
2.5
  1
 
 72
     4
 11
1388.7768006140870511
 21
326.4942057156529813
 31
0.0
  0
TEXT
  5
551
  8
BEM
 10
966.8334648738555188
 20
205.710499041701695
 30
0.0
 40
2.5
  1

  7
GREEKS
  0
TEXT
  5
552
  8
VOLL
 10
952.767271854134151
 20
185.5272383846665889
 30
0.0
 40
1.8
  1

  7
GREEKS
  0
TEXT
  5
553
  8
BEM
 10
987.2553366934187125
 20
190.2529627078872068
 30
0.0
 40
2.5
  1

 41
0.8
  7
GREEKS
  0
TEXT
  5
554
  8
BEM
 10
987.2553366934187125
 20
185.559194153835108
 30
0.0
 40
2.5
  1

 41
0.8
  7
GREEKS
  0
TEXT
  5
555
  8
BEM
 10
987.2553366934187125
 20
180.3213503351715872
 30
0.0
 40
2.5
  1

 41
0.8
  7
GREEKS
  0
TEXT
  5
556
  8
BEM
 10
987.1823922160442635
 20
175.8161613850739116
 30
0.0
 40
1.8
  1

 41
0.8
  7
GREEKS
  0
TEXT
  5
557
  8
BEM
 10
974.4988213364331386
 20
201.4077504812993027
 30
0.0
 40
2.0
  1

 41
0.8
  7
GREEKS
 72
     1
 11
974.4988213364331386
 21
201.4077504812993027
 31
0.0
  0
TEXT
  5
558
  8
TEXT
 10
1284.5995400577269265
 20
191.0854739178921875
 30
0.0
 40
2.5
  1
  
  7
GREEKS
 72
     1
 11
1286.8614448196319699
 21
191.0854739178921875
 31
0.0
  0
TEXT
  5
559
  8
BEM
 10
1528.7192573702091067
 20
326.6443559482945034
 30
0.0
 40
2.5
  1
 
 72
     4
 11
1529.8502097511609463
 21
326.6443559482945034
 31
0.0
  0
TEXT
  5
984
  8
VOLL
 10
801.6643842431767553
 20
234.5049609505771002
 30
0.0
 40
1.8
  1

  7
GREEKS
  0
TEXT
  5
985
  8
TEXT
 10
1133.4966524467699855
 20
240.0631964838026136
 30
0.0
 40
2.5
  1
  
  7
GREEKS
 72
     1
 11
1135.7585572086738921
 21
240.0631964838026136
 31
0.0
  0
TEXT
  5
986
  8
BEM
 10
1377.6163697592519384
 20
375.6220785142048157
 30
0.0
 40
2.5
  1
 
 72
     4
 11
1378.7473221402040053
 21
375.6220785142048157
 31
0.0
  0
TEXT
  5
987
  8
BEM
 10
956.803986399972473
 20
254.8383718402535862
 30
0.0
 40
2.5
  1

  7
GREEKS
  0
TEXT
  5
988
  8
VOLL
 10
942.7377933802509915
 20
234.6551111832185086
 30
0.0
 40
1.8
  1

  7
GREEKS
  0
TEXT
  5
989
  8
BEM
 10
977.2258582195356666
 20
239.380835506439098
 30
0.0
 40
2.5
  1

 41
0.8
  7
GREEKS
  0
TEXT
  5
98A
  8
BEM
 10
977.2258582195356666
 20
234.687066952386914
 30
0.0
 40
2.5
  1

 41
0.8
  7
GREEKS
  0
TEXT
  5
98B
  8
BEM
 10
977.2258582195356666
 20
229.4492231337233932
 30
0.0
 40
2.5
  1

 41
0.8
  7
GREEKS
  0
TEXT
  5
98C
  8
BEM
 10
977.1529137421612177
 20
224.9440341836258028
 30
0.0
 40
1.8
  1

 41
0.8
  7
GREEKS
  0
TEXT
  5
98D
  8
BEM
 10
964.4693428625500928
 20
250.5356232798511087
 30
0.0
 40
2.0
  1

 41
0.8
  7
GREEKS
 72
     1
 11
964.4693428625500928
 21
250.5356232798511087
 31
0.0
  0
TEXT
  5
98E
  8
TEXT
 10
1274.5700615838441081
 20
240.2133467164439935
 30
0.0
 40
2.5
  1
  
  7
GREEKS
 72
     1
 11
1276.8319663457489241
 21
240.2133467164439935
 31
0.0
  0
TEXT
  5
98F
  8
BEM
 10
1518.6897788963260609
 20
375.772228746846281
 30
0.0
 40
2.5
  1
 
 72
     4
 11
1519.8207312772779005
 21
375.772228746846281
 31
0.0
  0
TEXT
  5
995
  8
VOLL
 10
540.8160927980806036
 20
436.9934936901314018
 30
0.0
 40
1.8
  1

  7
GREEKS
  0
TEXT
  5
996
  8
TEXT
 10
872.6483610016734929
 20
442.5517292233569151
 30
0.0
 40
2.5
  1
  
  7
GREEKS
 72
     1
 11
874.9102657635781952
 21
442.5517292233569151
 31
0.0
  0
TEXT
  5
997
  8
BEM
 10
1116.7680783141559004
 20
578.1106112537590889
 30
0.0
 40
2.5
  1
 
 72
     4
 11
1117.8990306951079674
 21
578.1106112537590889
 31
0.0
  0
TEXT
  5
998
  8
BEM
 10
706.1617058777304692
 20
477.1467243887170753
 30
0.0
 40
2.5
  1

  7
GREEKS
  0
TEXT
  5
999
  8
VOLL
 10
692.0955128580089877
 20
456.9634637316818839
 30
0.0
 40
1.8
  1

  7
GREEKS
  0
TEXT
  5
99A
  8
BEM
 10
726.5835776972936628
 20
461.6891880549025018
 30
0.0
 40
2.5
  1

 41
0.8
  7
GREEKS
  0
TEXT
  5
99B
  8
BEM
 10
726.5835776972936628
 20
456.995419500850403
 30
0.0
 40
2.5
  1

 41
0.8
  7
GREEKS
  0
TEXT
  5
99C
  8
BEM
 10
726.5835776972936628
 20
451.7575756821868822
 30
0.0
 40
2.5
  1

 41
0.8
  7
GREEKS
  0
TEXT
  5
99D
  8
BEM
 10
726.5106332199193275
 20
447.2523867320891782
 30
0.0
 40
1.8
  1

 41
0.8
  7
GREEKS
  0
TEXT
  5
99E
  8
BEM
 10
713.8270623403079753
 20
472.8439758283145125
 30
0.0
 40
2.0
  1

 41
0.8
  7
GREEKS
 72
     1
 11
713.8270623403079753
 21
472.8439758283145125
 31
0.0
  0
TEXT
  5
99F
  8
TEXT
 10
1023.9277810616019906
 20
462.5216992649073973
 30
0.0
 40
2.5
  1
  
  7
GREEKS
 72
     1
 11
1026.189685823507034
 21
462.5216992649073973
 31
0.0
  0
TEXT
  5
9A0
  8
BEM
 10
1268.0474983740839434
 20
598.080581295309571
 30
0.0
 40
2.5
  1
 
 72
     4
 11
1269.1784507550360104
 21
598.080581295309571
 31
0.0
  0
INSERT
  5
10A6
  8
STEMPEL
  2
A$C5FA205C2
 10
0.0
 20
0.0
 30
0.0
  0
INSERT
  5
10D7
  8
STEMPEL
  2
A$C5F316595
 10
0.0
 20
-130.0
 30
0.0
  0
INSERT
  5
10F3
  8
STEMPEL
  2
A$C10D17098
 10
-160.0
 20
0.0
 30
0.0
  0
VIEWPORT
  5
EA4
 67
     1
  8
0
 10
7.9338680178657706
 20
10.9700619703264906
 30
0.0
 40
44.2846478729908668
 41
22.5540006099495294
 68
     1
 69
     1
1001
ACAD
1000
MVIEW
1002
{
1070
    16
1010
0.0
1020
0.0
1030
0.0
1010
0.0
1020
0.0
1030
1.0
1040
0.0
1040
22.5540006099495294
1040
7.9338680178657706
1040
10.9700619703264906
1040
50.0
1040
0.0
1040
0.0
1070
     0
1070
  1500
1070
     1
1070
     1
1070
     0
1070
     0
1070
     0
1070
     0
1040
0.0
1040
0.0
1040
0.0
1040
10.0
1040
10.0
1040
10.0
1040
10.0
1070
     0
1002
{
1002
}
1002
}
  0
VIEWPORT
  5
EA9
 67
     1
  8
DEFPOINTS
 10
7.933820158176708
 20
10.9699597370349906
 30
0.0
 40
16.1813674926139086
 41
22.3773960727625507
 68
     2
 69
     2
1001
ACAD
1000
MVIEW
1002
{
1070
    16
1010
1395.2525141024659661
1020
528.4834263032649915
1030
89.2251515583781867
1010
0.0
1020
0.0
1030
1.0
1040
0.0
1040
621.1924242908537508
1040
-1176.6320965938100471
1040
-224.9493558383611003
1040
50.0
1040
0.0
1040
0.0
1070
     0
1070
  1500
1070
     1
1070
     0
1070
     0
1070
     0
1070
     0
1070
     0
1040
0.0
1040
0.0
1040
0.0
1040
1.0
1040
1.0
1040
10.0
1040
10.0
1070
     0
1002
{
1002
}
1002
}
  0
VIEWPORT
  5
EAD
 67
     1
  8
DEFPOINTS
 10
11.9789945826027395
 20
10.6869622899832208
 30
0.0
 40
2.236161652673061
 41
7.1947114814807938
 68
     3
 69
     3
1001
ACAD
1000
MVIEW
1002
{
1070
    16
1010
875.3302068256103894
1020
276.5026806846734075
1030
91.5050941400594979
1010
193.3939813708529982
1020
0.0
1030
681.925321385596817
1040
1.5707963267948959
1040
545.5841660258523689
1040
34.4284399112312016
1040
0.0
1040
50.0
1040
0.0
1040
0.0
1070
     0
1070
  1500
1070
     1
1070
     0
1070
     0
1070
     0
1070
     0
1070
     0
1040
0.0
1040
0.0
1040
0.0
1040
1.0
1040
1.0
1040
10.0
1040
10.0
1070
     0
1002
{
1002
}
1002
}
  0
ENDSEC
  0
EOF
