  0
SECTION
  2
HEADER
  9
$ACADVER
  1
AC1009
  9
$INSBASE
 10
0.0
 20
0.0
 30
0.0
  9
$EXTMIN
 10
-136.5000000000001137
 20
-86.5000000000001137
 30
-0.000000000000051
  9
$EXTMAX
 10
83.0000000000000142
 20
171.5000320571282941
 30
0.0000000000000024
  9
$LIMMIN
 10
0.0
 20
0.0
  9
$LIMMAX
 10
595.0
 20
421.0
  9
$ORTHOMODE
 70
     1
  9
$REGENMODE
 70
     1
  9
$FILLMODE
 70
     1
  9
$QTEXTMODE
 70
     0
  9
$MIRRTEXT
 70
     1
  9
$DRAGMODE
 70
     2
  9
$LTSCALE
 40
10.0
  9
$OSMODE
 70
   511
  9
$ATTMODE
 70
     1
  9
$TEXTSIZE
 40
3.5
  9
$TRACEWID
 40
1.0
  9
$TEXTSTYLE
  7
STANDARD
  9
$CLAYER
  8
STEMPEL
  9
$CELTYPE
  6
BYLAYER
  9
$CECOLOR
 62
   256
  9
$DIMSCALE
 40
1.0
  9
$DIMASZ
 40
3.5
  9
$DIMEXO
 40
1.0
  9
$DIMDLI
 40
0.38
  9
$DIMRND
 40
0.0
  9
$DIMDLE
 40
0.0
  9
$DIMEXE
 40
1.0
  9
$DIMTP
 40
0.0
  9
$DIMTM
 40
0.000000001
  9
$DIMTXT
 40
3.5
  9
$DIMCEN
 40
0.09
  9
$DIMTSZ
 40
0.0
  9
$DIMTOL
 70
     0
  9
$DIMLIM
 70
     0
  9
$DIMTIH
 70
     0
  9
$DIMTOH
 70
     0
  9
$DIMSE1
 70
     0
  9
$DIMSE2
 70
     0
  9
$DIMTAD
 70
     1
  9
$DIMZIN
 70
     8
  9
$DIMBLK
  1

  9
$DIMASO
 70
     1
  9
$DIMSHO
 70
     0
  9
$DIMPOST
  1

  9
$DIMAPOST
  1

  9
$DIMALT
 70
     0
  9
$DIMALTD
 70
     2
  9
$DIMALTF
 40
25.3999999999999986
  9
$DIMLFAC
 40
1.0
  9
$DIMTOFL
 70
     1
  9
$DIMTVP
 40
0.0
  9
$DIMTIX
 70
     0
  9
$DIMSOXD
 70
     0
  9
$DIMSAH
 70
     0
  9
$DIMBLK1
  1

  9
$DIMBLK2
  1

  9
$DIMSTYLE
  2
LORO
  9
$DIMCLRD
 70
     0
  9
$DIMCLRE
 70
     0
  9
$DIMCLRT
 70
     1
  9
$DIMTFAC
 40
0.5
  9
$DIMGAP
 40
1.5
  9
$LUNITS
 70
     2
  9
$LUPREC
 70
     2
  9
$SKETCHINC
 40
1.0
  9
$FILLETRAD
 40
0.0
  9
$AUNITS
 70
     0
  9
$AUPREC
 70
     0
  9
$MENU
  1
ACAD
  9
$ELEVATION
 40
0.0
  9
$PELEVATION
 40
0.0
  9
$THICKNESS
 40
0.0
  9
$LIMCHECK
 70
     0
  9
$BLIPMODE
 70
     0
  9
$CHAMFERA
 40
0.0
  9
$CHAMFERB
 40
0.0
  9
$SKPOLY
 70
     0
  9
$TDCREATE
 40
2458101.3126273150555789
  9
$TDUPDATE
 40
2460539.4696180559694767
  9
$TDINDWG
 40
1.4354398148
  9
$TDUSRTIMER
 40
1.4354050925999999
  9
$USRTIMER
 70
     1
  9
$ANGBASE
 50
0.0
  9
$ANGDIR
 70
     0
  9
$PDMODE
 70
     0
  9
$PDSIZE
 40
0.0
  9
$PLINEWID
 40
0.0
  9
$COORDS
 70
     1
  9
$SPLFRAME
 70
     0
  9
$SPLINETYPE
 70
     6
  9
$SPLINESEGS
 70
     8
  9
$ATTDIA
 70
     1
  9
$ATTREQ
 70
     1
  9
$HANDLING
 70
     1
  9
$HANDSEED
  5
C80B
  9
$SURFTAB1
 70
     6
  9
$SURFTAB2
 70
     6
  9
$SURFTYPE
 70
     6
  9
$SURFU
 70
     6
  9
$SURFV
 70
     6
  9
$UCSNAME
  2

  9
$UCSORG
 10
0.0
 20
0.0
 30
0.0
  9
$UCSXDIR
 10
1.0
 20
0.0
 30
0.0
  9
$UCSYDIR
 10
0.0
 20
1.0
 30
0.0
  9
$PUCSNAME
  2

  9
$PUCSORG
 10
0.0
 20
0.0
 30
0.0
  9
$PUCSXDIR
 10
1.0
 20
0.0
 30
0.0
  9
$PUCSYDIR
 10
0.0
 20
1.0
 30
0.0
  9
$USERI1
 70
     0
  9
$USERI2
 70
     0
  9
$USERI3
 70
     0
  9
$USERI4
 70
     0
  9
$USERI5
 70
     0
  9
$USERR1
 40
0.0
  9
$USERR2
 40
0.0
  9
$USERR3
 40
0.0
  9
$USERR4
 40
0.0
  9
$USERR5
 40
0.0
  9
$WORLDVIEW
 70
     1
  9
$SHADEDGE
 70
     3
  9
$SHADEDIF
 70
    70
  9
$TILEMODE
 70
     1
  9
$MAXACTVP
 70
    16
  9
$PLIMCHECK
 70
     0
  9
$PEXTMIN
 10
49.1800260626464478
 20
312.7344660596128278
 30
0.0
  9
$PEXTMAX
 10
186.1232207856241985
 20
375.4999995112406168
 30
0.0
  9
$PLIMMIN
 10
-0.2447500984323199
 20
-0.2499997494781497
  9
$PLIMMAX
 10
296.7552499015677085
 20
419.7500002505219072
  9
$UNITMODE
 70
     0
  9
$VISRETAIN
 70
     0
  9
$PLINEGEN
 70
     0
  9
$PSLTSCALE
 70
     0
  0
ENDSEC
  0
SECTION
  2
TABLES
  0
TABLE
  2
VPORT
 70
     1
  0
VPORT
  2
*ACTIVE
 70
     0
 10
0.0
 20
0.0
 11
1.0
 21
1.0
 12
-50.0
 22
0.0000160285640902
 13
0.0
 23
0.0
 14
1.0
 24
1.0
 15
10.0
 25
10.0
 16
-0.0000000000001776
 26
0.0
 36
801.7844252196573507
 17
23.25
 27
42.5
 37
-0.0000000000000178
 40
259.3299291295878106
 41
1.8847807394668961
 42
50.0
 43
0.0
 44
0.0
 50
0.0
 51
0.0
 71
     0
 72
  1500
 73
     1
 74
     1
 75
     0
 76
     0
 77
     0
 78
     0
  0
ENDTAB
  0
TABLE
  2
LTYPE
 70
     3
  0
LTYPE
  2
CONTINUOUS
 70
     0
  3
Solid line
 72
    65
 73
     0
 40
0.0
  0
LTYPE
  2
STRICHPUNKT
 70
     0
  3
__ . __ . __ . __ . __ . __ . __ . __ . __ . __
 72
    65
 73
     4
 40
1.0
 49
0.5
 49
-0.25
 49
0.0
 49
-0.25
  0
LTYPE
  2
VERDECKT
 70
     0
  3
Verdeckt __ __ __ __ __ __ __ __ __ __ __ __ __
 72
    65
 73
     2
 40
0.375
 49
0.25
 49
-0.125
  0
ENDTAB
  0
TABLE
  2
LAYER
 70
     6
  0
LAYER
  2
0
 70
     0
 62
     7
  6
CONTINUOUS
  0
LAYER
  2
STEMPEL
 70
     0
 62
     3
  6
CONTINUOUS
  0
LAYER
  2
ADSK_ASSOC_ENTITY_BACKUPS
 70
     1
 62
    -7
  6
CONTINUOUS
  0
LAYER
  2
INDEX
 70
     0
 62
  -255
  6
CONTINUOUS
  0
ENDTAB
  0
TABLE
  2
STYLE
 70
     2
  0
STYLE
  2
STANDARD
 70
     0
 40
0.0
 41
0.8
 50
0.0
 71
     0
 42
3.5
  3
simplex.shx
  4

  0
STYLE
  2
GREEKS
 70
     0
 40
0.0
 41
0.8
 50
0.0
 71
     0
 42
2.5
  3
SIMPLEX.shx
  4

  0
ENDTAB
  0
TABLE
  2
VIEW
 70
     0
  0
ENDTAB
  0
TABLE
  2
UCS
 70
     0
  0
ENDTAB
  0
TABLE
  2
APPID
 70
    47
  0
APPID
  2
ACAD
 70
     0
  0
APPID
  2
ACAD_NAV_VCDISPLAY
 70
     0
  0
APPID
  2
ACAD_EXEMPT_FROM_CAD_STANDARDS
 70
     0
  0
APPID
  2
ACAD_PSEXT
 70
     0
  0
APPID
  2
ACAUTHENVIRON
 70
     0
  0
APPID
  2
ACDBDYNAMICBLOCKTRUENAME
 70
     0
  0
APPID
  2
ACDBDYNAMICBLOCKGUID
 70
     0
  0
APPID
  2
ACAECLAYERSTANDARD
 70
     0
  0
APPID
  2
ACCMTRANSPARENCY
 70
     0
  0
APPID
  2
ACAD_STEPID
 70
     0
  0
APPID
  2
ACSYNERGY
 70
     0
  0
APPID
  2
SYNERGY_BODY_TBR_ID
 70
     0
  0
APPID
  2
ACAD_VIEW_EDGE_ID
 70
     0
  0
APPID
  2
ACAD_DSTYLE_DIMJAG
 70
     0
  0
APPID
  2
ACAD_DSTYLE_DIMTALN
 70
     0
  0
APPID
  2
ACADANNOMONITORALERTICONDI
 70
     0
  0
APPID
  2
ACSYNERGYSKETCH
 70
     0
  0
APPID
  2
ACAD_MODELDOC_XFORM
 70
     0
  0
APPID
  2
ACAD_DIMASSOC_CALC_DIMLFAC
 70
     0
  0
APPID
  2
ACAD_DIMASSOC_DIMLFAC
 70
     0
  0
APPID
  2
ACAD_DIMASSOC_OVERRIDDEN_D
 70
     0
  0
APPID
  2
ACADANNOPO
 70
     0
  0
APPID
  2
GRADIENTCOLOR1ACI
 70
     0
  0
APPID
  2
GRADIENTCOLOR2ACI
 70
     0
  0
APPID
  2
ACAD_DSTYLE_DIMRADIAL_EXTENSION
 70
     0
  0
APPID
  2
ACAD_MLEADERVER
 70
     0
  0
APPID
  2
ACAD_OBJECT_CHANGE_GUID
 70
     0
  0
APPID
  2
MCAD_NO_VIS
 70
     0
  0
APPID
  2
ACAD_TEMP_GRAPHIC
 70
     0
  0
APPID
  2
ACATTRIBSERVICES
 70
     0
  0
APPID
  2
DESIGNERASSEMBLIES
 70
     0
  0
APPID
  2
ACAD_DSTYLE_DIMBREAK
 70
     0
  0
APPID
  2
GENIUS_GENSCREG_15
 70
     0
  0
APPID
  2
GENIUS_GENOBJ-N-SDF_13
 70
     0
  0
APPID
  2
GENIUS_GENODEF_13
 70
     0
  0
APPID
  2
ACAD_DSTYLE_DIMARC_LENGTH_
 70
     0
  0
APPID
  2
ACAD_DSTYLE_DIM_LINETYPE
 70
     0
  0
APPID
  2
ACAD_DSTYLE_DIM_EXT1_LINETYPE
 70
     0
  0
APPID
  2
ACAD_DSTYLE_DIM_EXT2_LINETYPE
 70
     0
  0
APPID
  2
RAK
 70
     0
  0
APPID
  2
GENIUS_GENDTOL_13
 70
     0
  0
APPID
  2
ACAD_DSTYLE_DIMINSPECT
 70
     0
  0
APPID
  2
ACAD_DSTYLE_DIMANGULAR_EXT
 70
     0
  0
APPID
  2
PLOTTRANSPARENCY
 70
     0
  0
APPID
  2
PE_URL
 70
     0
  0
APPID
  2
ACADANNOAV
 70
     0
  0
APPID
  2
ACADANNOTATIVE
 70
     0
  0
ENDTAB
  0
TABLE
  2
DIMSTYLE
 70
     3
  0
DIMSTYLE
  2
LORO
 70
     0
  3

  4

  5

  6

  7

 40
1.0
 41
3.5
 42
1.0
 43
0.38
 44
1.0
 45
0.0
 46
0.0
 47
0.0
 48
0.000000001
140
3.5
141
0.09
142
0.0
143
25.3999999999999986
144
1.0
145
0.0
146
0.5
147
1.5
 71
     0
 72
     0
 73
     0
 74
     0
 75
     0
 76
     0
 77
     1
 78
     8
170
     0
171
     2
172
     1
173
     0
174
     0
175
     0
176
     0
177
     0
178
     1
  0
ENDTAB
  0
ENDSEC
  0
SECTION
  2
BLOCKS
  0
BLOCK
  8
0
  2
$MODEL_SPACE
 70
     0
 10
0.0
 20
0.0
 30
0.0
  3
$MODEL_SPACE
  1

  0
ENDBLK
  5
38
  8
0
  0
BLOCK
 67
     1
  8
0
  2
$PAPER_SPACE
 70
     0
 10
0.0
 20
0.0
 30
0.0
  3
$PAPER_SPACE
  1

  0
ENDBLK
  5
36
 67
     1
  8
0
  0
BLOCK
  8
0
  2
*S0
 70
     1
 10
0.0
 20
0.0
 30
0.0
  3
*S0
  1

  0
ENDBLK
  5
571
  8
0
  0
BLOCK
  8
0
  2
A$CCE691850
 70
     0
 10
0.0
 20
0.0
 30
0.0
  3
A$CCE691850
  1

  0
LINE
  5
C6EE
  8
0
  6
CONTINUOUS
 62
     3
 10
-26.5000000000001101
 20
103.4999999999996021
 30
-0.000000000000023
 11
26.4999999999998295
 21
103.4999999999996021
 31
-0.000000000000023
210
0.0
220
1.0
230
-0.0000000000000002
  0
LINE
  5
C6EF
  8
0
  6
CONTINUOUS
 62
     3
 10
83.0
 20
169.3953925994696021
 30
-0.0000000000000376
 11
83.0
 21
110.6046074005302984
 31
-0.0000000000000246
210
0.0
220
1.0
230
-0.0000000000000002
  0
ARC
  5
C6F0
  8
0
  6
CONTINUOUS
 62
     3
 10
-36.4999999999996021
 20
103.4999999999996021
 30
0.0
 40
62.9999999999998934
210
0.0
220
-0.0000000000000002
230
-1.0
 50
0.0
 51
89.9999999999999147
  0
ARC
  5
C6F1
  8
0
  6
CONTINUOUS
 62
     3
 10
36.4999999999996092
 20
103.4999999999996021
 30
-0.000000000000023
 40
9.9999999999998863
 50
90.0000000000000284
 51
180.0
  0
LINE
  5
C6F2
  8
0
  6
CONTINUOUS
 62
     3
 10
39.8726731603432469
 20
113.5
 30
-0.0000000000000252
 11
36.4999999999996021
 21
113.5
 31
-0.0000000000000252
210
0.0
220
1.0
230
-0.0000000000000002
  0
LINE
  5
C6F3
  8
0
  6
CONTINUOUS
 62
     3
 10
39.8726731603432611
 20
166.5
 30
-0.000000000000037
 11
36.4999999999995168
 21
166.5
 31
-0.000000000000037
210
0.0
220
1.0
230
-0.0000000000000002
  0
ARC
  5
C6F4
  8
0
  6
CONTINUOUS
 62
     3
 10
-39.8726731603426288
 20
174.5000000000019895
 30
0.0
 40
8.0000000000020197
210
0.0
220
-0.0000000000000002
230
-1.0
 50
238.2116693829491112
 51
269.9999999999955094
  0
ARC
  5
C6F5
  8
0
  6
CONTINUOUS
 62
     3
 10
-39.8726731603427069
 20
105.4999999999981952
 30
0.0
 40
8.0000000000017337
210
0.0
220
-0.0000000000000002
230
-1.0
 50
90.0000000000038938
 51
121.7883306170514004
  0
ARC
  5
C6F6
  8
0
  6
CONTINUOUS
 62
     3
 10
-50.4083269131956584
 20
157.5000000000007958
 30
0.0
 40
11.9999999999991704
210
0.0
220
-0.0000000000000002
230
-1.0
 50
58.2116693829497578
 51
90.0000000000016058
  0
ARC
  5
C6F7
  8
0
  6
CONTINUOUS
 62
     3
 10
-50.4083269131956513
 20
122.4999999999991047
 30
0.0
 40
11.9999999999991296
210
0.0
220
-0.0000000000000002
230
-1.0
 50
270.0
 51
301.7883306170518836
  0
LINE
  5
C6F8
  8
0
  6
CONTINUOUS
 62
     3
 10
61.5
 20
110.4999999999999005
 30
-0.0000000000000245
 11
50.4083269131959923
 21
110.4999999999999005
 31
-0.0000000000000245
210
0.0
220
1.0
230
-0.0000000000000002
  0
LINE
  5
C6F9
  8
0
  6
CONTINUOUS
 62
     3
 10
61.5000000000000071
 20
169.5
 30
-0.0000000000000376
 11
50.4083269131959995
 21
169.5
 31
-0.0000000000000376
210
0.0
220
1.0
230
-0.0000000000000002
  0
ARC
  5
C6FA
  8
0
  6
CONTINUOUS
 62
     3
 10
-61.5000000000004405
 20
179.4999999999978115
 30
0.0
 40
9.9999999999978968
210
0.0
220
-0.0000000000000002
230
-1.0
 50
250.5369005553091029
 51
270.0000000000025011
  0
ARC
  5
C6FB
  8
0
  6
CONTINUOUS
 62
     3
 10
-61.50000000000054
 20
100.5000000000024016
 30
0.0
 40
9.9999999999975273
210
0.0
220
-0.0000000000000002
230
-1.0
 50
89.9999999999968736
 51
109.4630994446908971
  0
ARC
  5
C6FC
  8
0
  6
CONTINUOUS
 62
     3
 10
-73.1619999999992672
 20
146.5000000000073896
 30
0.0
 40
25.0000320571208903
210
0.0
220
-0.0000000000000002
230
-1.0
 50
70.5369005553072128
 51
90.091754991973815
  0
ARC
  5
C6FD
  8
0
  6
CONTINUOUS
 62
     3
 10
-73.1619999999992956
 20
133.4999999999926104
 30
0.0
 40
25.0000320571209116
210
0.0
220
-0.0000000000000002
230
-1.0
 50
269.9082450080263129
 51
289.463099444692773
  0
LINE
  5
C6FE
  8
0
  6
CONTINUOUS
 62
     3
 10
73.7672344500574013
 20
108.4999999999999005
 30
-0.0000000000000241
 11
73.2020357021011137
 21
108.4999999999999005
 31
-0.0000000000000241
210
0.0
220
1.0
230
-0.0000000000000002
  0
LINE
  5
C6FF
  8
0
  6
CONTINUOUS
 62
     3
 10
73.7672344500574013
 20
171.5
 30
-0.0000000000000381
 11
73.2020357021011137
 21
171.5
 31
-0.0000000000000381
210
0.0
220
1.0
230
-0.0000000000000002
  0
ARC
  5
C700
  8
0
  6
CONTINUOUS
 62
     3
 10
-73.7672344500583534
 20
151.0000000000046896
 30
0.0
 40
20.4999999999952784
210
0.0
220
-0.0000000000000002
230
-1.0
 50
89.9999999999972857
 51
111.5243488256521971
  0
ARC
  5
C701
  8
0
  6
CONTINUOUS
 62
     3
 10
-73.7672344500583534
 20
128.9999999999951967
 30
0.0
 40
20.4999999999952784
210
0.0
220
-0.0000000000000002
230
-1.0
 50
248.4756511743476892
 51
270.0000000000026716
  0
LINE
  5
C702
  8
0
  6
CONTINUOUS
 62
     3
 10
83.0
 20
110.6046074005301989
 30
-0.0000000000000246
 11
81.2886145562253546
 21
109.9296344739135947
 31
-0.0000000000000244
210
0.0
220
1.0
230
-0.0000000000000002
  0
LINE
  5
C703
  8
0
  6
CONTINUOUS
 62
     3
 10
83.0
 20
169.3953925994696021
 30
-0.0000000000000376
 11
81.2886145562253546
 21
170.0703655260863059
 31
-0.0000000000000378
210
0.0
220
1.0
230
-0.0000000000000002
  0
LINE
  5
C704
  8
0
  6
CONTINUOUS
 62
     3
 10
-35.5
 20
-0.0000000000000052
 30
0.0
 11
35.5
 21
-0.0000000000000052
 31
0.0
210
0.0
220
1.0
230
-0.0000000000000002
  0
LINE
  5
C705
  8
0
  6
CONTINUOUS
 62
     3
 10
26.4999999999998899
 20
103.4999999999996021
 30
-0.000000000000023
 11
-26.4999999999998899
 21
103.4999999999996021
 31
-0.000000000000023
210
0.0
220
1.0
230
-0.0000000000000002
  0
ARC
  5
C706
  8
0
  6
CONTINUOUS
 62
     3
 10
35.5000000000013927
 20
8.062257748298931
 30
0.0
 40
0.9999999999987212
210
0.0
220
-0.0000000000000002
230
-1.0
 50
352.8749836510922933
 51
0.0000000000043764
  0
ARC
  5
C707
  8
0
  6
CONTINUOUS
 62
     3
 10
-35.5000000000014495
 20
8.0622577482989257
 30
0.0
 40
0.9999999999986712
210
0.0
220
-0.0000000000000002
230
-1.0
 50
179.9999999999953104
 51
187.125016348907792
  0
LINE
  5
C708
  8
0
  6
CONTINUOUS
 62
     3
 10
36.5000000000001066
 20
66.8049846171838055
 30
-0.0000000000000148
 11
36.5000000000001066
 21
8.0622577482990057
 31
-0.0000000000000018
210
0.0
220
1.0
230
-0.0000000000000002
  0
LINE
  5
C709
  8
0
  6
CONTINUOUS
 62
     3
 10
-36.5000000000001066
 20
66.8049846171838055
 30
-0.0000000000000148
 11
-36.5000000000001066
 21
8.0622577482990057
 31
-0.0000000000000018
210
0.0
220
1.0
230
-0.0000000000000002
  0
LINE
  5
C70A
  8
0
  6
CONTINUOUS
 62
     3
 10
-35.4999999999999432
 20
0.0000000000000009
 30
0.0
 11
-36.4922778767137785
 21
7.938223013709778
 31
-0.0000000000000018
210
0.0
220
1.0
230
-0.0000000000000002
  0
LINE
  5
C70B
  8
0
  6
CONTINUOUS
 62
     3
 10
35.4999999999999432
 20
0.0000000000000009
 30
0.0
 11
36.4922778767137785
 21
7.938223013709778
 31
-0.0000000000000018
210
0.0
220
1.0
230
-0.0000000000000002
  0
ARC
  5
C70C
  8
0
  6
CONTINUOUS
 62
     3
 10
-36.5000000000000924
 20
102.0975076914080972
 30
0.0
 40
10.0000000000001403
210
0.0
220
-0.0000000000000002
230
-1.0
 50
341.8472941133488803
 51
359.9999999999997726
  0
ARC
  5
C70D
  8
0
  6
CONTINUOUS
 62
     3
 10
36.5000000000000924
 20
102.0975076914080972
 30
0.0
 40
10.0000000000001403
210
0.0
220
-0.0000000000000002
230
-1.0
 50
180.0000000000001137
 51
198.152705886651006
  0
LINE
  5
C70E
  8
0
  6
CONTINUOUS
 62
     3
 10
26.9977045902649699
 20
98.9820009996916923
 30
-0.000000000000022
 11
35.5045908194697404
 21
73.0359980006168428
 31
-0.0000000000000162
210
0.0
220
1.0
230
-0.0000000000000002
  0
LINE
  5
C70F
  8
0
  6
CONTINUOUS
 62
     3
 10
-26.9977045902649699
 20
98.9820009996916923
 30
-0.000000000000022
 11
-35.5045908194697404
 21
73.0359980006168428
 31
-0.0000000000000162
210
0.0
220
1.0
230
-0.0000000000000002
  0
LINE
  5
C710
  8
0
  6
CONTINUOUS
 62
     3
 10
-26.4999999999999503
 20
102.0975076914080972
 30
-0.0000000000000227
 11
-26.4999999999999503
 21
103.4999999999996021
 31
-0.000000000000023
210
0.0
220
1.0
230
-0.0000000000000002
  0
LINE
  5
C711
  8
0
  6
CONTINUOUS
 62
     3
 10
26.4999999999999503
 20
102.0975076914080972
 30
-0.0000000000000227
 11
26.4999999999999503
 21
103.4999999999996021
 31
-0.000000000000023
210
0.0
220
1.0
230
-0.0000000000000002
  0
ARC
  5
C712
  8
0
  6
CONTINUOUS
 62
     3
 10
-16.499999999929269
 20
66.8049846171721242
 30
0.0
 40
20.0000000000707203
210
0.0
220
-0.0000000000000002
230
-1.0
 50
161.8472941133792062
 51
179.9999999999664908
  0
ARC
  5
C713
  8
0
  6
CONTINUOUS
 62
     3
 10
16.4999999999292299
 20
66.8049846171720958
 30
0.0
 40
20.0000000000707701
210
0.0
220
-0.0000000000000002
230
-1.0
 50
0.0000000000335485
 51
18.1527058866207511
  0
LINE
  5
C714
  8
0
  6
VERDECKT
 62
     1
 10
82.4496551141828036
 20
167.9999999999998863
 30
-0.0000000000000373
 11
82.4496551141828036
 21
111.9999999999999005
 31
-0.0000000000000249
210
0.0
220
1.0
230
-0.0000000000000002
  0
ARC
  5
C715
  8
0
  6
VERDECKT
 62
     1
 10
-36.4999999999995808
 20
103.4999999999996021
 30
0.0
 40
61.4999999999999787
210
0.0
220
-0.0000000000000002
230
-1.0
 50
0.0
 51
89.9999999999999858
  0
ARC
  5
C716
  8
0
  6
VERDECKT
 62
     1
 10
36.4999999999995879
 20
103.4999999999996021
 30
-0.000000000000023
 40
11.4999999999999805
 50
90.0000000000002984
 51
180.0000000000005969
  0
LINE
  5
C717
  8
0
  6
VERDECKT
 62
     1
 10
39.8726731603431972
 20
114.9999999999999005
 30
-0.0000000000000255
 11
36.4999999999995168
 21
114.9999999999999005
 31
-0.0000000000000255
210
0.0
220
1.0
230
-0.0000000000000002
  0
LINE
  5
C718
  8
0
  6
VERDECKT
 62
     1
 10
39.8726731603432114
 20
164.9999999999998863
 30
-0.0000000000000366
 11
36.4999999999995168
 21
164.9999999999998863
 31
-0.0000000000000366
210
0.0
220
1.0
230
-0.0000000000000002
  0
LINE
  5
C719
  8
0
  6
VERDECKT
 62
     1
 10
82.4496551141828036
 20
111.9999999999999005
 30
-0.0000000000000249
 11
80.738269670408215
 21
111.3250270733832963
 31
-0.0000000000000247
210
0.0
220
1.0
230
-0.0000000000000002
  0
LINE
  5
C71A
  8
0
  6
VERDECKT
 62
     1
 10
82.4496551141828036
 20
167.9999999999998863
 30
-0.0000000000000373
 11
80.738269670408215
 21
168.67497292661659
 31
-0.0000000000000375
210
0.0
220
1.0
230
-0.0000000000000002
  0
ARC
  5
C71B
  8
0
  6
VERDECKT
 62
     1
 10
-73.7672344500565771
 20
150.9999999999944009
 30
0.0
 40
19.0000000000055103
210
0.0
220
-0.0000000000000002
230
-1.0
 50
90.0000000000024869
 51
111.5243488256461006
  0
ARC
  5
C71C
  8
0
  6
VERDECKT
 62
     1
 10
-73.7672344500566908
 20
129.0000000000050875
 30
0.0
 40
19.0000000000051088
210
0.0
220
-0.0000000000000002
230
-1.0
 50
248.4756511743536862
 51
269.9999999999977831
  0
LINE
  5
C71D
  8
0
  6
VERDECKT
 62
     1
 10
73.7672344500574013
 20
109.9999999999999005
 30
-0.0000000000000244
 11
73.200816054032984
 21
109.9999999999999005
 31
-0.0000000000000244
210
0.0
220
1.0
230
-0.0000000000000002
  0
LINE
  5
C71E
  8
0
  6
VERDECKT
 62
     1
 10
73.7672344500574013
 20
170.0
 30
-0.0000000000000377
 11
73.200816054032984
 21
170.0
 31
-0.0000000000000377
210
0.0
220
1.0
230
-0.0000000000000002
  0
ARC
  5
C71F
  8
0
  6
VERDECKT
 62
     1
 10
-73.1620000000000914
 20
146.5000000000011937
 30
0.0
 40
23.5000320571268588
210
0.0
220
-0.0000000000000002
230
-1.0
 50
70.5369005553100408
 51
90.0946380447186499
  0
ARC
  5
C720
  8
0
  6
VERDECKT
 62
     1
 10
-73.1620000000000914
 20
133.4999999999986926
 30
0.0
 40
23.5000320571268695
210
0.0
220
-0.0000000000000002
230
-1.0
 50
269.9053619552814212
 51
289.4630994446899876
  0
ARC
  5
C721
  8
0
  6
VERDECKT
 62
     1
 10
-61.4999999999997016
 20
179.5000000000040075
 30
0.0
 40
11.5000000000040092
210
0.0
220
-0.0000000000000002
230
-1.0
 50
250.5369005553162083
 51
269.9999999999988063
  0
ARC
  5
C722
  8
0
  6
VERDECKT
 62
     1
 10
-61.4999999999997016
 20
100.4999999999960067
 30
0.0
 40
11.5000000000039808
210
0.0
220
-0.0000000000000002
230
-1.0
 50
90.0000000000011937
 51
109.4630994446838059
  0
LINE
  5
C723
  8
0
  6
VERDECKT
 62
     1
 10
61.4999999999999503
 20
111.9999999999999005
 30
-0.0000000000000249
 11
50.4083269131959923
 21
111.9999999999999005
 31
-0.0000000000000249
210
0.0
220
1.0
230
-0.0000000000000002
  0
LINE
  5
C724
  8
0
  6
VERDECKT
 62
     1
 10
61.4999999999999503
 20
167.9999999999998863
 30
-0.0000000000000373
 11
50.4083269131959995
 21
167.9999999999998863
 31
-0.0000000000000373
210
0.0
220
1.0
230
-0.0000000000000002
  0
ARC
  5
C725
  8
0
  6
VERDECKT
 62
     1
 10
-50.4083269131953386
 20
157.5000000000013074
 30
0.0
 40
10.4999999999986908
210
0.0
220
-0.0000000000000002
230
-1.0
 50
58.2116693829503191
 51
90.0000000000035953
  0
ARC
  5
C726
  8
0
  6
VERDECKT
 62
     1
 10
-50.4083269131953386
 20
122.4999999999985931
 30
0.0
 40
10.4999999999986908
210
0.0
220
-0.0000000000000002
230
-1.0
 50
270.0
 51
301.788330617053191
  0
ARC
  5
C727
  8
0
  6
VERDECKT
 62
     1
 10
-39.8726731603421527
 20
174.5000000000027001
 30
0.0
 40
9.5000000000027587
210
0.0
220
-0.0000000000000002
230
-1.0
 50
238.2116693829484007
 51
269.9999999999936904
  0
ARC
  5
C728
  8
0
  6
VERDECKT
 62
     1
 10
-39.872673160342238
 20
105.4999999999974989
 30
0.0
 40
9.5000000000024158
210
0.0
220
-0.0000000000000002
230
-1.0
 50
90.0000000000057128
 51
121.7883306170520967
  0
LINE
  5
C729
  8
0
  6
VERDECKT
 62
     1
 10
82.4496551141828462
 20
167.9999999999998863
 30
-0.0000000000000373
 11
83.0000000000000142
 21
169.3953925994696021
 31
-0.0000000000000376
210
0.0
220
1.0
230
-0.0000000000000002
  0
LINE
  5
C72A
  8
0
  6
VERDECKT
 62
     1
 10
82.4496551141828462
 20
112.0
 30
-0.0000000000000249
 11
83.0000000000000142
 21
110.6046074005302984
 31
-0.0000000000000246
210
0.0
220
1.0
230
-0.0000000000000002
  0
LINE
  5
C72B
  8
0
  6
VERDECKT
 62
     1
 10
-33.9123553972581178
 20
0.1984555753427505
 30
0.0
 11
33.9123553972581178
 21
0.1984555753427505
 31
0.0
210
0.0
220
1.0
230
-0.0000000000000002
  0
ARC
  5
C72C
  8
0
  6
VERDECKT
 62
     1
 10
33.9000000000013202
 20
8.1618701455757634
 30
0.0
 40
0.999999999998778
210
0.0
220
-0.0000000000000002
230
-1.0
 50
352.8749836510925206
 51
0.0000000000044782
  0
ARC
  5
C72D
  8
0
  6
VERDECKT
 62
     1
 10
-33.9000000000012989
 20
8.1618701455757652
 30
0.0
 40
0.999999999998792
210
0.0
220
-0.0000000000000002
230
-1.0
 50
179.9999999999955946
 51
187.1250163489073941
  0
LINE
  5
C72E
  8
0
  6
VERDECKT
 62
     1
 10
-33.9123553972581178
 20
0.1984555753427509
 30
0.0
 11
-34.8922778767137629
 21
8.0378354109866077
 31
-0.0000000000000018
210
0.0
220
1.0
230
-0.0000000000000002
  0
LINE
  5
C72F
  8
0
  6
VERDECKT
 62
     1
 10
33.9123553972581178
 20
0.1984555753427509
 30
0.0
 11
34.8922778767137629
 21
8.0378354109866077
 31
-0.0000000000000018
210
0.0
220
1.0
230
-0.0000000000000002
  0
LINE
  5
C730
  8
0
  6
VERDECKT
 62
     1
 10
34.9000000000000909
 20
66.8049846171838055
 30
-0.0000000000000148
 11
34.9000000000000909
 21
8.1618701455758416
 31
-0.0000000000000018
210
0.0
220
1.0
230
-0.0000000000000002
  0
LINE
  5
C731
  8
0
  6
VERDECKT
 62
     1
 10
-34.9000000000000909
 20
66.8049846171838055
 30
-0.0000000000000148
 11
-34.9000000000000909
 21
8.1618701455758416
 31
-0.0000000000000018
210
0.0
220
1.0
230
-0.0000000000000002
  0
ARC
  5
C732
  8
0
  6
VERDECKT
 62
     1
 10
-34.899999999999828
 20
101.8419064607826954
 30
0.0
 40
9.9999999999999076
210
0.0
220
-0.0000000000000002
230
-1.0
 50
341.8472941133491076
 51
0.0000000000000369
  0
ARC
  5
C733
  8
0
  6
VERDECKT
 62
     1
 10
34.8999999999998423
 20
101.8419064607826954
 30
0.0
 40
9.9999999999999147
210
0.0
220
-0.0000000000000002
230
-1.0
 50
179.9999999999998863
 51
198.1527058866508924
  0
LINE
  5
C734
  8
0
  6
VERDECKT
 62
     1
 10
-24.8999999999999204
 20
101.8419064607826954
 30
-0.0000000000000226
 11
-24.8999999999999204
 21
103.4999999999996021
 31
-0.000000000000023
210
0.0
220
1.0
230
-0.0000000000000002
  0
LINE
  5
C735
  8
0
  6
VERDECKT
 62
     1
 10
24.8999999999999204
 20
101.8419064607826954
 30
-0.0000000000000226
 11
24.8999999999999204
 21
103.4999999999996021
 31
-0.000000000000023
210
0.0
220
1.0
230
-0.0000000000000002
  0
LINE
  5
C736
  8
0
  6
VERDECKT
 62
     1
 10
25.3977045902649294
 20
98.7263997690664041
 30
-0.0000000000000219
 11
33.9842235539118818
 21
72.537516929943024
 31
-0.0000000000000161
210
0.0
220
1.0
230
-0.0000000000000002
  0
LINE
  5
C737
  8
0
  6
VERDECKT
 62
     1
 10
-25.3977045902649188
 20
98.7263997690664183
 30
-0.0000000000000219
 11
-33.9842235539118818
 21
72.5375169299430098
 31
-0.0000000000000161
210
0.0
220
1.0
230
-0.0000000000000002
  0
ARC
  5
C738
  8
0
  6
VERDECKT
 62
     1
 10
-16.4999999999286686
 20
66.8049846171720816
 30
0.0
 40
18.4000000000713015
210
0.0
220
-0.0000000000000002
230
-1.0
 50
161.8472941133796894
 51
179.9999999999633928
  0
ARC
  5
C739
  8
0
  6
VERDECKT
 62
     1
 10
16.4999999999286686
 20
66.8049846171720816
 30
0.0
 40
18.4000000000713015
210
0.0
220
-0.0000000000000002
230
-1.0
 50
0.0000000000365128
 51
18.1527058866202893
  0
LINE
  5
C73A
  8
0
  6
VERDECKT
 62
     1
 10
33.9123553972581178
 20
0.1984555753427506
 30
0.0
 11
35.5
 21
-0.0000000000000052
 31
0.0
210
0.0
220
1.0
230
-0.0000000000000002
  0
LINE
  5
C73B
  8
0
  6
VERDECKT
 62
     1
 10
-33.9123553972581178
 20
0.1984555753427506
 30
0.0
 11
-35.5
 21
-0.0000000000000052
 31
0.0
210
0.0
220
1.0
230
-0.0000000000000002
  0
ENDBLK
  5
C73D
  8
0
  0
BLOCK
  8
0
  2
A$C9539D48B
 70
     0
 10
0.0
 20
0.0
 30
0.0
  3
A$C9539D48B
  1

  0
LINE
  5
C741
  8
0
  6
CONTINUOUS
 62
     3
 10
-26.5000000000000284
 20
103.4999999999996021
 30
-0.000000000000023
 11
-0.0000000000000374
 21
103.4999999999996021
 31
-0.000000000000023
210
0.0000000000000002
220
1.0
230
-0.0000000000000002
  0
LINE
  5
C742
  8
0
  6
CONTINUOUS
 62
     3
 10
-0.0000000000000316
 20
103.4999999999996021
 30
-0.000000000000023
 11
26.4999999999999716
 21
103.4999999999996021
 31
-0.000000000000023
210
0.0000000000000002
220
1.0
230
-0.0000000000000002
  0
CIRCLE
  5
C743
  8
0
  6
CONTINUOUS
 62
     3
 10
-0.000000000000169
 20
139.9999999999998863
 30
0.0
 40
25.0000000000000107
210
0.0
220
-0.0000000000000002
230
-1.0
  0
CIRCLE
  5
C744
  8
0
  6
CONTINUOUS
 62
     3
 10
-0.000000000000182
 20
139.9999999999998863
 30
0.0
 40
28.0000000000000107
210
0.0
220
-0.0000000000000002
230
-1.0
  0
CIRCLE
  5
C745
  8
0
  6
CONTINUOUS
 62
     3
 10
-0.0000000000001794
 20
139.9999999999998863
 30
0.0
 40
31.5000000000000107
210
0.0
220
-0.0000000000000002
230
-1.0
  0
CIRCLE
  5
C746
  8
0
  6
CONTINUOUS
 62
     3
 10
-0.0000000000001822
 20
139.9999999999998863
 30
0.0
 40
29.3953925994697016
210
0.0
220
-0.0000000000000002
230
-1.0
  0
LINE
  5
C747
  8
0
  6
CONTINUOUS
 62
     3
 10
-26.5000000000000284
 20
122.970554336676102
 30
-0.0000000000000273
 11
-26.5000000000000284
 21
103.4999999999996021
 31
-0.000000000000023
210
0.0000000000000002
220
1.0
230
-0.0000000000000002
  0
LINE
  5
C748
  8
0
  6
CONTINUOUS
 62
     3
 10
26.4999999999999716
 20
103.4999999999996021
 30
-0.000000000000023
 11
26.4999999999999787
 21
122.9705543366754057
 31
-0.0000000000000273
210
0.0000000000000002
220
1.0
230
-0.0000000000000002
  0
CIRCLE
  5
C749
  8
0
  6
CONTINUOUS
 62
     3
 10
-0.0000000000001792
 20
139.9999999999998863
 30
0.0
 40
31.5000320571283083
210
0.0
220
-0.0000000000000002
230
-1.0
  0
LINE
  5
C74A
  8
0
  6
CONTINUOUS
 62
     3
 10
-35.5
 20
0.0000000000000049
 30
0.0
 11
35.5
 21
-0.0000000000000153
 31
0.0
210
0.0000000000000002
220
1.0
230
-0.0000000000000002
  0
LINE
  5
C74B
  8
0
  6
CONTINUOUS
 62
     3
 10
26.4999999999998508
 20
103.4999999999996021
 30
-0.000000000000023
 11
0.000000000000023
 21
103.4999999999996021
 31
-0.000000000000023
210
0.0000000000000002
220
1.0
230
-0.0000000000000002
  0
LINE
  5
C74C
  8
0
  6
CONTINUOUS
 62
     3
 10
0.0000000000000252
 20
103.4999999999996021
 30
-0.000000000000023
 11
-26.4999999999998685
 21
103.4999999999996021
 31
-0.000000000000023
210
0.0000000000000002
220
1.0
230
-0.0000000000000002
  0
ARC
  5
C74D
  8
0
  6
CONTINUOUS
 62
     3
 10
35.5000000000013927
 20
8.0622577482989382
 30
0.0
 40
0.9999999999987212
210
0.0
220
-0.0000000000000002
230
-1.0
 50
352.8749836510922933
 51
0.0000000000043892
  0
ARC
  5
C74E
  8
0
  6
CONTINUOUS
 62
     3
 10
-35.5000000000013785
 20
8.0622577482989204
 30
0.0
 40
0.9999999999987353
210
0.0
220
-0.0000000000000002
230
-1.0
 50
179.9999999999955094
 51
187.1250163489075931
  0
LINE
  5
C74F
  8
0
  6
CONTINUOUS
 62
     3
 10
36.5000000000001279
 20
66.8049846171837913
 30
-0.0000000000000148
 11
36.5000000000001066
 21
8.0622577482989968
 31
-0.0000000000000018
210
0.0000000000000002
220
1.0
230
-0.0000000000000002
  0
LINE
  5
C750
  8
0
  6
CONTINUOUS
 62
     3
 10
-36.5000000000000995
 20
66.8049846171838198
 30
-0.0000000000000148
 11
-36.5000000000001066
 21
8.0622577482990145
 31
-0.0000000000000018
210
0.0000000000000002
220
1.0
230
-0.0000000000000002
  0
LINE
  5
C751
  8
0
  6
CONTINUOUS
 62
     3
 10
-35.4999999999999432
 20
0.0000000000000119
 30
0.0
 11
-36.4922778767137785
 21
7.9382230137097878
 31
-0.0000000000000018
210
0.0000000000000002
220
1.0
230
-0.0000000000000002
  0
LINE
  5
C752
  8
0
  6
CONTINUOUS
 62
     3
 10
35.4999999999999432
 20
-0.0000000000000092
 30
0.0
 11
36.4922778767137785
 21
7.9382230137097674
 31
-0.0000000000000018
210
0.0000000000000002
220
1.0
230
-0.0000000000000002
  0
ARC
  5
C753
  8
0
  6
CONTINUOUS
 62
     3
 10
-36.4999999999998721
 20
102.0975076914079978
 30
0.0
 40
9.9999999999999094
210
0.0
220
-0.0000000000000002
230
-1.0
 50
341.8472941133484824
 51
0.0000000000001005
  0
ARC
  5
C754
  8
0
  6
CONTINUOUS
 62
     3
 10
36.4999999999999716
 20
102.0975076914080972
 30
0.0
 40
10.0000000000000409
210
0.0
220
-0.0000000000000002
230
-1.0
 50
180.0000000000001137
 51
198.152705886651006
  0
LINE
  5
C755
  8
0
  6
CONTINUOUS
 62
     3
 10
26.9977045902649984
 20
98.9820009996916639
 30
-0.000000000000022
 11
35.5045908194697475
 21
73.0359980006168144
 31
-0.0000000000000162
210
0.0000000000000002
220
1.0
230
-0.0000000000000002
  0
LINE
  5
C756
  8
0
  6
CONTINUOUS
 62
     3
 10
-26.9977045902649415
 20
98.9820009996917349
 30
-0.000000000000022
 11
-35.5045908194697333
 21
73.035998000616857
 31
-0.0000000000000162
210
0.0000000000000002
220
1.0
230
-0.0000000000000002
  0
LINE
  5
C757
  8
0
  6
CONTINUOUS
 62
     3
 10
-26.4999999999999183
 20
102.0975076914080972
 30
-0.0000000000000227
 11
-26.4999999999999183
 21
103.4999999999996021
 31
-0.000000000000023
210
0.0000000000000002
220
1.0
230
-0.0000000000000002
  0
LINE
  5
C758
  8
0
  6
CONTINUOUS
 62
     3
 10
26.4999999999999716
 20
102.0975076914080972
 30
-0.0000000000000227
 11
26.4999999999999716
 21
103.4999999999996021
 31
-0.000000000000023
210
0.0000000000000002
220
1.0
230
-0.0000000000000002
  0
ARC
  5
C759
  8
0
  6
CONTINUOUS
 62
     3
 10
-16.4999999999292903
 20
66.8049846171721242
 30
0.0
 40
20.000000000070731
210
0.0
220
-0.0000000000000002
230
-1.0
 50
161.8472941133792062
 51
179.9999999999664908
  0
ARC
  5
C75A
  8
0
  6
CONTINUOUS
 62
     3
 10
16.4999999999292193
 20
66.8049846171720958
 30
0.0
 40
20.0000000000707701
210
0.0
220
-0.0000000000000002
230
-1.0
 50
0.0000000000335612
 51
18.1527058866207582
  0
CIRCLE
  5
C75B
  8
0
  6
VERDECKT
 62
     1
 10
-0.000000000000169
 20
139.9999999999998863
 30
0.0
 40
26.5000000000000107
210
0.0
220
-0.0000000000000002
230
-1.0
  0
CIRCLE
  5
C75C
  8
0
  6
VERDECKT
 62
     1
 10
-0.0000000000001794
 20
139.9999999999998863
 30
0.0
 40
30.0000000000000107
210
0.0
220
-0.0000000000000002
230
-1.0
  0
CIRCLE
  5
C75D
  8
0
  6
VERDECKT
 62
     1
 10
-0.0000000000001756
 20
139.9999999999998863
 30
0.0
 40
29.5000000000000107
210
0.0
220
-0.0000000000000002
230
-1.0
  0
LINE
  5
C75E
  8
0
  6
VERDECKT
 62
     1
 10
24.9999999999999716
 20
103.4999999999996021
 30
-0.000000000000023
 11
24.9999999999999716
 21
139.9999999999996021
 31
-0.0000000000000311
210
0.0000000000000002
220
1.0
230
-0.0000000000000002
  0
LINE
  5
C75F
  8
0
  6
VERDECKT
 62
     1
 10
-25.0000000000000284
 20
139.9999999999996021
 30
-0.0000000000000311
 11
-25.0000000000000284
 21
103.4999999999996021
 31
-0.000000000000023
210
0.0000000000000002
220
1.0
230
-0.0000000000000002
  0
LINE
  5
C760
  8
0
  6
VERDECKT
 62
     1
 10
-26.5000000000000284
 20
139.9999999999994884
 30
-0.0000000000000311
 11
-26.5000000000000284
 21
122.970554336676102
 31
-0.0000000000000273
210
0.0000000000000002
220
1.0
230
-0.0000000000000002
  0
LINE
  5
C761
  8
0
  6
VERDECKT
 62
     1
 10
26.4999999999999787
 20
122.9705543366754057
 30
-0.0000000000000273
 11
26.4999999999999787
 21
139.9999999999994884
 31
-0.0000000000000311
210
0.0000000000000002
220
1.0
230
-0.0000000000000002
  0
CIRCLE
  5
C762
  8
0
  6
VERDECKT
 62
     1
 10
-0.0000000000001792
 20
139.9999999999998863
 30
0.0
 40
30.0000320571281591
210
0.0
220
-0.0000000000000002
230
-1.0
  0
LINE
  5
C763
  8
0
  6
VERDECKT
 62
     1
 10
-33.9123553972581178
 20
0.1984555753427601
 30
0.0
 11
33.9123553972581178
 21
0.1984555753427409
 31
0.0
210
0.0000000000000002
220
1.0
230
-0.0000000000000002
  0
ARC
  5
C764
  8
0
  6
VERDECKT
 62
     1
 10
33.9000000000013202
 20
8.1618701455757723
 30
0.0
 40
0.9999999999987782
210
0.0
220
-0.0000000000000002
230
-1.0
 50
352.8749836510925206
 51
0.0000000000044909
  0
ARC
  5
C765
  8
0
  6
VERDECKT
 62
     1
 10
-33.9000000000013273
 20
8.1618701455757545
 30
0.0
 40
0.9999999999987638
210
0.0
220
-0.0000000000000002
230
-1.0
 50
179.9999999999955094
 51
187.1250163489073941
  0
LINE
  5
C766
  8
0
  6
VERDECKT
 62
     1
 10
-33.9123553972581178
 20
0.1984555753427606
 30
0.0
 11
-34.8922778767137629
 21
8.0378354109866166
 31
-0.0000000000000018
210
0.0000000000000002
220
1.0
230
-0.0000000000000002
  0
LINE
  5
C767
  8
0
  6
VERDECKT
 62
     1
 10
33.9123553972581178
 20
0.1984555753427411
 30
0.0
 11
34.8922778767137629
 21
8.0378354109865988
 31
-0.0000000000000018
210
0.0000000000000002
220
1.0
230
-0.0000000000000002
  0
LINE
  5
C768
  8
0
  6
VERDECKT
 62
     1
 10
34.9000000000001123
 20
66.8049846171837771
 30
-0.0000000000000148
 11
34.9000000000000909
 21
8.1618701455758345
 31
-0.0000000000000018
210
0.0000000000000002
220
1.0
230
-0.0000000000000002
  0
LINE
  5
C769
  8
0
  6
VERDECKT
 62
     1
 10
-34.9000000000000767
 20
66.8049846171838198
 30
-0.0000000000000148
 11
-34.9000000000000909
 21
8.1618701455758487
 31
-0.0000000000000018
210
0.0000000000000002
220
1.0
230
-0.0000000000000002
  0
ARC
  5
C76A
  8
0
  6
VERDECKT
 62
     1
 10
-34.9000000000001123
 20
101.8419064607826954
 30
0.0
 40
10.0000000000001705
210
0.0
220
-0.0000000000000002
230
-1.0
 50
341.8472941133493919
 51
359.9999999999997726
  0
ARC
  5
C76B
  8
0
  6
VERDECKT
 62
     1
 10
34.899999999999892
 20
101.8419064607826954
 30
0.0
 40
9.9999999999999947
210
0.0
220
-0.0000000000000002
230
-1.0
 50
180.0
 51
198.1527058866508924
  0
LINE
  5
C76C
  8
0
  6
VERDECKT
 62
     1
 10
-24.8999999999998991
 20
101.8419064607826954
 30
-0.0000000000000226
 11
-24.8999999999998991
 21
103.4999999999996021
 31
-0.000000000000023
210
0.0000000000000002
220
1.0
230
-0.0000000000000002
  0
LINE
  5
C76D
  8
0
  6
VERDECKT
 62
     1
 10
24.8999999999999417
 20
101.8419064607826954
 30
-0.0000000000000226
 11
24.8999999999999417
 21
103.4999999999996021
 31
-0.000000000000023
210
0.0000000000000002
220
1.0
230
-0.0000000000000002
  0
LINE
  5
C76E
  8
0
  6
VERDECKT
 62
     1
 10
25.3977045902649401
 20
98.7263997690664326
 30
-0.0000000000000219
 11
33.9842235539119031
 21
72.5375169299429956
 31
-0.0000000000000161
210
0.0000000000000002
220
1.0
230
-0.0000000000000002
  0
LINE
  5
C76F
  8
0
  6
VERDECKT
 62
     1
 10
-25.397704590264901
 20
98.7263997690664041
 30
-0.0000000000000219
 11
-33.9842235539118676
 21
72.537516929943024
 31
-0.0000000000000161
210
0.0000000000000002
220
1.0
230
-0.0000000000000002
  0
ARC
  5
C770
  8
0
  6
VERDECKT
 62
     1
 10
-16.4999999999286402
 20
66.8049846171720532
 30
0.0
 40
18.4000000000713513
210
0.0
220
-0.0000000000000002
230
-1.0
 50
161.8472941133796894
 51
179.9999999999633928
  0
ARC
  5
C771
  8
0
  6
VERDECKT
 62
     1
 10
16.4999999999286615
 20
66.8049846171720816
 30
0.0
 40
18.4000000000713015
210
0.0
220
-0.0000000000000002
230
-1.0
 50
0.0000000000365255
 51
18.1527058866203106
  0
LINE
  5
C772
  8
0
  6
VERDECKT
 62
     1
 10
33.9123553972581178
 20
0.198455575342741
 30
0.0
 11
35.5
 21
-0.0000000000000153
 31
0.0
210
0.0000000000000002
220
1.0
230
-0.0000000000000002
  0
LINE
  5
C773
  8
0
  6
VERDECKT
 62
     1
 10
-33.9123553972581178
 20
0.1984555753427602
 30
0.0
 11
-35.5
 21
0.0000000000000048
 31
0.0
210
0.0000000000000002
220
1.0
230
-0.0000000000000002
  0
ENDBLK
  5
C775
  8
0
  0
BLOCK
  8
0
  2
A$CC2FAAFD9
 70
     0
 10
0.0
 20
0.0
 30
0.0
  3
A$CC2FAAFD9
  1

  0
ARC
  5
C779
  8
0
  6
CONTINUOUS
 62
     3
 10
-0.0000000000001934
 20
-0.0000000000000547
 30
0.0
 40
26.5
 50
90.0
 51
270.0
  0
LINE
  5
C77A
  8
0
  6
CONTINUOUS
 62
     3
 10
82.9999999999999432
 20
29.3953925994698402
 30
-0.0000000000000284
 11
82.9999999999999858
 21
-29.3953925994695418
 31
-0.0000000000000284
  0
LINE
  5
C77B
  8
0
  6
CONTINUOUS
 62
     3
 10
-0.0000000000003071
 20
-26.5000000000000497
 30
0.0
 11
36.4999999999995097
 21
-26.5000000000000604
 31
0.0
  0
LINE
  5
C77C
  8
0
  6
CONTINUOUS
 62
     3
 10
36.4999999999994671
 20
26.4999999999999503
 30
0.0
 11
-0.0000000000002984
 21
26.4999999999999503
 31
0.0
  0
LINE
  5
C77D
  8
0
  6
CONTINUOUS
 62
     3
 10
39.8726731603432327
 20
-26.4999999999998614
 30
0.0
 11
36.4999999999994884
 21
-26.4999999999998614
 31
0.0000000000000007
  0
LINE
  5
C77E
  8
0
  6
CONTINUOUS
 62
     3
 10
39.8726731603432825
 20
26.5000000000001492
 30
0.0
 11
36.4999999999994884
 21
26.5000000000001492
 31
0.0000000000000007
  0
ARC
  5
C77F
  8
0
  6
CONTINUOUS
 62
     3
 10
39.8726731603426501
 20
34.5000000000019611
 30
0.0
 40
8.0000000000017906
 50
270.0000000000044906
 51
301.7883306170513151
  0
ARC
  5
C780
  8
0
  6
CONTINUOUS
 62
     3
 10
39.8726731603426785
 20
-34.5000000000016414
 30
0.0
 40
8.0000000000017462
 50
58.2116693829486493
 51
89.9999999999960352
  0
ARC
  5
C781
  8
0
  6
CONTINUOUS
 62
     3
 10
50.4083269131956015
 20
17.5000000000011084
 30
0.0
 40
11.9999999999990301
 50
89.9999999999982947
 51
121.7883306170505051
  0
ARC
  5
C782
  8
0
  6
CONTINUOUS
 62
     3
 10
50.4083269131956087
 20
-17.5000000000008207
 30
0.0
 40
11.9999999999990301
 50
238.2116693829478038
 51
270.0
  0
LINE
  5
C783
  8
0
  6
CONTINUOUS
 62
     3
 10
61.4999999999999787
 20
-29.4999999999998614
 30
0.0
 11
50.408326913195971
 21
-29.4999999999998614
 31
0.0000000000000024
  0
LINE
  5
C784
  8
0
  6
CONTINUOUS
 62
     3
 10
61.4999999999999574
 20
29.5000000000001386
 30
0.0
 11
50.4083269131959568
 21
29.5000000000001386
 31
0.0000000000000024
  0
ARC
  5
C785
  8
0
  6
CONTINUOUS
 62
     3
 10
61.5000000000005898
 20
39.4999999999971294
 30
0.0
 40
9.9999999999969997
 50
269.9999999999964189
 51
289.4630994446915224
  0
ARC
  5
C786
  8
0
  6
CONTINUOUS
 62
     3
 10
61.5000000000006111
 20
-39.4999999999968878
 30
0.0
 40
9.9999999999970441
 50
70.5369005553085628
 51
90.0000000000035953
  0
ARC
  5
C787
  8
0
  6
CONTINUOUS
 62
     3
 10
73.1619999999993524
 20
6.5000000000070406
 30
-0.0000000000000284
 40
25.000032057121409
 50
89.9082450080264977
 51
109.4630994446926024
  0
ARC
  5
C788
  8
0
  6
CONTINUOUS
 62
     3
 10
73.1619999999993524
 20
-6.5000000000066356
 30
-0.0000000000000284
 40
25.0000320571215191
 50
250.5369005553075112
 51
270.0917549919735734
  0
LINE
  5
C789
  8
0
  6
CONTINUOUS
 62
     3
 10
73.7672344500573871
 20
-31.4999999999998508
 30
-0.0000000000000284
 11
73.2020357021010994
 21
-31.4999999999998508
 31
-0.0000000000000283
  0
LINE
  5
C78A
  8
0
  6
CONTINUOUS
 62
     3
 10
73.7672344500573587
 20
31.5000000000001492
 30
-0.0000000000000284
 11
73.202035702101071
 21
31.5000000000001492
 31
-0.0000000000000283
  0
ARC
  5
C78B
  8
0
  6
CONTINUOUS
 62
     3
 10
73.767234450058325
 20
11.0000000000048708
 30
-0.0000000000000284
 40
20.4999999999952891
 50
68.4756511743477461
 51
90.0000000000027001
  0
ARC
  5
C78C
  8
0
  6
CONTINUOUS
 62
     3
 10
73.7672344500583392
 20
-11.00000000000467
 30
-0.0000000000000284
 40
20.4999999999951896
 50
269.9999999999973284
 51
291.5243488256525097
  0
LINE
  5
C78D
  8
0
  6
CONTINUOUS
 62
     3
 10
82.9999999999999858
 20
-29.3953925994695489
 30
-0.0000000000000284
 11
81.2886145562253404
 21
-30.0703655260861993
 31
-0.000000000000028
  0
LINE
  5
C78E
  8
0
  6
CONTINUOUS
 62
     3
 10
82.9999999999999432
 20
29.3953925994698508
 30
-0.0000000000000284
 11
81.2886145562253262
 21
30.0703655260865013
 31
-0.000000000000028
  0
ARC
  5
C78F
  8
0
  6
CONTINUOUS
 62
     3
 10
-0.0000000000001284
 20
0.0000000000000853
 30
0.0
 40
36.500000000000199
 50
270.0
 51
313.4456175992066278
  0
ARC
  5
C790
  8
0
  6
CONTINUOUS
 62
     3
 10
0.0000000000000989
 20
-0.0000000000000142
 30
0.0
 40
36.5000000000000426
 50
46.5543824007932088
 51
269.9999999999997726
  0
ARC
  5
C791
  8
0
  6
CONTINUOUS
 62
     3
 10
-0.0000000000000228
 20
0.0000000000000284
 30
0.0
 40
26.4999999999998614
 50
90.000000000000469
 51
270.0000000000005116
  0
CIRCLE
  5
C792
  8
0
  6
VERDECKT
 62
     1
 10
-0.0000000000004207
 20
-0.0000000000000519
 30
0.0
 40
25.0
  0
ARC
  5
C793
  8
0
  6
VERDECKT
 62
     1
 10
-0.0000000000001934
 20
-0.0000000000000547
 30
0.0
 40
26.5
 50
269.9999999999997726
 51
0.0
  0
ARC
  5
C794
  8
0
  6
VERDECKT
 62
     1
 10
-0.0000000000001934
 20
-0.0000000000000689
 30
0.0
 40
26.5000000000000213
 50
0.0000000000000254
 51
90.0000000000002842
  0
LINE
  5
C795
  8
0
  6
VERDECKT
 62
     1
 10
82.4496551141827752
 20
28.0000000000001492
 30
-0.0000000000000284
 11
82.4496551141827752
 21
-27.9999999999998508
 31
-0.0000000000000284
  0
LINE
  5
C796
  8
0
  6
VERDECKT
 62
     1
 10
36.4999999999994671
 20
24.9999999999999503
 30
0.0
 11
-0.0000000000004121
 21
24.9999999999999503
 31
0.0
  0
LINE
  5
C797
  8
0
  6
VERDECKT
 62
     1
 10
-0.0000000000004278
 20
-25.0000000000000497
 30
0.0
 11
36.4999999999995097
 21
-25.0000000000000604
 31
0.0
  0
LINE
  5
C798
  8
0
  6
VERDECKT
 62
     1
 10
39.872673160343183
 20
-24.9999999999998614
 30
0.0
 11
36.4999999999994884
 21
-24.9999999999998614
 31
0.0000000000000007
  0
LINE
  5
C799
  8
0
  6
VERDECKT
 62
     1
 10
39.8726731603431617
 20
25.0000000000001386
 30
0.0
 11
36.4999999999994884
 21
25.0000000000001386
 31
0.0000000000000007
  0
LINE
  5
C79A
  8
0
  6
VERDECKT
 62
     1
 10
82.4496551141827752
 20
-27.9999999999998508
 30
-0.0000000000000284
 11
80.738269670408215
 21
-28.6749729266165012
 31
-0.000000000000028
  0
LINE
  5
C79B
  8
0
  6
VERDECKT
 62
     1
 10
82.4496551141827752
 20
28.0000000000001492
 30
-0.0000000000000284
 11
80.7382696704081724
 21
28.6749729266167996
 31
-0.000000000000028
  0
ARC
  5
C79C
  8
0
  6
VERDECKT
 62
     1
 10
73.7672344500565487
 20
10.9999999999945306
 30
-0.0000000000000284
 40
19.0000000000056097
 50
68.4756511743540131
 51
89.9999999999976126
  0
ARC
  5
C79D
  8
0
  6
VERDECKT
 62
     1
 10
73.7672344500566055
 20
-10.9999999999945306
 30
-0.0000000000000284
 40
19.0000000000053113
 50
270.0000000000022737
 51
291.5243488256463138
  0
LINE
  5
C79E
  8
0
  6
VERDECKT
 62
     1
 10
73.7672344500573871
 20
-29.9999999999998508
 30
-0.0000000000000284
 11
73.200816054032984
 21
-29.9999999999998508
 31
-0.0000000000000283
  0
LINE
  5
C79F
  8
0
  6
VERDECKT
 62
     1
 10
73.7672344500573587
 20
30.0000000000001492
 30
-0.0000000000000284
 11
73.2008160540329555
 21
30.0000000000001492
 31
-0.0000000000000283
  0
ARC
  5
C7A0
  8
0
  6
VERDECKT
 62
     1
 10
73.162000000000134
 20
6.5000000000010081
 30
-0.0000000000000284
 40
23.5000320571272887
 50
89.9053619552815633
 51
109.4630994446898029
  0
ARC
  5
C7A1
  8
0
  6
VERDECKT
 62
     1
 10
73.162000000000134
 20
-6.5000000000007558
 30
-0.0000000000000284
 40
23.500032057127239
 50
250.5369005553102113
 51
270.094638044718522
  0
ARC
  5
C7A2
  8
0
  6
VERDECKT
 62
     1
 10
61.4999999999996234
 20
39.500000000004249
 30
0.0
 40
11.5000000000040998
 50
270.0000000000014211
 51
289.4630994446837917
  0
ARC
  5
C7A3
  8
0
  6
VERDECKT
 62
     1
 10
61.4999999999996518
 20
-39.5000000000038511
 30
0.0
 40
11.5000000000039897
 50
70.5369005553160235
 51
89.9999999999986358
  0
LINE
  5
C7A4
  8
0
  6
VERDECKT
 62
     1
 10
61.4999999999999218
 20
-27.9999999999998614
 30
0.0
 11
50.408326913195971
 21
-27.9999999999998614
 31
0.0000000000000024
  0
LINE
  5
C7A5
  8
0
  6
VERDECKT
 62
     1
 10
61.4999999999999076
 20
28.0000000000001386
 30
0.0
 11
50.4083269131959568
 21
28.0000000000001386
 31
0.0000000000000024
  0
ARC
  5
C7A6
  8
0
  6
VERDECKT
 62
     1
 10
50.4083269131952179
 20
17.5000000000017302
 30
0.0
 40
10.4999999999984297
 50
89.9999999999960067
 51
121.788330617050093
  0
ARC
  5
C7A7
  8
0
  6
VERDECKT
 62
     1
 10
50.4083269131952392
 20
-17.5000000000014495
 30
0.0
 40
10.4999999999984297
 50
238.2116693829460132
 51
270.0
  0
ARC
  5
C7A8
  8
0
  6
VERDECKT
 62
     1
 10
39.8726731603422024
 20
34.500000000002629
 30
0.0
 40
9.5000000000024922
 50
270.000000000005798
 51
301.7883306170518836
  0
ARC
  5
C7A9
  8
0
  6
VERDECKT
 62
     1
 10
39.8726731603422024
 20
-34.500000000002423
 30
0.0
 40
9.5000000000025508
 50
58.2116693829482017
 51
89.9999999999941451
  0
LINE
  5
C7AA
  8
0
  6
VERDECKT
 62
     1
 10
82.4496551141827752
 20
28.0000000000001386
 30
-0.0000000000000284
 11
82.9999999999999858
 21
29.3953925994698295
 31
-0.0000000000000285
  0
LINE
  5
C7AB
  8
0
  6
VERDECKT
 62
     1
 10
82.4496551141828178
 20
-27.9999999999998401
 30
-0.0000000000000284
 11
83.0000000000000142
 21
-29.3953925994695311
 31
-0.0000000000000285
  0
CIRCLE
  5
C7AC
  8
0
  6
VERDECKT
 62
     1
 10
0.0
 20
0.0
 30
0.0
 40
33.9123553972581178
  0
CIRCLE
  5
C7AD
  8
0
  6
VERDECKT
 62
     1
 10
-0.0000000000000147
 20
0.0
 30
0.0
 40
34.9000000000000909
  0
ARC
  5
C7AE
  8
0
  6
VERDECKT
 62
     1
 10
-0.0000000000000147
 20
0.0000000000000142
 30
0.0
 40
36.5000000000001066
 50
313.4456175992066846
 51
46.5543824007930169
  0
CIRCLE
  5
C7AF
  8
0
  6
VERDECKT
 62
     1
 10
0.0
 20
0.0
 30
0.0
 40
35.5
  0
CIRCLE
  5
C7B0
  8
0
  6
VERDECKT
 62
     1
 10
-0.0000000000000228
 20
0.0
 30
0.0
 40
24.89999999999986
  0
ARC
  5
C7B1
  8
0
  6
VERDECKT
 62
     1
 10
-0.0000000000000228
 20
0.0
 30
0.0
 40
26.4999999999998899
 50
0.0
 51
90.0000000000004832
  0
ARC
  5
C7B2
  8
0
  6
VERDECKT
 62
     1
 10
-0.0000000000000228
 20
0.0000000000000284
 30
0.0
 40
26.4999999999999112
 50
270.0
 51
0.0000000000006743
  0
ENDBLK
  5
C7B4
  8
0
  0
ENDSEC
  0
SECTION
  2
ENTITIES
  0
INSERT
  5
573
  8
ADSK_ASSOC_ENTITY_BACKUPS
  2
*S0
 10
0.0
 20
0.0
 30
0.0
  0
INSERT
  5
C73E
  8
STEMPEL
  2
A$CCE691850
 10
0.0
 20
0.0
 30
0.0
  0
INSERT
  5
C776
  8
STEMPEL
  2
A$C9539D48B
 10
-100.0
 20
0.0
 30
0.0
  0
INSERT
  5
C7B5
  8
STEMPEL
  2
A$CC2FAAFD9
 10
0.0
 20
-50.0
 30
0.0
  0
VIEWPORT
  5
45D
 67
     1
  8
0
 10
117.6516234241352947
 20
344.1172327854267223
 30
0.0
 40
137.3177172027139079
 41
72.8560698479727336
 68
     1
 69
     1
1001
ACAD
1000
MVIEW
1002
{
1070
    16
1010
0.0
1020
0.0
1030
0.0
1010
0.0
1020
0.0
1030
1.0
1040
0.0
1040
72.8560698479727336
1040
117.6516234241352947
1040
344.1172327854267223
1040
50.0
1040
0.0
1040
0.0
1070
     0
1070
  1500
1070
     1
1070
     1
1070
     0
1070
     0
1070
     0
1070
     0
1040
0.0
1040
0.0
1040
0.0
1040
10.0
1040
10.0
1040
10.0
1040
10.0
1070
     0
1002
{
1002
}
1002
}
  0
CIRCLE
  5
BE81
 67
     1
  8
INDEX
 62
   150
 10
140.2499936432805043
 20
372.9999999999997726
 30
0.0
 40
2.5
  0
TEXT
  5
BE82
 67
     1
  8
INDEX
 62
   150
 10
139.3357079289947933
 20
371.4999999999997726
 30
0.0
 40
3.0
  1
A
 41
0.8
 72
     4
 11
140.2499936432805043
 21
372.9999999999997726
 31
0.0
  0
CIRCLE
  5
BE83
 67
     1
  8
INDEX
 62
   150
 10
183.6232212960456138
 20
372.9166666666665151
 30
0.0
 40
2.5
  0
TEXT
  5
BE84
 67
     1
  8
INDEX
 62
   150
 10
182.7089355817599028
 20
371.4166666666665151
 30
0.0
 40
3.0
  1
A
 41
0.8
 72
     4
 11
183.6232212960456138
 21
372.9166666666665151
 31
0.0
  0
CIRCLE
  5
BF47
 67
     1
  8
INDEX
 62
   150
 10
51.6800263375145903
 20
315.2344665075252124
 30
0.0
 40
2.5
  0
TEXT
  5
BF48
 67
     1
  8
INDEX
 62
   150
 10
53.1800263375145903
 20
314.3201807932395013
 30
0.0
 40
3.0
  1
A
 50
90.0
 41
0.8
 72
     4
 11
51.6800263375145903
 21
315.2344665075252124
 31
0.0
  0
ENDSEC
  0
EOF
