  0
SECTION
  2
HEADER
  9
$ACADVER
  1
AC1009
  9
$INSBASE
 10
0.0
 20
0.0
 30
0.0
  9
$EXTMIN
 10
271.2732666479490717
 20
-26.5097057282103812
 30
-31.8009613917055987
  9
$EXTMAX
 10
441.7732666479495265
 20
303.2417828817702912
 30
-31.8009613917055489
  9
$LIMMIN
 10
0.0
 20
0.0
  9
$LIMMAX
 10
210.0
 20
297.0
  9
$ORTHOMODE
 70
     1
  9
$REGENMODE
 70
     1
  9
$FILLMODE
 70
     1
  9
$QTEXTMODE
 70
     0
  9
$MIRRTEXT
 70
     1
  9
$DRAGMODE
 70
     2
  9
$LTSCALE
 40
10.0
  9
$OSMODE
 70
  2495
  9
$ATTMODE
 70
     1
  9
$TEXTSIZE
 40
3.5
  9
$TRACEWID
 40
0.5
  9
$TEXTSTYLE
  7
STANDARD
  9
$CLAYER
  8
STEMPEL
  9
$CELTYPE
  6
BYLAYER
  9
$CECOLOR
 62
   256
  9
$DIMSCALE
 40
1.0
  9
$DIMASZ
 40
3.5
  9
$DIMEXO
 40
1.0
  9
$DIMDLI
 40
7.0
  9
$DIMRND
 40
0.0
  9
$DIMDLE
 40
0.0
  9
$DIMEXE
 40
1.0
  9
$DIMTP
 40
0.0
  9
$DIMTM
 40
0.0
  9
$DIMTXT
 40
3.5
  9
$DIMCEN
 40
1.5
  9
$DIMTSZ
 40
0.0
  9
$DIMTOL
 70
     0
  9
$DIMLIM
 70
     0
  9
$DIMTIH
 70
     0
  9
$DIMTOH
 70
     0
  9
$DIMSE1
 70
     0
  9
$DIMSE2
 70
     0
  9
$DIMTAD
 70
     1
  9
$DIMZIN
 70
     8
  9
$DIMBLK
  1

  9
$DIMASO
 70
     1
  9
$DIMSHO
 70
     0
  9
$DIMPOST
  1

  9
$DIMAPOST
  1

  9
$DIMALT
 70
     0
  9
$DIMALTD
 70
     2
  9
$DIMALTF
 40
25.3999999999999986
  9
$DIMLFAC
 40
2.0
  9
$DIMTOFL
 70
     1
  9
$DIMTVP
 40
0.0
  9
$DIMTIX
 70
     0
  9
$DIMSOXD
 70
     0
  9
$DIMSAH
 70
     0
  9
$DIMBLK1
  1

  9
$DIMBLK2
  1

  9
$DIMSTYLE
  2
STANDARD
  9
$DIMCLRD
 70
     0
  9
$DIMCLRE
 70
     0
  9
$DIMCLRT
 70
     1
  9
$DIMTFAC
 40
0.5
  9
$DIMGAP
 40
1.5
  9
$LUNITS
 70
     2
  9
$LUPREC
 70
     2
  9
$SKETCHINC
 40
1.0
  9
$FILLETRAD
 40
30.0
  9
$AUNITS
 70
     0
  9
$AUPREC
 70
     0
  9
$MENU
  1
ACAD
  9
$ELEVATION
 40
0.0
  9
$PELEVATION
 40
0.0
  9
$THICKNESS
 40
0.0
  9
$LIMCHECK
 70
     0
  9
$BLIPMODE
 70
     0
  9
$CHAMFERA
 40
0.0
  9
$CHAMFERB
 40
0.0
  9
$SKPOLY
 70
     0
  9
$TDCREATE
 40
2455397.8646990740671754
  9
$TDUPDATE
 40
2458968.3064814819954336
  9
$TDINDWG
 40
0.189830463
  9
$TDUSRTIMER
 40
0.189830463
  9
$USRTIMER
 70
     1
  9
$ANGBASE
 50
0.0
  9
$ANGDIR
 70
     0
  9
$PDMODE
 70
     0
  9
$PDSIZE
 40
0.0
  9
$PLINEWID
 40
0.0
  9
$COORDS
 70
     1
  9
$SPLFRAME
 70
     0
  9
$SPLINETYPE
 70
     6
  9
$SPLINESEGS
 70
     8
  9
$ATTDIA
 70
     1
  9
$ATTREQ
 70
     1
  9
$HANDLING
 70
     1
  9
$HANDSEED
  5
14EF
  9
$SURFTAB1
 70
     6
  9
$SURFTAB2
 70
     6
  9
$SURFTYPE
 70
     6
  9
$SURFU
 70
     6
  9
$SURFV
 70
     6
  9
$UCSNAME
  2

  9
$UCSORG
 10
0.0
 20
0.0
 30
0.0
  9
$UCSXDIR
 10
1.0
 20
0.0
 30
0.0
  9
$UCSYDIR
 10
0.0
 20
1.0
 30
0.0
  9
$PUCSNAME
  2

  9
$PUCSORG
 10
0.0
 20
0.0
 30
0.0
  9
$PUCSXDIR
 10
1.0
 20
0.0
 30
0.0
  9
$PUCSYDIR
 10
0.0
 20
1.0
 30
0.0
  9
$USERI1
 70
     0
  9
$USERI2
 70
     0
  9
$USERI3
 70
     0
  9
$USERI4
 70
     0
  9
$USERI5
 70
     0
  9
$USERR1
 40
0.0
  9
$USERR2
 40
0.0
  9
$USERR3
 40
0.0
  9
$USERR4
 40
0.0
  9
$USERR5
 40
0.0
  9
$WORLDVIEW
 70
     1
  9
$SHADEDGE
 70
     3
  9
$SHADEDIF
 70
    70
  9
$TILEMODE
 70
     1
  9
$MAXACTVP
 70
    16
  9
$PLIMCHECK
 70
     0
  9
$PEXTMIN
 10
1.0000000000000000E+20
 20
1.0000000000000000E+20
 30
1.0000000000000000E+20
  9
$PEXTMAX
 10
-1.0000000000000000E+20
 20
-1.0000000000000000E+20
 30
-1.0000000000000000E+20
  9
$PLIMMIN
 10
1.1640277947802311
 20
0.7307923584569985
  9
$PLIMMAX
 10
211.1640277947801962
 20
297.7307923584569949
  9
$UNITMODE
 70
     0
  9
$VISRETAIN
 70
     0
  9
$PLINEGEN
 70
     0
  9
$PSLTSCALE
 70
     0
  0
ENDSEC
  0
SECTION
  2
TABLES
  0
TABLE
  2
VPORT
 70
     1
  0
VPORT
  2
*ACTIVE
 70
     0
 10
0.0
 20
0.0
 11
1.0
 21
1.0
 12
110.6113122336708017
 22
-68.4924213447658303
 13
0.0
 23
0.0
 14
1.0
 24
1.0
 15
10.0
 25
10.0
 16
-0.0000000000002558
 26
0.0
 36
1185.1237619115809139
 17
245.9119544142785116
 27
206.8584599215458013
 37
42.8026037900920926
 40
332.1096637371080078
 41
1.7852028639618129
 42
50.0
 43
0.0
 44
0.0
 50
0.0
 51
0.0
 71
     0
 72
  1500
 73
     1
 74
     0
 75
     0
 76
     0
 77
     0
 78
     0
  0
ENDTAB
  0
TABLE
  2
LTYPE
 70
     7
  0
LTYPE
  2
CONTINUOUS
 70
     0
  3
Solid line
 72
    65
 73
     0
 40
0.0
  0
LTYPE
  2
PHANTOM2
 70
     0
  3
Phantom (.5x) ___ _ _ ___ _ _ ___ _ _ ___ _ _
 72
    65
 73
     6
 40
1.25
 49
0.625
 49
-0.125
 49
0.125
 49
-0.125
 49
0.125
 49
-0.125
  0
ENDTAB
  0
TABLE
  2
LAYER
 70
    12
  0
LAYER
  2
0
 70
     0
 62
     7
  6
CONTINUOUS
  0
LAYER
  2
VOLL
 70
     0
 62
     1
  6
CONTINUOUS
  0
LAYER
  2
STEMPEL
 70
     0
 62
     3
  6
CONTINUOUS
  0
LAYER
  2
DEFPOINTS
 70
     0
 62
     7
  6
CONTINUOUS
  0
LAYER
  2
ADSK_ASSOC_ENTITY_BACKUPS
 70
     1
 62
    -7
  6
CONTINUOUS
  0
ENDTAB
  0
TABLE
  2
STYLE
 70
     4
  0
STYLE
  2
STANDARD
 70
     0
 40
0.0
 41
0.8
 50
0.0
 71
     0
 42
3.5
  3
simplex.shx
  4

  0
STYLE
  2
GREEKS
 70
     0
 40
0.0
 41
0.8
 50
0.0
 71
     0
 42
2.5
  3
SIMPLEX.shx
  4

  0
ENDTAB
  0
TABLE
  2
VIEW
 70
     4
  0
ENDTAB
  0
TABLE
  2
UCS
 70
     0
  0
ENDTAB
  0
TABLE
  2
APPID
 70
    17
  0
APPID
  2
ACAD
 70
     0
  0
APPID
  2
ACAD_NAV_VCDISPLAY
 70
     0
  0
APPID
  2
ACAD_MLEADERVER
 70
     0
  0
APPID
  2
ACAD_EXEMPT_FROM_CAD_STANDARDS
 70
     0
  0
APPID
  2
ACAD_PSEXT
 70
     0
  0
APPID
  2
ACAECLAYERSTANDARD
 70
     0
  0
APPID
  2
ACAUTHENVIRON
 70
     0
  0
APPID
  2
ACCMTRANSPARENCY
 70
     0
  0
APPID
  2
ACSYNERGY
 70
     0
  0
APPID
  2
SYNERGY_BODY_TBR_ID
 70
     0
  0
APPID
  2
ACAD_VIEW_EDGE_ID
 70
     0
  0
APPID
  2
ACAD_STEPID
 70
     0
  0
APPID
  2
ACADANNOMONITORALERTICONDI
 70
     0
  0
APPID
  2
ACAD_DSTYLE_DIMRADIAL_EXTENSION
 70
     0
  0
APPID
  2
ACAD_DSTYLE_DIMJAG
 70
     0
  0
APPID
  2
ACAD_DSTYLE_DIMTALN
 70
     0
  0
APPID
  2
AcDbAttr
 70
     0
  0
ENDTAB
  0
TABLE
  2
DIMSTYLE
 70
     3
  0
DIMSTYLE
  2
STANDARD
 70
     0
  3

  4

  5

  6

  7

 40
1.0
 41
0.18
 42
0.0625
 43
0.38
 44
0.18
 45
0.0
 46
0.0
 47
0.0
 48
0.0
140
0.18
141
0.09
142
0.0
143
25.3999999999999986
144
1.0
145
0.0
146
1.0
147
0.09
 71
     0
 72
     0
 73
     1
 74
     1
 75
     0
 76
     0
 77
     0
 78
     0
170
     0
171
     2
172
     0
173
     0
174
     0
175
     0
176
     0
177
     0
178
     0
  0
ENDTAB
  0
ENDSEC
  0
SECTION
  2
BLOCKS
  0
BLOCK
  8
0
  2
$MODEL_SPACE
 70
     0
 10
0.0
 20
0.0
 30
0.0
  3
$MODEL_SPACE
  1

  0
ENDBLK
  5
36
  8
0
  0
BLOCK
 67
     1
  8
0
  2
$PAPER_SPACE
 70
     0
 10
0.0
 20
0.0
 30
0.0
  3
$PAPER_SPACE
  1

  0
ENDBLK
  5
34
 67
     1
  8
0
  0
BLOCK
  8
0
  2
*S4
 70
     1
 10
0.0
 20
0.0
 30
0.0
  3
*S4
  1

  0
ENDBLK
  5
A14
  8
0
  0
BLOCK
  8
0
  2
A$C07C40B69
 70
     0
 10
0.0
 20
0.0
 30
0.0
  3
A$C07C40B69
  1

  0
LINE
  5
13E4
  8
0
  6
CONTINUOUS
 10
154.5506380317947048
 20
117.0752253504689975
 30
0.0000000000000284
 11
154.5506380317947048
 21
206.0752253504689975
 31
0.0000000000000284
  0
LINE
  5
13E5
  8
0
  6
CONTINUOUS
 10
220.5506380317947901
 20
209.3406300208089021
 30
0.0000000000000426
 11
220.5506380317947901
 21
113.809820680129107
 31
0.0000000000000426
  0
LINE
  5
13E6
  8
0
  6
CONTINUOUS
 10
220.5506380317947901
 20
113.809820680129107
 30
0.0000000000000426
 11
218.3422958080450087
 21
112.7800537893674999
 31
0.0000000000000422
  0
LINE
  5
13E7
  8
0
  6
CONTINUOUS
 10
220.5506380317947901
 20
209.3406300208089021
 30
0.0000000000000426
 11
218.3422958080450087
 21
210.3703969115705092
 31
0.0000000000000422
  0
ARC
  5
13E8
  8
0
  6
CONTINUOUS
 10
207.9458865692226937
 20
188.0752253504647911
 30
0.0000000000000426
 40
24.6000000000042007
 50
65.0000000000016627
 51
89.9999999999974136
  0
ARC
  5
13E9
  8
0
  6
CONTINUOUS
 10
207.9458865692228073
 20
135.0752253504726923
 30
0.0000000000000426
 40
24.6000000000037211
 50
270.0000000000023874
 51
294.9999999999985789
  0
LINE
  5
13EA
  8
0
  6
CONTINUOUS
 10
207.9458865692238021
 20
110.4752253504691026
 30
0.0000000000000426
 11
200.9870630891944074
 21
110.4752253504691026
 31
0.0000000000000412
  0
LINE
  5
13EB
  8
0
  6
CONTINUOUS
 10
207.9458865692238021
 20
212.6752253504689918
 30
0.0000000000000426
 11
200.9870630891944074
 21
212.6752253504689918
 31
0.0000000000000412
  0
ARC
  5
13EC
  8
0
  6
CONTINUOUS
 10
200.9187830410045876
 20
187.6752253504687928
 30
0.0000000000000426
 40
25.0000932431258214
 50
89.8435140456505366
 51
115.1223681154780962
  0
ARC
  5
13ED
  8
0
  6
CONTINUOUS
 10
200.9187830410045876
 20
135.4752253504692874
 30
0.0000000000000426
 40
25.0000932431259208
 50
244.8776318845218043
 51
270.1564859543493071
  0
ARC
  5
13EE
  8
0
  6
CONTINUOUS
 10
185.210285340715302
 20
221.1752253504685939
 30
0.0000000000000426
 40
11.9999999999996803
 50
269.9999999999997726
 51
295.1223681154787073
  0
ARC
  5
13EF
  8
0
  6
CONTINUOUS
 10
185.2102853407151883
 20
101.9752253504691026
 30
0.0000000000000426
 40
12.0000000000000107
 50
64.8776318845217332
 51
89.9999999999998437
  0
LINE
  5
13F0
  8
0
  6
CONTINUOUS
 10
185.2102853407151883
 20
113.9752253504691026
 30
0.0000000000000426
 11
165.9393644492118938
 21
113.9752253504691026
 31
0.0000000000000386
  0
LINE
  5
13F1
  8
0
  6
CONTINUOUS
 10
185.2102853407151883
 20
209.1752253504689065
 30
0.0000000000000426
 11
165.9393644492118938
 21
209.1752253504689065
 31
0.0000000000000386
  0
ARC
  5
13F2
  8
0
  6
CONTINUOUS
 10
165.9393644492118938
 20
197.1752253504687076
 30
0.0000000000000284
 40
12.0000000000001901
 50
90.0000000000001421
 51
122.3280641221607965
  0
ARC
  5
13F3
  8
0
  6
CONTINUOUS
 10
165.9393644492118085
 20
125.9752253504690032
 30
0.0000000000000284
 40
11.9999999999998508
 50
237.6719358778383935
 51
270.0
  0
ARC
  5
13F4
  8
0
  6
CONTINUOUS
 10
155.2440383672262953
 20
214.0752253504695943
 30
0.0000000000000284
 40
8.0000000000005951
 50
270.0000000000002274
 51
302.3280641221610949
  0
ARC
  5
13F5
  8
0
  6
CONTINUOUS
 10
155.2440383672262953
 20
109.0752253504685001
 30
0.0000000000000284
 40
8.0000000000004974
 50
57.671935877838429
 51
90.0
  0
LINE
  5
13F6
  8
0
  6
CONTINUOUS
 10
155.244038367226409
 20
117.0752253504689975
 30
0.0000000000000284
 11
154.5506380317947048
 21
117.0752253504689975
 31
0.0000000000000283
  0
LINE
  5
13F7
  8
0
  6
CONTINUOUS
 10
155.244038367226409
 20
206.0752253504689975
 30
0.0000000000000284
 11
154.5506380317947048
 21
206.0752253504689975
 31
0.0000000000000283
  0
LINE
  5
13F8
  8
0
  6
CONTINUOUS
 10
154.5506380317945059
 20
206.0752253504689975
 30
0.0000000000000284
 11
154.5506380317947048
 21
117.0752253504689975
 31
0.0000000000000284
  0
ARC
  5
13F9
  8
0
  6
CONTINUOUS
 10
94.5506380317946054
 20
161.5752253504689975
 30
0.0000000000000213
 40
44.4999999999998579
 50
90.0
 51
270.0
  0
LINE
  5
13FA
  8
0
  6
CONTINUOUS
 10
154.5506380317947048
 20
206.0752253504689122
 30
0.0000000000000284
 11
94.5506380317946054
 21
206.0752253504689122
 31
0.0000000000000213
  0
LINE
  5
13FB
  8
0
  6
CONTINUOUS
 10
94.5506380317946054
 20
117.075225350469097
 30
0.0000000000000213
 11
154.5506380317947048
 21
117.075225350469097
 31
0.0000000000000284
  0
LINE
  5
13FC
  8
0
  6
CONTINUOUS
 62
     1
 10
219.874448813009792
 20
207.8905375615503033
 30
0.0000000000000426
 11
219.874448813009792
 21
115.2599131393877059
 31
0.0000000000000426
  0
LINE
  5
13FD
  8
0
  6
CONTINUOUS
 62
     1
 10
185.2102853407153873
 20
115.575225350469097
 30
0.0000000000000426
 11
165.9393644492118938
 21
115.575225350469097
 31
0.0000000000000386
  0
LINE
  5
13FE
  8
0
  6
CONTINUOUS
 62
     1
 10
185.2102853407153873
 20
207.5752253504689975
 30
0.0000000000000426
 11
165.9393644492118938
 21
207.5752253504689975
 31
0.0000000000000386
  0
ARC
  5
13FF
  8
0
  6
CONTINUOUS
 62
     1
 10
185.210285340715501
 20
221.1752253504687928
 30
0.0000000000000426
 40
13.5999999999997101
 50
269.9999999999997158
 51
295.1223681154783094
  0
ARC
  5
1400
  8
0
  6
CONTINUOUS
 62
     1
 10
185.210285340715501
 20
101.9752253504693016
 30
0.0000000000000426
 40
13.5999999999996604
 50
64.8776318845216338
 51
90.0000000000003553
  0
ARC
  5
1401
  8
0
  6
CONTINUOUS
 62
     1
 10
200.9187830410045024
 20
187.6752253504691055
 30
0.0000000000000426
 40
23.4000932431255286
 50
89.8382525688161877
 51
115.1223681154778973
  0
ARC
  5
1402
  8
0
  6
CONTINUOUS
 62
     1
 10
200.9187830410045876
 20
135.4752253504692021
 30
0.0000000000000426
 40
23.40009324312582
 50
244.8776318845222022
 51
270.1617474311836986
  0
LINE
  5
1403
  8
0
  6
CONTINUOUS
 62
     1
 10
207.9458865692242
 20
112.0752253504689975
 30
0.0000000000000426
 11
200.9848420068904034
 21
112.0752253504689975
 31
0.0000000000000412
  0
LINE
  5
1404
  8
0
  6
CONTINUOUS
 62
     1
 10
207.9458865692242
 20
211.0752253504689975
 30
0.0000000000000426
 11
200.9848420068904034
 21
211.0752253504689975
 31
0.0000000000000412
  0
ARC
  5
1405
  8
0
  6
CONTINUOUS
 62
     1
 10
207.9458865692230063
 20
188.0752253504660132
 30
0.0000000000000426
 40
23.0000000000030091
 50
65.0000000000011511
 51
89.9999999999969731
  0
ARC
  5
1406
  8
0
  6
CONTINUOUS
 62
     1
 10
207.9458865692230063
 20
135.0752253504722091
 30
0.0000000000000426
 40
23.0000000000032401
 50
270.0000000000031264
 51
294.9999999999985789
  0
LINE
  5
1407
  8
0
  6
CONTINUOUS
 62
     1
 10
219.874448813009792
 20
115.2599131393877059
 30
0.0000000000000426
 11
217.666106589259897
 21
114.2301462486260988
 31
0.0000000000000422
  0
LINE
  5
1408
  8
0
  6
CONTINUOUS
 62
     1
 10
219.874448813009792
 20
207.8905375615503033
 30
0.0000000000000426
 11
217.666106589259897
 21
208.9203044523119104
 31
0.0000000000000422
  0
LINE
  5
1409
  8
0
  6
CONTINUOUS
 62
     1
 10
219.874448813009792
 20
207.8905375615503033
 30
0.0000000000000426
 11
220.5506380317947901
 21
209.3406300208089021
 31
0.0000000000000428
  0
LINE
  5
140A
  8
0
  6
CONTINUOUS
 62
     1
 10
219.874448813009792
 20
115.2599131393877059
 30
0.0000000000000426
 11
220.5506380317947901
 21
113.809820680129107
 31
0.0000000000000428
  0
LINE
  5
140B
  8
0
  6
CONTINUOUS
 62
     1
 10
155.244038367226409
 20
118.675225350469006
 30
0.0000000000000284
 11
154.5506380317947048
 21
118.675225350469006
 31
0.0000000000000283
  0
LINE
  5
140C
  8
0
  6
CONTINUOUS
 62
     1
 10
155.244038367226409
 20
204.4752253504690032
 30
0.0000000000000284
 11
154.5506380317947048
 21
204.4752253504690032
 31
0.0000000000000283
  0
ARC
  5
140D
  8
0
  6
CONTINUOUS
 62
     1
 10
155.2440383672264943
 20
214.0752253504689975
 30
0.0000000000000284
 40
9.5999999999999961
 50
269.9999999999993179
 51
302.328064122162175
  0
ARC
  5
140E
  8
0
  6
CONTINUOUS
 62
     1
 10
155.2440383672262953
 20
109.0752253504683011
 30
0.0000000000000284
 40
9.6000000000007173
 50
57.6719358778392106
 51
89.9999999999998437
  0
ARC
  5
140F
  8
0
  6
CONTINUOUS
 62
     1
 10
165.9393644492118085
 20
197.1752253504691055
 30
0.0000000000000284
 40
10.3999999999997499
 50
89.9999999999995168
 51
122.328064122161706
  0
ARC
  5
1410
  8
0
  6
CONTINUOUS
 62
     1
 10
165.9393644492118938
 20
125.9752253504693016
 30
0.0000000000000284
 40
10.4000000000002402
 50
237.6719358778393882
 51
270.0
  0
CIRCLE
  5
1411
  8
0
  6
CONTINUOUS
 62
     1
 10
94.550638031794378
 20
161.5752253504689975
 30
0.0000000000000213
 40
44.0625566823703707
  0
ARC
  5
1412
  8
0
  6
CONTINUOUS
 62
     1
 10
94.5506380317946054
 20
161.5752253504689975
 30
0.0000000000000213
 40
44.4999999999999076
 50
270.0
 51
90.0
  0
CIRCLE
  5
1413
  8
0
  6
CONTINUOUS
 62
     1
 10
94.550638031794378
 20
161.5752253504689975
 30
0.0000000000000213
 40
42.4564449423011681
  0
CIRCLE
  5
1414
  8
0
  6
CONTINUOUS
 62
     1
 10
94.5506380317945059
 20
161.5752253504689975
 30
0.0000000000000213
 40
42.8999999999999986
  0
LINE
  5
1415
  8
0
  6
CONTINUOUS
 62
     1
 10
154.5506380317945911
 20
204.4752253504690032
 30
0.0000000000000284
 11
94.5506380317945059
 21
204.4752253504690032
 31
0.0000000000000213
  0
LINE
  5
1416
  8
0
  6
CONTINUOUS
 62
     1
 10
94.5506380317945059
 20
118.675225350469006
 30
0.0000000000000213
 11
154.5506380317945911
 21
118.675225350469006
 31
0.0000000000000284
  0
ENDBLK
  5
1418
  8
0
  0
BLOCK
  8
0
  2
A$CFD30302E
 70
     0
 10
0.0
 20
0.0
 30
0.0
  3
A$CFD30302E
  1

  0
LINE
  5
141C
  8
0
  6
CONTINUOUS
 10
154.5506380317947048
 20
42.7536653644007529
 30
-0.0000000000000095
 11
154.5506380317947048
 21
131.753665364400689
 31
-0.0000000000000293
210
0.0
220
1.0
230
-0.0000000000000002
  0
LINE
  5
141D
  8
0
  6
CONTINUOUS
 10
220.5506380317947901
 20
135.0190700347405937
 30
-0.00000000000003
 11
220.5506380317947901
 21
39.4882606940608625
 31
-0.0000000000000088
210
0.0
220
1.0
230
-0.0000000000000002
  0
LINE
  5
141E
  8
0
  6
CONTINUOUS
 10
220.5506380317947901
 20
39.4882606940608625
 30
-0.0000000000000088
 11
218.3422958080450087
 21
38.4584938032992625
 31
-0.0000000000000085
210
0.0
220
1.0
230
-0.0000000000000002
  0
LINE
  5
141F
  8
0
  6
CONTINUOUS
 10
220.5506380317947901
 20
135.0190700347405937
 30
-0.00000000000003
 11
218.3422958080450087
 21
136.0488369255022008
 31
-0.0000000000000302
210
0.0
220
1.0
230
-0.0000000000000002
  0
ARC
  5
1420
  8
0
  6
CONTINUOUS
 10
-207.9458865692228926
 20
113.7536653643978042
 30
0.0
 40
24.6000000000028791
210
0.0
220
-0.0000000000000002
230
-1.0
 50
90.0000000000019753
 51
114.9999999999990052
  0
ARC
  5
1421
  8
0
  6
CONTINUOUS
 10
-207.9458865692226937
 20
60.7536653644044691
 30
0.0
 40
24.6000000000037389
210
0.0
220
-0.0000000000000002
230
-1.0
 50
245.0000000000013927
 51
269.9999999999977263
  0
LINE
  5
1422
  8
0
  6
CONTINUOUS
 10
207.9458865692238021
 20
36.153665364400787
 30
-0.000000000000008
 11
200.9870630891944074
 21
36.153665364400787
 31
-0.000000000000008
210
0.0
220
1.0
230
-0.0000000000000002
  0
LINE
  5
1423
  8
0
  6
CONTINUOUS
 10
207.9458865692238021
 20
138.3536653644007117
 30
-0.0000000000000307
 11
200.9870630891944074
 21
138.3536653644007117
 31
-0.0000000000000307
210
0.0
220
1.0
230
-0.0000000000000002
  0
ARC
  5
1424
  8
0
  6
CONTINUOUS
 10
-200.9187830410047013
 20
113.3536653644003991
 30
0.0
 40
25.0000932431259315
210
0.0
220
-0.0000000000000002
230
-1.0
 50
64.8776318845216764
 51
90.1564859543492076
  0
ARC
  5
1425
  8
0
  6
CONTINUOUS
 10
-200.9187830410045024
 20
61.1536653644007373
 30
0.0
 40
25.0000932431256402
210
0.0
220
-0.0000000000000002
230
-1.0
 50
269.8435140456505223
 51
295.1223681154783094
  0
ARC
  5
1426
  8
0
  6
CONTINUOUS
 10
-185.2102853407153873
 20
146.8536653643998022
 30
0.0
 40
11.9999999999991793
210
0.0
220
-0.0000000000000002
230
-1.0
 50
244.8776318845208948
 51
270.0000000000009095
  0
ARC
  5
1427
  8
0
  6
CONTINUOUS
 10
-185.2102853407151031
 20
27.6536653644008013
 30
0.0
 40
12.0000000000000302
210
0.0
220
-0.0000000000000002
230
-1.0
 50
90.0000000000001421
 51
115.1223681154781957
  0
LINE
  5
1428
  8
0
  6
CONTINUOUS
 10
185.2102853407151883
 20
39.6536653644008226
 30
-0.0000000000000088
 11
165.9393644492118938
 21
39.6536653644008226
 31
-0.0000000000000088
210
0.0
220
1.0
230
-0.0000000000000002
  0
LINE
  5
1429
  8
0
  6
CONTINUOUS
 10
185.2102853407151883
 20
134.853665364400598
 30
-0.0000000000000299
 11
165.9393644492118938
 21
134.853665364400598
 31
-0.0000000000000299
210
0.0
220
1.0
230
-0.0000000000000002
  0
ARC
  5
142A
  8
0
  6
CONTINUOUS
 10
-165.9393644492120075
 20
122.8536653644002001
 30
0.0
 40
12.0000000000003997
210
0.0
220
-0.0000000000000002
230
-1.0
 50
57.6719358778391396
 51
89.9999999999993179
  0
ARC
  5
142B
  8
0
  6
CONTINUOUS
 10
-165.9393644492118085
 20
51.6536653644007089
 30
0.0
 40
11.9999999999998703
210
0.0
220
-0.0000000000000002
230
-1.0
 50
270.0
 51
302.3280641221616065
  0
ARC
  5
142C
  8
0
  6
CONTINUOUS
 10
-155.2440383672262953
 20
139.7536653644012858
 30
0.0
 40
8.0000000000006182
210
0.0
220
-0.0000000000000002
230
-1.0
 50
237.6719358778389903
 51
270.0
  0
ARC
  5
142D
  8
0
  6
CONTINUOUS
 10
-155.2440383672262953
 20
34.7536653644003266
 30
0.0
 40
8.0000000000003961
210
0.0
220
-0.0000000000000002
230
-1.0
 50
89.999999999999801
 51
122.3280641221618055
  0
LINE
  5
142E
  8
0
  6
CONTINUOUS
 10
155.2440383672262953
 20
42.7536653644007316
 30
-0.0000000000000095
 11
154.5506380317947901
 21
42.7536653644007316
 31
-0.0000000000000095
210
0.0
220
1.0
230
-0.0000000000000002
  0
LINE
  5
142F
  8
0
  6
CONTINUOUS
 10
155.2440383672262953
 20
131.753665364400689
 30
-0.0000000000000293
 11
154.5506380317947048
 21
131.753665364400689
 31
-0.0000000000000293
210
0.0
220
1.0
230
-0.0000000000000002
  0
LINE
  5
1430
  8
0
  6
CONTINUOUS
 10
154.5506380317947048
 20
131.7536653644006037
 30
-0.0000000000000293
 11
154.5506380317947048
 21
87.2536653644007316
 31
-0.0000000000000194
210
0.0
220
1.0
230
-0.0000000000000002
  0
LINE
  5
1431
  8
0
  6
CONTINUOUS
 10
154.5506380317947048
 20
87.2536653644007458
 30
-0.0000000000000194
 11
154.5506380317945911
 21
42.7536653644007885
 31
-0.0000000000000095
210
0.0
220
1.0
230
-0.0000000000000002
  0
LINE
  5
1432
  8
0
  6
CONTINUOUS
 10
50.4880813494239575
 20
-52.7484606327063403
 30
0.0000000000000117
 11
138.6131947141647913
 21
-52.7484606327064469
 31
0.0000000000000117
210
0.0
220
1.0
230
-0.0000000000000002
  0
ARC
  5
1433
  8
0
  6
CONTINUOUS
 10
-59.6506380317941165
 20
-47.3293155807857815
 30
0.0
 40
9.5999999999996177
210
0.0
220
-0.0000000000000002
230
-1.0
 50
354.9999999999989768
 51
359.9999999999997158
  0
ARC
  5
1434
  8
0
  6
CONTINUOUS
 10
-129.4506380318094045
 20
-47.3293155807865489
 30
0.0
 40
9.5999999999850445
210
0.0
220
-0.0000000000000002
230
-1.0
 50
179.9999999999963052
 51
185.0000000000046896
  0
LINE
  5
1435
  8
0
  6
CONTINUOUS
 10
50.4880813494239575
 20
-52.7484606327063474
 30
0.0000000000000117
 11
50.0871689301136485
 21
-48.1660107111634517
 31
0.0000000000000107
210
0.0
220
1.0
230
-0.0000000000000002
  0
LINE
  5
1436
  8
0
  6
CONTINUOUS
 10
138.6131947141647913
 20
-52.7484606327064469
 30
0.0000000000000117
 11
139.0141071334751075
 21
-48.1660107111635583
 31
0.0000000000000107
210
0.0
220
1.0
230
-0.0000000000000002
  0
LINE
  5
1437
  8
0
  6
CONTINUOUS
 10
139.0506380317945059
 20
27.2536653644007885
 30
-0.0000000000000061
 11
139.0506380317943922
 21
-47.3293155807859307
 31
0.0000000000000105
210
0.0
220
1.0
230
-0.0000000000000002
  0
LINE
  5
1438
  8
0
  6
CONTINUOUS
 10
50.0506380317945627
 20
27.2536653644010016
 30
-0.0000000000000061
 11
50.0506380317944632
 21
-47.329315580785817
 31
0.0000000000000105
210
0.0
220
1.0
230
-0.0000000000000002
  0
ARC
  5
1439
  8
0
  6
CONTINUOUS
 10
-154.5506380317945059
 20
27.2536653644008702
 30
0.0
 40
104.499999999999801
210
0.0
220
-0.0000000000000002
230
-1.0
 50
0.0000000000000636
 51
90.0000000000001137
  0
ARC
  5
143A
  8
0
  6
CONTINUOUS
 10
154.5506380317945059
 20
27.2536653644008808
 30
-0.0000000000000061
 40
15.5000000000000195
 50
89.9999999999995737
 51
180.000000000000199
  0
LINE
  5
143B
  8
0
  6
CONTINUOUS
 62
     1
 10
219.8744488130097068
 20
133.5689775754819948
 30
-0.0000000000000297
 11
219.8744488130097068
 21
40.9383531533194187
 31
-0.0000000000000091
210
0.0
220
1.0
230
-0.0000000000000002
  0
LINE
  5
143C
  8
0
  6
CONTINUOUS
 62
     1
 10
185.210285340715302
 20
41.2536653644007671
 30
-0.0000000000000092
 11
165.9393644492118938
 21
41.2536653644007671
 31
-0.0000000000000092
210
0.0
220
1.0
230
-0.0000000000000002
  0
LINE
  5
143D
  8
0
  6
CONTINUOUS
 62
     1
 10
185.210285340715302
 20
133.253665364400689
 30
-0.0000000000000296
 11
165.9393644492118938
 21
133.253665364400689
 31
-0.0000000000000296
210
0.0
220
1.0
230
-0.0000000000000002
  0
ARC
  5
143E
  8
0
  6
CONTINUOUS
 62
     1
 10
-185.2102853407153873
 20
146.8536653644003991
 30
0.0
 40
13.5999999999996604
210
0.0
220
-0.0000000000000002
230
-1.0
 50
244.8776318845216053
 51
270.0000000000002842
  0
ARC
  5
143F
  8
0
  6
CONTINUOUS
 62
     1
 10
-185.210285340715302
 20
27.6536653644007586
 30
0.0
 40
13.5999999999999606
210
0.0
220
-0.0000000000000002
230
-1.0
 50
90.0
 51
115.1223681154781957
  0
ARC
  5
1440
  8
0
  6
CONTINUOUS
 62
     1
 10
-200.9187830410047013
 20
113.3536653644002996
 30
0.0
 40
23.4000932431261006
210
0.0
220
-0.0000000000000002
230
-1.0
 50
64.8776318845222875
 51
90.161747431183386
  0
ARC
  5
1441
  8
0
  6
CONTINUOUS
 62
     1
 10
-200.9187830410045876
 20
61.1536653644009291
 30
0.0
 40
23.40009324312582
210
0.0
220
-0.0000000000000002
230
-1.0
 50
269.8382525688164151
 51
295.1223681154777978
  0
LINE
  5
1442
  8
0
  6
CONTINUOUS
 62
     1
 10
207.9458865692242
 20
37.7536653644007387
 30
-0.0000000000000084
 11
200.9848420068902897
 21
37.7536653644007387
 31
-0.0000000000000084
210
0.0
220
1.0
230
-0.0000000000000002
  0
LINE
  5
1443
  8
0
  6
CONTINUOUS
 62
     1
 10
207.9458865692242
 20
136.753665364400689
 30
-0.0000000000000304
 11
200.9848420068902897
 21
136.753665364400689
 31
-0.0000000000000304
210
0.0
220
1.0
230
-0.0000000000000002
  0
ARC
  5
1444
  8
0
  6
CONTINUOUS
 62
     1
 10
-207.9458865692228926
 20
113.7536653643975058
 30
0.0
 40
23.0000000000032401
210
0.0
220
-0.0000000000000002
230
-1.0
 50
90.000000000003098
 51
114.9999999999985931
  0
ARC
  5
1445
  8
0
  6
CONTINUOUS
 62
     1
 10
-207.9458865692230063
 20
60.753665364403858
 30
0.0
 40
23.0000000000031086
210
0.0
220
-0.0000000000000002
230
-1.0
 50
245.0000000000013074
 51
269.9999999999969873
  0
LINE
  5
1446
  8
0
  6
CONTINUOUS
 62
     1
 10
219.8744488130097068
 20
40.9383531533194187
 30
-0.0000000000000091
 11
217.666106589259897
 21
39.9085862625578471
 31
-0.0000000000000089
210
0.0
220
1.0
230
-0.0000000000000002
  0
LINE
  5
1447
  8
0
  6
CONTINUOUS
 62
     1
 10
219.8744488130097068
 20
133.5689775754819948
 30
-0.0000000000000297
 11
217.666106589259897
 21
134.5987444662436019
 31
-0.0000000000000299
210
0.0
220
1.0
230
-0.0000000000000002
  0
LINE
  5
1448
  8
0
  6
CONTINUOUS
 62
     1
 10
219.874448813009792
 20
133.5689775754819948
 30
-0.0000000000000297
 11
220.5506380317947901
 21
135.0190700347405937
 31
-0.00000000000003
210
0.0
220
1.0
230
-0.0000000000000002
  0
LINE
  5
1449
  8
0
  6
CONTINUOUS
 62
     1
 10
219.874448813009792
 20
40.9383531533194329
 30
-0.0000000000000091
 11
220.5506380317947901
 21
39.4882606940608767
 31
-0.0000000000000088
210
0.0
220
1.0
230
-0.0000000000000002
  0
LINE
  5
144A
  8
0
  6
CONTINUOUS
 62
     1
 10
155.2440383672262953
 20
44.3536653644007401
 30
-0.0000000000000098
 11
154.5506380317947901
 21
44.3536653644007401
 31
-0.0000000000000098
210
0.0
220
1.0
230
-0.0000000000000002
  0
LINE
  5
144B
  8
0
  6
CONTINUOUS
 62
     1
 10
155.2440383672262953
 20
130.1536653644006947
 30
-0.0000000000000289
 11
154.5506380317947048
 21
130.1536653644006947
 31
-0.0000000000000289
210
0.0
220
1.0
230
-0.0000000000000002
  0
ARC
  5
144C
  8
0
  6
CONTINUOUS
 62
     1
 10
-155.244038367226409
 20
139.7536653644008879
 30
0.0
 40
9.6000000000002181
210
0.0
220
-0.0000000000000002
230
-1.0
 50
237.6719358778381093
 51
270.0000000000005116
  0
ARC
  5
144D
  8
0
  6
CONTINUOUS
 62
     1
 10
-155.2440383672262953
 20
34.7536653644001703
 30
0.0
 40
9.6000000000005627
210
0.0
220
-0.0000000000000002
230
-1.0
 50
90.0000000000001705
 51
122.3280641221612939
  0
ARC
  5
144E
  8
0
  6
CONTINUOUS
 62
     1
 10
-165.9393644492118085
 20
122.853665364400797
 30
0.0
 40
10.3999999999997499
210
0.0
220
-0.0000000000000002
230
-1.0
 50
57.6719358778383011
 51
90.000000000000469
  0
ARC
  5
144F
  8
0
  6
CONTINUOUS
 62
     1
 10
-165.9393644492118085
 20
51.6536653644008368
 30
0.0
 40
10.4000000000000004
210
0.0
220
-0.0000000000000002
230
-1.0
 50
270.0
 51
302.3280641221613791
  0
ARC
  5
1450
  8
0
  6
CONTINUOUS
 62
     1
 10
-59.6506380317921909
 20
-47.3293155807832875
 30
0.0
 40
7.9999999999977831
210
0.0
220
-0.0000000000000002
230
-1.0
 50
355.0000000000014779
 51
0.0000000000005457
  0
ARC
  5
1451
  8
0
  6
CONTINUOUS
 62
     1
 10
-129.4506380317968137
 20
-47.3293155807834012
 30
0.0
 40
7.9999999999977831
210
0.0
220
-0.0000000000000002
230
-1.0
 50
179.9999999999994031
 51
184.9999999999984936
  0
LINE
  5
1452
  8
0
  6
CONTINUOUS
 62
     1
 10
52.0941930894932099
 20
-52.7484606327063972
 30
0.0000000000000117
 11
51.6810804470603102
 21
-48.0265615227641689
 31
0.0000000000000107
210
0.0
220
1.0
230
-0.0000000000000002
  0
LINE
  5
1453
  8
0
  6
CONTINUOUS
 62
     1
 10
137.0070829740955105
 20
-52.7484606327064611
 30
0.0000000000000117
 11
137.4201956165283889
 21
-48.0265615227642613
 31
0.0000000000000107
210
0.0
220
1.0
230
-0.0000000000000002
  0
LINE
  5
1454
  8
0
  6
CONTINUOUS
 62
     1
 10
137.4506380317945968
 20
27.2536653644009093
 30
-0.0000000000000061
 11
137.4506380317945116
 21
-47.329315580783323
 31
0.0000000000000105
210
0.0
220
1.0
230
-0.0000000000000002
  0
LINE
  5
1455
  8
0
  6
CONTINUOUS
 62
     1
 10
51.6506380317944576
 20
27.2536653644011118
 30
-0.0000000000000061
 11
51.6506380317943581
 21
-47.3293155807832093
 31
0.0000000000000105
210
0.0
220
1.0
230
-0.0000000000000002
  0
ARC
  5
1456
  8
0
  6
CONTINUOUS
 62
     1
 10
-154.5506380317943922
 20
27.2536653644008702
 30
0.0
 40
102.8999999999999062
210
0.0
220
-0.0000000000000002
230
-1.0
 50
0.0000000000001145
 51
90.0000000000001421
  0
ARC
  5
1457
  8
0
  6
CONTINUOUS
 62
     1
 10
154.5506380317943922
 20
27.2536653644008986
 30
-0.0000000000000061
 40
17.0999999999998913
 50
89.9999999999995453
 51
180.0
  0
ENDBLK
  5
1459
  8
0
  0
BLOCK
  8
0
  2
*U19
 70
     1
 10
0.0
 20
0.0
 30
0.0
  3
*U19
  1

  0
CIRCLE
  5
14C5
  8
STEMPEL
 10
57.8871686552130029
 20
0.0
 30
-48.4727627472836105
 40
45.9999999999998934
210
0.0000000000000001
220
-1.0
230
0.0
  0
CIRCLE
  5
14C6
  8
STEMPEL
 10
57.8871686552130029
 20
0.0
 30
-67.7436836387870898
 40
46.0
210
0.0000000000000001
220
-1.0
230
0.0
  0
CIRCLE
  5
14C7
  8
STEMPEL
 10
57.8871686552130029
 20
0.0
 30
-67.7436836387870898
 40
46.0
210
0.0000000000000001
220
-1.0
230
0.0
  0
CIRCLE
  5
14C8
  8
STEMPEL
 10
57.8871686552129887
 20
0.0
 30
-73.5176033778576397
 40
47.2865175175025527
210
0.0000000000000001
220
-1.0
230
0.0
  0
CIRCLE
  5
14C9
  8
STEMPEL
 10
57.8871686552129887
 20
0.0
 30
-73.5176033778576397
 40
47.2865175175025527
210
0.0000000000000001
220
-1.0
230
0.0
  0
CIRCLE
  5
14CA
  8
STEMPEL
 10
57.8871686552130029
 20
0.0
 30
-83.5182403049620774
 40
49.4999999999999929
210
0.0000000000000001
220
-1.0
230
0.0
  0
CIRCLE
  5
14CB
  8
STEMPEL
 10
57.8871686552130029
 20
0.0
 30
-83.5182403049620774
 40
49.4999999999999929
210
0.0000000000000001
220
-1.0
230
0.0
  0
CIRCLE
  5
14CC
  8
STEMPEL
 10
57.8871686552130029
 20
0.0
 30
-90.4792848672959025
 40
49.4999999999999929
210
0.0000000000000001
220
-1.0
230
0.0
  0
CIRCLE
  5
14CD
  8
STEMPEL
 10
57.8871686552130029
 20
0.0
 30
-90.4792848672959025
 40
49.4999999999999929
210
0.0000000000000001
220
-1.0
230
0.0
  0
CIRCLE
  5
14CE
  8
STEMPEL
 10
57.8871686552130029
 20
0.0
 30
-100.1995048873315994
 40
47.3450791018428632
210
0.0000000000000001
220
-1.0
230
0.0
  0
CIRCLE
  5
14CF
  8
STEMPEL
 10
57.8871686552130029
 20
0.0
 30
-100.1995048873315994
 40
47.3450791018428632
210
0.0000000000000001
220
-1.0
230
0.0
  0
CIRCLE
  5
14D0
  8
STEMPEL
 10
57.8871686552130029
 20
0.0
 30
-102.4078471110814945
 40
46.3153122110812916
210
0.0000000000000001
220
-1.0
230
0.0
  0
CIRCLE
  5
14D1
  8
STEMPEL
 10
57.8871686552130029
 20
0.0
 30
-102.4078471110814945
 40
46.3153122110812916
210
0.0000000000000001
220
-1.0
230
0.0
  0
CIRCLE
  5
14D2
  8
STEMPEL
 10
57.8871686552130029
 20
0.0
 30
-103.0840363298665068
 40
47.765404670339862
210
0.0000000000000001
220
-1.0
230
0.0
  0
CIRCLE
  5
14D3
  8
STEMPEL
 10
57.8871686552130029
 20
0.0
 30
-103.0840363298665068
 40
47.765404670339862
210
0.0000000000000001
220
-1.0
230
0.0
  0
CIRCLE
  5
14D4
  8
STEMPEL
 10
57.8871686552130029
 20
0.0
 30
-100.875694106116697
 40
48.795171561101462
210
0.0000000000000001
220
-1.0
230
0.0
  0
CIRCLE
  5
14D5
  8
STEMPEL
 10
57.8871686552130029
 20
0.0
 30
-100.875694106116697
 40
48.795171561101462
210
0.0000000000000001
220
-1.0
230
0.0
  0
CIRCLE
  5
14D6
  8
STEMPEL
 10
57.8871686552130029
 20
0.0
 30
-90.479284867295533
 40
51.0999999999999872
210
0.0000000000000001
220
-1.0
230
0.0
  0
CIRCLE
  5
14D7
  8
STEMPEL
 10
57.8871686552130029
 20
0.0
 30
-90.479284867295533
 40
51.0999999999999872
210
0.0000000000000001
220
-1.0
230
0.0
  0
CIRCLE
  5
14D8
  8
STEMPEL
 10
57.8871686552130029
 20
0.0
 30
-83.5204613872661241
 40
51.0999999999999019
210
0.0000000000000001
220
-1.0
230
0.0
  0
CIRCLE
  5
14D9
  8
STEMPEL
 10
57.8871686552130029
 20
0.0
 30
-83.5204613872661241
 40
51.0999999999999019
210
0.0000000000000001
220
-1.0
230
0.0
  0
CIRCLE
  5
14DA
  8
STEMPEL
 10
57.8871686552129887
 20
0.0
 30
-72.838318702672737
 40
48.7351625154433492
210
0.0000000000000001
220
-1.0
230
0.0
  0
CIRCLE
  5
14DB
  8
STEMPEL
 10
57.8871686552129887
 20
0.0
 30
-72.838318702672737
 40
48.7351625154433492
210
0.0000000000000001
220
-1.0
230
0.0
  0
CIRCLE
  5
14DC
  8
STEMPEL
 10
57.8871686552130029
 20
0.0
 30
-67.7436836387869192
 40
47.5999999999999019
210
0.0000000000000001
220
-1.0
230
0.0
  0
CIRCLE
  5
14DD
  8
STEMPEL
 10
57.8871686552130029
 20
0.0
 30
-67.7436836387869192
 40
47.5999999999999019
210
0.0000000000000001
220
-1.0
230
0.0
  0
CIRCLE
  5
14DE
  8
STEMPEL
 10
57.8871686552130029
 20
0.0
 30
-48.4727627472836105
 40
47.5999999999999019
210
0.0000000000000001
220
-1.0
230
0.0
  0
CIRCLE
  5
14DF
  8
STEMPEL
 10
57.8871686552130029
 20
0.0
 30
-48.4727627472836105
 40
47.5999999999999019
210
0.0000000000000001
220
-1.0
230
0.0
  0
CIRCLE
  5
14E0
  8
STEMPEL
 10
57.8871686552130029
 20
0.0
 30
-42.0555670980924532
 40
45.740000000000002
210
0.0000000000000001
220
-1.0
230
0.0
  0
CIRCLE
  5
14E1
  8
STEMPEL
 10
57.8871686552130029
 20
0.0
 30
-42.0555670980924532
 40
45.740000000000002
210
0.0000000000000001
220
-1.0
230
0.0
  0
CIRCLE
  5
14E2
  8
STEMPEL
 10
57.8871686552130029
 20
0.0
 30
-37.7774366652980902
 40
44.4999999999999929
210
0.0000000000000001
220
-1.0
230
0.0
  0
CIRCLE
  5
14E3
  8
STEMPEL
 10
57.8871686552130029
 20
0.0
 30
-37.7774366652980902
 40
44.4999999999999929
210
0.0000000000000001
220
-1.0
230
0.0
  0
CIRCLE
  5
14E4
  8
STEMPEL
 10
57.8871686552130029
 20
0.0
 30
-9.0165803856270088
 40
44.5
210
0.0000000000000001
220
-1.0
230
0.0
  0
CIRCLE
  5
14E5
  8
STEMPEL
 10
57.8871686552130029
 20
0.0
 30
-9.0165803856270088
 40
44.5
210
0.0000000000000001
220
-1.0
230
0.0
  0
CIRCLE
  5
14E6
  8
STEMPEL
 10
57.8871686552130029
 20
0.0
 30
-9.0165803856270088
 40
42.8999999999999773
210
0.0000000000000001
220
-1.0
230
0.0
  0
CIRCLE
  5
14E7
  8
STEMPEL
 10
57.8871686552130029
 20
0.0
 30
-9.0165803856270088
 40
42.8999999999999773
210
0.0000000000000001
220
-1.0
230
0.0
  0
CIRCLE
  5
14E8
  8
STEMPEL
 10
57.8871686552130029
 20
0.0
 30
-37.7774366652980973
 40
42.8999999999999915
210
0.0000000000000001
220
-1.0
230
0.0
  0
CIRCLE
  5
14E9
  8
STEMPEL
 10
57.8871686552130029
 20
0.0
 30
-37.7774366652980973
 40
42.8999999999999915
210
0.0000000000000001
220
-1.0
230
0.0
  0
CIRCLE
  5
14EA
  8
STEMPEL
 10
57.8871686552130029
 20
0.0
 30
-42.9111931846512675
 40
44.3879999999999768
210
0.0000000000000001
220
-1.0
230
0.0
  0
CIRCLE
  5
14EB
  8
STEMPEL
 10
57.8871686552130029
 20
0.0
 30
-42.9111931846512675
 40
44.3879999999999768
210
0.0000000000000001
220
-1.0
230
0.0
  0
CIRCLE
  5
14EC
  8
STEMPEL
 10
57.8871686552130029
 20
0.0
 30
-48.4727627472836105
 40
45.9999999999998934
210
0.0000000000000001
220
-1.0
230
0.0
  0
ENDBLK
  5
14EE
  8
0
  0
ENDSEC
  0
SECTION
  2
ENTITIES
  0
TEXT
  5
8F
  8
VOLL
 10
78.076754716981128
 20
31.025947764705851
 30
0.0
 40
1.8
  1

  7
GREEKS
  0
INSERT
  5
A16
  8
ADSK_ASSOC_ENTITY_BACKUPS
  2
*S4
 10
0.0
 20
0.0
 30
0.0
  0
INSERT
  5
1419
  8
STEMPEL
  2
A$C07C40B69
 10
221.2226286161545943
 20
-136.9848378355536909
 30
-31.80096139170562
  0
INSERT
  5
145A
  8
STEMPEL
  2
A$CFD30302E
 10
221.222628616154708
 20
164.8880242742438043
 30
-31.8009613917055596
  0
VIEWPORT
  5
928
 67
     1
  8
0
 10
106.1640277947801962
 20
149.2307923584569096
 30
0.0
 40
533.9969448798290159
 41
299.1239570917758783
 68
     1
 69
     1
1001
ACAD
1000
MVIEW
1002
{
1070
    16
1010
0.0
1020
0.0
1030
0.0
1010
0.0
1020
0.0
1030
1.0
1040
0.0
1040
299.1239570917758783
1040
106.1640277947801962
1040
149.2307923584569096
1040
50.0
1040
0.0
1040
0.0
1070
     0
1070
  1500
1070
     1
1070
     1
1070
     0
1070
     0
1070
     0
1070
     0
1040
0.0
1040
0.0
1040
0.0
1040
10.0
1040
10.0
1040
10.0
1040
10.0
1070
     0
1002
{
1002
}
1002
}
  0
ENDSEC
  0
EOF
