  0
SECTION
  2
HEADER
  9
$ACADVER
  1
AC1009
  9
$INSBASE
 10
0.0
 20
0.0
 30
0.0
  9
$EXTMIN
 10
286.5095997414700832
 20
-28.1689995748104813
 30
-32.6595823152219324
  9
$EXTMAX
 10
438.0113714057268908
 20
280.4031268247543949
 30
-32.6595823152218685
  9
$LIMMIN
 10
0.0
 20
0.0
  9
$LIMMAX
 10
210.0
 20
297.0
  9
$ORTHOMODE
 70
     1
  9
$REGENMODE
 70
     1
  9
$FILLMODE
 70
     1
  9
$QTEXTMODE
 70
     0
  9
$MIRRTEXT
 70
     1
  9
$DRAGMODE
 70
     2
  9
$LTSCALE
 40
10.0
  9
$OSMODE
 70
  2495
  9
$ATTMODE
 70
     1
  9
$TEXTSIZE
 40
3.5
  9
$TRACEWID
 40
0.5
  9
$TEXTSTYLE
  7
STANDARD
  9
$CLAYER
  8
STEMPEL
  9
$CELTYPE
  6
BYLAYER
  9
$CECOLOR
 62
   256
  9
$DIMSCALE
 40
1.0
  9
$DIMASZ
 40
3.5
  9
$DIMEXO
 40
1.0
  9
$DIMDLI
 40
7.0
  9
$DIMRND
 40
0.0
  9
$DIMDLE
 40
0.0
  9
$DIMEXE
 40
1.0
  9
$DIMTP
 40
0.0
  9
$DIMTM
 40
0.0
  9
$DIMTXT
 40
3.5
  9
$DIMCEN
 40
1.5
  9
$DIMTSZ
 40
0.0
  9
$DIMTOL
 70
     0
  9
$DIMLIM
 70
     0
  9
$DIMTIH
 70
     0
  9
$DIMTOH
 70
     0
  9
$DIMSE1
 70
     0
  9
$DIMSE2
 70
     0
  9
$DIMTAD
 70
     1
  9
$DIMZIN
 70
     8
  9
$DIMBLK
  1

  9
$DIMASO
 70
     1
  9
$DIMSHO
 70
     0
  9
$DIMPOST
  1

  9
$DIMAPOST
  1

  9
$DIMALT
 70
     0
  9
$DIMALTD
 70
     2
  9
$DIMALTF
 40
25.3999999999999986
  9
$DIMLFAC
 40
2.0
  9
$DIMTOFL
 70
     1
  9
$DIMTVP
 40
0.0
  9
$DIMTIX
 70
     0
  9
$DIMSOXD
 70
     0
  9
$DIMSAH
 70
     0
  9
$DIMBLK1
  1

  9
$DIMBLK2
  1

  9
$DIMSTYLE
  2
STANDARD
  9
$DIMCLRD
 70
     0
  9
$DIMCLRE
 70
     0
  9
$DIMCLRT
 70
     1
  9
$DIMTFAC
 40
0.5
  9
$DIMGAP
 40
1.5
  9
$LUNITS
 70
     2
  9
$LUPREC
 70
     2
  9
$SKETCHINC
 40
1.0
  9
$FILLETRAD
 40
25.0
  9
$AUNITS
 70
     0
  9
$AUPREC
 70
     0
  9
$MENU
  1
ACAD
  9
$ELEVATION
 40
0.0
  9
$PELEVATION
 40
0.0
  9
$THICKNESS
 40
0.0
  9
$LIMCHECK
 70
     0
  9
$BLIPMODE
 70
     0
  9
$CHAMFERA
 40
0.0
  9
$CHAMFERB
 40
0.0
  9
$SKPOLY
 70
     0
  9
$TDCREATE
 40
2455397.8646990740671754
  9
$TDUPDATE
 40
2458967.6097916672006249
  9
$TDINDWG
 40
0.1302587037
  9
$TDUSRTIMER
 40
0.1302587037
  9
$USRTIMER
 70
     1
  9
$ANGBASE
 50
0.0
  9
$ANGDIR
 70
     0
  9
$PDMODE
 70
     0
  9
$PDSIZE
 40
0.0
  9
$PLINEWID
 40
0.0
  9
$COORDS
 70
     1
  9
$SPLFRAME
 70
     0
  9
$SPLINETYPE
 70
     6
  9
$SPLINESEGS
 70
     8
  9
$ATTDIA
 70
     1
  9
$ATTREQ
 70
     1
  9
$HANDLING
 70
     1
  9
$HANDSEED
  5
1145
  9
$SURFTAB1
 70
     6
  9
$SURFTAB2
 70
     6
  9
$SURFTYPE
 70
     6
  9
$SURFU
 70
     6
  9
$SURFV
 70
     6
  9
$UCSNAME
  2

  9
$UCSORG
 10
0.0
 20
0.0
 30
0.0
  9
$UCSXDIR
 10
1.0
 20
0.0
 30
0.0
  9
$UCSYDIR
 10
0.0
 20
1.0
 30
0.0
  9
$PUCSNAME
  2

  9
$PUCSORG
 10
0.0
 20
0.0
 30
0.0
  9
$PUCSXDIR
 10
1.0
 20
0.0
 30
0.0
  9
$PUCSYDIR
 10
0.0
 20
1.0
 30
0.0
  9
$USERI1
 70
     0
  9
$USERI2
 70
     0
  9
$USERI3
 70
     0
  9
$USERI4
 70
     0
  9
$USERI5
 70
     0
  9
$USERR1
 40
0.0
  9
$USERR2
 40
0.0
  9
$USERR3
 40
0.0
  9
$USERR4
 40
0.0
  9
$USERR5
 40
0.0
  9
$WORLDVIEW
 70
     1
  9
$SHADEDGE
 70
     3
  9
$SHADEDIF
 70
    70
  9
$TILEMODE
 70
     1
  9
$MAXACTVP
 70
    16
  9
$PLIMCHECK
 70
     0
  9
$PEXTMIN
 10
1.154417300358431
 20
0.7172003734889359
 30
-0.0000000000000058
  9
$PEXTMAX
 10
211.1736422009659861
 20
297.7443898757769034
 30
0.0000000000000104
  9
$PLIMMIN
 10
1.1640277947802311
 20
0.7307923584569985
  9
$PLIMMAX
 10
211.1640277947801962
 20
297.7307923584569949
  9
$UNITMODE
 70
     0
  9
$VISRETAIN
 70
     0
  9
$PLINEGEN
 70
     0
  9
$PSLTSCALE
 70
     0
  0
ENDSEC
  0
SECTION
  2
TABLES
  0
TABLE
  2
VPORT
 70
     1
  0
VPORT
  2
*ACTIVE
 70
     0
 10
0.0
 20
0.0
 11
1.0
 21
1.0
 12
113.9784794760460045
 22
-73.2350843096287036
 13
0.0
 23
0.0
 14
1.0
 24
1.0
 15
10.0
 25
10.0
 16
-0.0000000000002558
 26
0.0
 36
1104.5889621037340476
 17
248.2820060975525109
 27
199.3521479346005947
 37
28.302425199421581
 40
310.7788400567727081
 41
1.7852028639618129
 42
50.0
 43
0.0
 44
0.0
 50
0.0
 51
0.0
 71
     0
 72
  1500
 73
     1
 74
     0
 75
     0
 76
     0
 77
     0
 78
     0
  0
ENDTAB
  0
TABLE
  2
LTYPE
 70
     6
  0
LTYPE
  2
CONTINUOUS
 70
     0
  3
Solid line
 72
    65
 73
     0
 40
0.0
  0
LTYPE
  2
PHANTOM2
 70
     0
  3
Phantom (.5x) ___ _ _ ___ _ _ ___ _ _ ___ _ _
 72
    65
 73
     6
 40
1.25
 49
0.625
 49
-0.125
 49
0.125
 49
-0.125
 49
0.125
 49
-0.125
  0
LTYPE
  2
VERDECKT
 70
     0
  3
Verdeckt __ __ __ __ __ __ __ __ __ __ __ __ __
 72
    65
 73
     2
 40
0.375
 49
0.25
 49
-0.125
  0
ENDTAB
  0
TABLE
  2
LAYER
 70
    11
  0
LAYER
  2
0
 70
     0
 62
     7
  6
CONTINUOUS
  0
LAYER
  2
VOLL
 70
     0
 62
     1
  6
CONTINUOUS
  0
LAYER
  2
STEMPEL
 70
     0
 62
     3
  6
CONTINUOUS
  0
LAYER
  2
DEFPOINTS
 70
     0
 62
     7
  6
CONTINUOUS
  0
LAYER
  2
ADSK_ASSOC_ENTITY_BACKUPS
 70
     1
 62
    -7
  6
CONTINUOUS
  0
ENDTAB
  0
TABLE
  2
STYLE
 70
     4
  0
STYLE
  2
STANDARD
 70
     0
 40
0.0
 41
0.8
 50
0.0
 71
     0
 42
3.5
  3
simplex.shx
  4

  0
STYLE
  2
GREEKS
 70
     0
 40
0.0
 41
0.8
 50
0.0
 71
     0
 42
2.5
  3
SIMPLEX.shx
  4

  0
ENDTAB
  0
TABLE
  2
VIEW
 70
     1
  0
ENDTAB
  0
TABLE
  2
UCS
 70
     0
  0
ENDTAB
  0
TABLE
  2
APPID
 70
    17
  0
APPID
  2
ACAD
 70
     0
  0
APPID
  2
ACAD_NAV_VCDISPLAY
 70
     0
  0
APPID
  2
ACAD_MLEADERVER
 70
     0
  0
APPID
  2
ACAD_EXEMPT_FROM_CAD_STANDARDS
 70
     0
  0
APPID
  2
ACAD_PSEXT
 70
     0
  0
APPID
  2
ACAECLAYERSTANDARD
 70
     0
  0
APPID
  2
ACAUTHENVIRON
 70
     0
  0
APPID
  2
ACCMTRANSPARENCY
 70
     0
  0
APPID
  2
ACSYNERGY
 70
     0
  0
APPID
  2
SYNERGY_BODY_TBR_ID
 70
     0
  0
APPID
  2
ACAD_VIEW_EDGE_ID
 70
     0
  0
APPID
  2
ACAD_STEPID
 70
     0
  0
APPID
  2
ACADANNOMONITORALERTICONDI
 70
     0
  0
APPID
  2
ACAD_DSTYLE_DIMRADIAL_EXTENSION
 70
     0
  0
APPID
  2
ACAD_DSTYLE_DIMJAG
 70
     0
  0
APPID
  2
ACAD_DSTYLE_DIMTALN
 70
     0
  0
APPID
  2
AcDbAttr
 70
     0
  0
ENDTAB
  0
TABLE
  2
DIMSTYLE
 70
     2
  0
DIMSTYLE
  2
STANDARD
 70
     0
  3

  4

  5

  6

  7

 40
1.0
 41
0.18
 42
0.0625
 43
0.38
 44
0.18
 45
0.0
 46
0.0
 47
0.0
 48
0.0
140
0.18
141
0.09
142
0.0
143
25.3999999999999986
144
1.0
145
0.0
146
1.0
147
0.09
 71
     0
 72
     0
 73
     1
 74
     1
 75
     0
 76
     0
 77
     0
 78
     0
170
     0
171
     2
172
     0
173
     0
174
     0
175
     0
176
     0
177
     0
178
     0
  0
ENDTAB
  0
ENDSEC
  0
SECTION
  2
BLOCKS
  0
BLOCK
  8
0
  2
$MODEL_SPACE
 70
     0
 10
0.0
 20
0.0
 30
0.0
  3
$MODEL_SPACE
  1

  0
ENDBLK
  5
36
  8
0
  0
BLOCK
 67
     1
  8
0
  2
$PAPER_SPACE
 70
     0
 10
0.0
 20
0.0
 30
0.0
  3
$PAPER_SPACE
  1

  0
ENDBLK
  5
34
 67
     1
  8
0
  0
BLOCK
  8
0
  2
*S4
 70
     1
 10
0.0
 20
0.0
 30
0.0
  3
*S4
  1

  0
ENDBLK
  5
A14
  8
0
  0
BLOCK
  8
0
  2
A$C98FAF96A
 70
     0
 10
0.0
 20
0.0
 30
0.0
  3
A$C98FAF96A
  1

  0
LINE
  5
1088
  8
0
  6
CONTINUOUS
 10
144.5506380317947901
 20
125.0752253504687985
 30
0.0000000000000284
 11
144.5506380317947901
 21
198.0752253504689975
 31
0.0000000000000284
  0
LINE
  5
1089
  8
0
  6
CONTINUOUS
 10
209.552409696051086
 20
121.8098280221936989
 30
0.0000000000000568
 11
209.552409696051086
 21
161.5752253504689975
 31
0.0000000000000568
  0
LINE
  5
108A
  8
0
  6
CONTINUOUS
 10
209.552409696051086
 20
161.5752253504689975
 30
0.0000000000000568
 11
209.552409696051086
 21
201.3406226787442961
 31
0.0000000000000568
  0
LINE
  5
108B
  8
0
  6
CONTINUOUS
 10
144.5506380317947901
 20
198.0752253504689122
 30
0.0000000000000284
 11
149.2458100314823071
 21
198.0752253504689122
 31
0.0000000000000296
  0
LINE
  5
108C
  8
0
  6
CONTINUOUS
 10
144.5506380317947901
 20
125.0752253504689975
 30
0.0000000000000284
 11
149.2458100314823071
 21
125.0752253504689975
 31
0.0000000000000296
  0
ARC
  5
108D
  8
0
  6
CONTINUOUS
 10
149.2458100314825913
 20
117.075225350469907
 30
0.0000000000000426
 40
7.9999999999991749
 50
57.6719358778372282
 51
90.0000000000020464
  0
ARC
  5
108E
  8
0
  6
CONTINUOUS
 10
149.245810031482705
 20
206.0752253504678038
 30
0.0000000000000426
 40
7.9999999999989733
 50
269.9999999999973284
 51
302.3280641221630276
  0
ARC
  5
108F
  8
0
  6
CONTINUOUS
 10
159.9411361134687013
 20
133.9752253504707085
 30
0.0000000000000426
 40
12.0000000000017497
 50
237.6719358778418041
 51
270.0
  0
ARC
  5
1090
  8
0
  6
CONTINUOUS
 10
159.9411361134685023
 20
189.1752253504677128
 30
0.0000000000000426
 40
12.0000000000012506
 50
90.0000000000028564
 51
122.3280641221624023
  0
LINE
  5
1091
  8
0
  6
CONTINUOUS
 10
159.9411361134679055
 20
201.1752253504689065
 30
0.0000000000000426
 11
176.5524096960508871
 21
201.1752253504689065
 31
0.0000000000000466
  0
LINE
  5
1092
  8
0
  6
CONTINUOUS
 10
159.9411361134679055
 20
121.9752253504690032
 30
0.0000000000000426
 11
176.5524096960508871
 21
121.9752253504690032
 31
0.0000000000000466
  0
ARC
  5
1093
  8
0
  6
CONTINUOUS
 10
176.552409696051086
 20
109.9752253504700974
 30
0.0000000000000426
 40
11.9999999999989502
 50
68.8168456069660834
 51
90.0000000000012221
  0
ARC
  5
1094
  8
0
  6
CONTINUOUS
 10
176.552409696051086
 20
213.1752253504677981
 30
0.0000000000000426
 40
11.9999999999989395
 50
269.9999999999988063
 51
291.1831543930338739
  0
ARC
  5
1095
  8
0
  6
CONTINUOUS
 10
189.9224096960525969
 20
144.4752253504775865
 30
0.0000000000000426
 40
25.0000932431343905
 50
248.8168456069666945
 51
270.1564859543499892
  0
ARC
  5
1096
  8
0
  6
CONTINUOUS
 10
189.9224096960525969
 20
178.6752253504602095
 30
0.0000000000000426
 40
25.0000932431343799
 50
89.8435140456499965
 51
111.1831543930333055
  0
LINE
  5
1097
  8
0
  6
CONTINUOUS
 10
189.990689744242701
 20
203.6752253504689918
 30
0.0000000000000426
 11
199.0034872889322912
 21
203.6752253504689918
 31
0.0000000000000448
  0
LINE
  5
1098
  8
0
  6
CONTINUOUS
 10
189.990689744242701
 20
119.4752253504689037
 30
0.0000000000000426
 11
199.0034872889322912
 21
119.4752253504689037
 31
0.0000000000000448
  0
ARC
  5
1099
  8
0
  6
CONTINUOUS
 10
199.0034872889326039
 20
144.4752253504676105
 30
0.0000000000000426
 40
24.9999999999987601
 50
269.9999999999992042
 51
294.9581963123163177
  0
ARC
  5
109A
  8
0
  6
CONTINUOUS
 10
199.0034872889324902
 20
178.6752253504697023
 30
0.0000000000000426
 40
24.9999999999993214
 50
65.0418036876840233
 51
90.0000000000004832
  0
ARC
  5
109B
  8
0
  6
CONTINUOUS
 10
94.5506380317947333
 20
161.5752253504689122
 30
0.0000000000000213
 40
36.5000000000000426
 50
90.0
 51
270.0
  0
LINE
  5
109C
  8
0
  6
CONTINUOUS
 10
144.5506380317947901
 20
125.0752253504687985
 30
0.0000000000000284
 11
144.5506380317947901
 21
198.0752253504689975
 31
0.0000000000000284
  0
LINE
  5
109D
  8
0
  6
CONTINUOUS
 10
94.550638031794719
 20
125.075225350468898
 30
0.0000000000000213
 11
144.5506380317947901
 21
125.075225350468898
 31
0.0000000000000284
  0
LINE
  5
109E
  8
0
  6
CONTINUOUS
 10
144.5506380317947901
 20
198.0752253504689975
 30
0.0000000000000284
 11
94.5506380317947333
 21
198.0752253504689975
 31
0.0000000000000213
  0
LINE
  5
109F
  8
0
  6
VERDECKT
 62
     1
 10
144.5506380317947901
 20
196.4752253504688895
 30
0.0000000000000284
 11
149.2458100314823071
 21
196.4752253504688895
 31
0.0000000000000296
  0
LINE
  5
10A0
  8
0
  6
VERDECKT
 62
     1
 10
144.5506380317947901
 20
126.675225350469006
 30
0.0000000000000284
 11
149.2458100314823071
 21
126.675225350469006
 31
0.0000000000000296
  0
ARC
  5
10A1
  8
0
  6
VERDECKT
 62
     1
 10
149.245810031482506
 20
117.0752253504701059
 30
0.0000000000000426
 40
9.5999999999989427
 50
57.6719358778333415
 51
90.0000000000008242
  0
ARC
  5
10A2
  8
0
  6
VERDECKT
 62
     1
 10
149.2458100314823923
 20
206.0752253504680027
 30
0.0000000000000426
 40
9.5999999999991683
 50
269.9999999999993179
 51
302.3280641221662108
  0
ARC
  5
10A3
  8
0
  6
VERDECKT
 62
     1
 10
159.9411361134667118
 20
133.9752253504649104
 30
0.0000000000000426
 40
10.3999999999959396
 50
237.6719358778260016
 51
270.0
  0
ARC
  5
10A4
  8
0
  6
VERDECKT
 62
     1
 10
159.9411361134667118
 20
189.1752253504729993
 30
0.0000000000000426
 40
10.3999999999959396
 50
89.9999999999930935
 51
122.3280641221672056
  0
LINE
  5
10A5
  8
0
  6
VERDECKT
 62
     1
 10
159.9411361134679055
 20
199.5752253504689122
 30
0.0000000000000426
 11
176.5524096960508871
 21
199.5752253504689122
 31
0.0000000000000466
  0
LINE
  5
10A6
  8
0
  6
VERDECKT
 62
     1
 10
159.9411361134679055
 20
123.5752253504689975
 30
0.0000000000000426
 11
176.5524096960508871
 21
123.5752253504689975
 31
0.0000000000000466
  0
ARC
  5
10A7
  8
0
  6
VERDECKT
 62
     1
 10
176.5524096960508018
 20
109.9752253504689037
 30
0.0000000000000426
 40
13.6000000000002004
 50
68.816845606959717
 51
89.9999999999997584
  0
ARC
  5
10A8
  8
0
  6
VERDECKT
 62
     1
 10
176.5524096960508018
 20
213.1752253504689918
 30
0.0000000000000426
 40
13.6000000000002004
 50
270.0000000000002274
 51
291.1831543930402972
  0
ARC
  5
10A9
  8
0
  6
VERDECKT
 62
     1
 10
189.9224096960481063
 20
144.4752253504530017
 30
0.0000000000000426
 40
23.4000932431097795
 50
248.8168456069593901
 51
270.1564859543610737
  0
ARC
  5
10AA
  8
0
  6
VERDECKT
 62
     1
 10
189.9224096960481063
 20
178.6752253504849079
 30
0.0000000000000426
 40
23.4000932431097617
 50
89.8435140456389263
 51
111.1831543930405957
  0
LINE
  5
10AB
  8
0
  6
VERDECKT
 62
     1
 10
189.986319837456989
 20
202.0752283342378064
 30
0.0000000000000426
 11
199.0034872889322912
 21
202.0752283342378064
 31
0.0000000000000448
  0
LINE
  5
10AC
  8
0
  6
VERDECKT
 62
     1
 10
189.986319837456989
 20
121.0752223667001033
 30
0.0000000000000426
 11
199.0034872889322912
 21
121.0752223667001033
 31
0.0000000000000448
  0
ARC
  5
10AD
  8
0
  6
VERDECKT
 62
     1
 10
199.0034718028306884
 20
144.4752903654483873
 30
0.0000000000000426
 40
23.4000650149846017
 50
270.0000379181964263
 51
296.795540013035918
  0
ARC
  5
10AE
  8
0
  6
VERDECKT
 62
     1
 10
199.0034718028308021
 20
178.6751603354898066
 30
0.0000000000000426
 40
23.400065014984289
 50
63.204459986964018
 51
89.9999620818037869
  0
ARC
  5
10AF
  8
0
  6
VERDECKT
 62
     1
 10
94.5506380317947333
 20
161.5752253504689122
 30
0.0000000000000213
 40
36.5000000000000711
 50
269.9999999999998863
 51
89.9999999999999147
  0
CIRCLE
  5
10B0
  8
0
  6
VERDECKT
 62
     1
 10
94.5506380317946054
 20
161.5752253504689122
 30
0.0000000000000213
 40
36.0625566823704915
  0
CIRCLE
  5
10B1
  8
0
  6
VERDECKT
 62
     1
 10
94.5506380317947901
 20
161.5752253504689122
 30
0.0000000000000213
 40
34.8999999999999986
  0
CIRCLE
  5
10B2
  8
0
  6
VERDECKT
 62
     1
 10
94.5506380317946054
 20
161.5752253504689122
 30
0.0000000000000213
 40
34.4564449423010615
  0
LINE
  5
10B3
  8
0
  6
VERDECKT
 62
     1
 10
144.5506380317947901
 20
196.4752253504688895
 30
0.0000000000000284
 11
94.5506380317947901
 21
196.4752253504688895
 31
0.0000000000000213
  0
LINE
  5
10B4
  8
0
  6
VERDECKT
 62
     1
 10
94.5506380317947759
 20
126.6752253504689065
 30
0.0000000000000213
 11
144.5506380317947901
 21
126.6752253504689065
 31
0.0000000000000284
  0
ENDBLK
  5
10B6
  8
0
  0
BLOCK
  8
0
  2
A$CECF30977
 70
     0
 10
0.0
 20
0.0
 30
0.0
  3
A$CECF30977
  1

  0
LINE
  5
10BA
  8
0
  6
CONTINUOUS
 10
144.5506380317947048
 20
30.7533110315494689
 30
-0.0000000000000068
 11
144.5506380317947901
 21
67.2533110315495577
 31
-0.0000000000000149
210
0.0
220
1.0
230
-0.0000000000000002
  0
LINE
  5
10BB
  8
0
  6
CONTINUOUS
 10
144.5506380317947901
 20
67.2533110315495577
 30
-0.0000000000000149
 11
144.5506380317947901
 21
103.7533110315496003
 31
-0.000000000000023
210
0.0
220
1.0
230
-0.0000000000000002
  0
LINE
  5
10BC
  8
0
  6
CONTINUOUS
 10
209.552409696051086
 20
27.4879137032741703
 30
-0.0000000000000061
 11
209.552409696051086
 21
107.0187083598247995
 31
-0.0000000000000238
210
0.0
220
1.0
230
-0.0000000000000002
  0
LINE
  5
10BD
  8
0
  6
CONTINUOUS
 10
144.5506380317947901
 20
103.7533110315495009
 30
-0.000000000000023
 11
149.2458100314823923
 21
103.7533110315495009
 31
-0.000000000000023
210
0.0
220
1.0
230
-0.0000000000000002
  0
LINE
  5
10BE
  8
0
  6
CONTINUOUS
 10
144.5506380317947048
 20
30.7533110315495897
 30
-0.0000000000000068
 11
149.2458100314823071
 21
30.753311031549579
 31
-0.0000000000000068
210
0.0
220
1.0
230
-0.0000000000000002
  0
ARC
  5
10BF
  8
0
  6
CONTINUOUS
 10
-149.2458100314825913
 20
22.7533110315505915
 30
0.0
 40
7.9999999999990372
210
0.0
220
-0.0000000000000002
230
-1.0
 50
89.9999999999975557
 51
122.3280641221628997
  0
ARC
  5
10C0
  8
0
  6
CONTINUOUS
 10
-149.245810031482705
 20
111.7533110315484066
 30
0.0
 40
7.9999999999989413
210
0.0
220
-0.0000000000000002
230
-1.0
 50
237.6719358778366882
 51
270.0000000000022169
  0
ARC
  5
10C1
  8
0
  6
CONTINUOUS
 10
-159.9411361134685876
 20
39.6533110315513468
 30
0.0
 40
12.0000000000018101
210
0.0
220
-0.0000000000000002
230
-1.0
 50
270.0000000000035243
 51
302.3280641221617202
  0
ARC
  5
10C2
  8
0
  6
CONTINUOUS
 10
-159.9411361134687866
 20
94.8533110315474488
 30
0.0
 40
12.0000000000021299
210
0.0
220
-0.0000000000000002
230
-1.0
 50
57.6719358778387701
 51
89.9999999999960494
  0
LINE
  5
10C3
  8
0
  6
CONTINUOUS
 10
159.9411361134679055
 20
106.8533110315494952
 30
-0.0000000000000237
 11
176.5524096960508871
 21
106.8533110315494952
 31
-0.0000000000000237
210
0.0
220
1.0
230
-0.0000000000000002
  0
LINE
  5
10C4
  8
0
  6
CONTINUOUS
 10
159.9411361134677918
 20
27.6533110315495598
 30
-0.0000000000000061
 11
176.5524096960508018
 21
27.6533110315495492
 31
-0.0000000000000061
210
0.0
220
1.0
230
-0.0000000000000002
  0
ARC
  5
10C5
  8
0
  6
CONTINUOUS
 10
-176.552409696051086
 20
15.6533110315508601
 30
0.0
 40
11.9999999999987494
210
0.0
220
-0.0000000000000002
230
-1.0
 50
89.9999999999986358
 51
111.1831543930341013
  0
ARC
  5
10C6
  8
0
  6
CONTINUOUS
 10
-176.552409696051086
 20
118.8533110315484009
 30
0.0
 40
11.9999999999989395
210
0.0
220
-0.0000000000000002
230
-1.0
 50
248.8168456069660976
 51
270.0000000000011937
  0
ARC
  5
10C7
  8
0
  6
CONTINUOUS
 10
-189.9224096960525117
 20
50.1533110315577488
 30
0.0
 40
25.0000932431339109
210
0.0
220
-0.0000000000000002
230
-1.0
 50
269.8435140456498971
 51
291.183154393033476
  0
ARC
  5
10C8
  8
0
  6
CONTINUOUS
 10
-189.9224096960525117
 20
84.3533110315412387
 30
0.0
 40
25.0000932431339606
210
0.0
220
-0.0000000000000002
230
-1.0
 50
68.8168456069665808
 51
90.1564859543502166
  0
LINE
  5
10C9
  8
0
  6
CONTINUOUS
 10
189.990689744242701
 20
109.3533110315494952
 30
-0.0000000000000243
 11
199.0034872889322912
 21
109.3533110315494952
 31
-0.0000000000000243
210
0.0
220
1.0
230
-0.0000000000000002
  0
LINE
  5
10CA
  8
0
  6
CONTINUOUS
 10
189.990689744242701
 20
25.1533110315495101
 30
-0.0000000000000056
 11
199.003487288932206
 21
25.1533110315494994
 31
-0.0000000000000056
210
0.0
220
1.0
230
-0.0000000000000002
  0
ARC
  5
10CB
  8
0
  6
CONTINUOUS
 10
-199.0034872889324902
 20
50.1533110315483484
 30
0.0
 40
24.9999999999988987
210
0.0
220
-0.0000000000000002
230
-1.0
 50
245.0418036876837959
 51
270.0000000000007958
  0
ARC
  5
10CC
  8
0
  6
CONTINUOUS
 10
-199.0034872889324902
 20
84.3533110315502057
 30
0.0
 40
24.9999999999993285
210
0.0
220
-0.0000000000000002
230
-1.0
 50
89.9999999999996163
 51
114.9581963123159056
  0
LINE
  5
10CD
  8
0
  6
CONTINUOUS
 10
58.4880813494241281
 20
-52.7484606327063972
 30
0.0000000000000117
 11
130.613194714165104
 21
-52.7484606327065677
 31
0.0000000000000117
210
0.0
220
1.0
230
-0.0000000000000002
  0
LINE
  5
10CE
  8
0
  6
CONTINUOUS
 10
144.5506380317947048
 20
30.7533110315495186
 30
-0.0000000000000068
 11
144.5506380317947901
 21
67.2533110315496145
 31
-0.0000000000000149
210
0.0
220
1.0
230
-0.0000000000000002
  0
LINE
  5
10CF
  8
0
  6
CONTINUOUS
 10
144.5506380317947901
 20
67.2533110315496145
 30
-0.0000000000000149
 11
144.5506380317947901
 21
103.7533110315496998
 31
-0.000000000000023
210
0.0
220
1.0
230
-0.0000000000000002
  0
ARC
  5
10D0
  8
0
  6
CONTINUOUS
 10
-66.6506380317902369
 20
-47.3729765236929126
 30
0.0
 40
8.5999999999956742
210
0.0
220
-0.0000000000000002
230
-1.0
 50
354.9999999999996021
 51
0.0000000000017557
  0
ARC
  5
10D1
  8
0
  6
CONTINUOUS
 10
-122.450638031803507
 20
-47.3729765236931684
 30
0.0
 40
8.5999999999912404
210
0.0
220
-0.0000000000000002
230
-1.0
 50
179.9999999999976126
 51
185.0000000000021885
  0
LINE
  5
10D2
  8
0
  6
CONTINUOUS
 10
131.0506380317949038
 20
17.2533110315495684
 30
-0.0000000000000038
 11
131.0506380317947048
 21
-47.3729765236928202
 31
0.0000000000000105
210
0.0
220
1.0
230
-0.0000000000000002
  0
LINE
  5
10D3
  8
0
  6
CONTINUOUS
 10
58.0506380317946906
 20
17.2533110315499201
 30
-0.0000000000000038
 11
58.0506380317945485
 21
-47.3729765236926497
 31
0.0000000000000105
210
0.0
220
1.0
230
-0.0000000000000002
  0
LINE
  5
10D4
  8
0
  6
CONTINUOUS
 10
58.4880813494241281
 20
-52.7484606327063972
 30
0.0000000000000117
 11
58.0833636282054968
 21
-48.1225159113224592
 31
0.0000000000000107
210
0.0
220
1.0
230
-0.0000000000000002
  0
LINE
  5
10D5
  8
0
  6
CONTINUOUS
 10
130.613194714165104
 20
-52.7484606327065677
 30
0.0000000000000117
 11
131.0179124353836926
 21
-48.1225159113226084
 31
0.0000000000000107
210
0.0
220
1.0
230
-0.0000000000000002
  0
ARC
  5
10D6
  8
0
  6
CONTINUOUS
 10
-144.5506380317947901
 20
17.2533110315495897
 30
0.0
 40
86.5000000000001137
210
0.0
220
-0.0000000000000002
230
-1.0
 50
0.0000000000002163
 51
89.9999999999999858
  0
ARC
  5
10D7
  8
0
  6
CONTINUOUS
 10
144.5506380317947901
 20
17.2533110315495897
 30
-0.0000000000000038
 40
13.4999999999999805
 50
90.0000000000000995
 51
180.0
  0
LINE
  5
10D8
  8
0
  6
VERDECKT
 62
     1
 10
144.5506380317947901
 20
102.1533110315495065
 30
-0.0000000000000227
 11
149.2458100314823923
 21
102.1533110315495065
 31
-0.0000000000000227
210
0.0
220
1.0
230
-0.0000000000000002
  0
LINE
  5
10D9
  8
0
  6
VERDECKT
 62
     1
 10
144.5506380317947048
 20
32.3533110315496586
 30
-0.0000000000000072
 11
149.2458100314823071
 21
32.3533110315496586
 31
-0.0000000000000072
210
0.0
220
1.0
230
-0.0000000000000002
  0
ARC
  5
10DA
  8
0
  6
VERDECKT
 62
     1
 10
-149.2458100314823071
 20
22.7533110315505809
 30
0.0
 40
9.5999999999991275
210
0.0
220
-0.0000000000000002
230
-1.0
 50
89.9999999999996732
 51
122.3280641221662961
  0
ARC
  5
10DB
  8
0
  6
VERDECKT
 62
     1
 10
-149.245810031482506
 20
111.7533110315484066
 30
0.0
 40
9.5999999999989463
210
0.0
220
-0.0000000000000002
230
-1.0
 50
237.6719358778333913
 51
270.0000000000009095
  0
ARC
  5
10DC
  8
0
  6
VERDECKT
 62
     1
 10
-159.9411361134665981
 20
39.6533110315455488
 30
0.0
 40
10.3999999999959503
210
0.0
220
-0.0000000000000002
230
-1.0
 50
270.0
 51
302.3280641221741121
  0
ARC
  5
10DD
  8
0
  6
VERDECKT
 62
     1
 10
-159.9411361134667118
 20
94.8533110315534458
 30
0.0
 40
10.3999999999960799
210
0.0
220
-0.0000000000000002
230
-1.0
 50
57.6719358778330999
 51
90.0000000000067359
  0
LINE
  5
10DE
  8
0
  6
VERDECKT
 62
     1
 10
159.9411361134679055
 20
105.2533110315495009
 30
-0.0000000000000234
 11
176.5524096960508871
 21
105.2533110315494014
 31
-0.0000000000000234
210
0.0
220
1.0
230
-0.0000000000000002
  0
LINE
  5
10DF
  8
0
  6
VERDECKT
 62
     1
 10
159.9411361134677918
 20
29.2533110315496501
 30
-0.0000000000000065
 11
176.5524096960508018
 21
29.2533110315496288
 31
-0.0000000000000065
210
0.0
220
1.0
230
-0.0000000000000002
  0
ARC
  5
10E0
  8
0
  6
VERDECKT
 62
     1
 10
-176.5524096960506881
 20
15.6533110315492703
 30
0.0
 40
13.60000000000041
210
0.0
220
-0.0000000000000002
230
-1.0
 50
90.000000000000469
 51
111.1831543930401978
  0
ARC
  5
10E1
  8
0
  6
VERDECKT
 62
     1
 10
-176.5524096960508018
 20
118.8533110315495946
 30
0.0
 40
13.6000000000002093
210
0.0
220
-0.0000000000000002
230
-1.0
 50
248.8168456069597028
 51
269.9999999999997726
  0
ARC
  5
10E2
  8
0
  6
VERDECKT
 62
     1
 10
-189.9224096960481063
 20
50.1533110315342086
 30
0.0
 40
23.4000932431103692
210
0.0
220
-0.0000000000000002
230
-1.0
 50
269.8435140456393242
 51
291.1831543930404109
  0
ARC
  5
10E3
  8
0
  6
VERDECKT
 62
     1
 10
-189.9224096960481063
 20
84.3533110315650703
 30
0.0
 40
23.4000932431101489
210
0.0
220
-0.0000000000000002
230
-1.0
 50
68.8168456069596886
 51
90.1564859543609884
  0
LINE
  5
10E4
  8
0
  6
VERDECKT
 62
     1
 10
189.9863198374571027
 20
107.753314015318395
 30
-0.0000000000000239
 11
199.0034872889322912
 21
107.753314015318395
 31
-0.0000000000000239
210
0.0
220
1.0
230
-0.0000000000000002
  0
LINE
  5
10E5
  8
0
  6
VERDECKT
 62
     1
 10
189.9863198374569038
 20
26.7533080477806706
 30
-0.0000000000000059
 11
199.003487288932206
 21
26.7533080477806493
 31
-0.0000000000000059
210
0.0
220
1.0
230
-0.0000000000000002
  0
ARC
  5
10E6
  8
0
  6
VERDECKT
 62
     1
 10
-199.0034718028306031
 20
50.1533760465292175
 30
0.0
 40
23.400065014984829
210
0.0
220
-0.0000000000000002
230
-1.0
 50
243.2044599869641957
 51
269.9999620818035169
  0
ARC
  5
10E7
  8
0
  6
VERDECKT
 62
     1
 10
-199.0034718028306884
 20
84.35324601657004
 30
0.0
 40
23.4000650149846301
210
0.0
220
-0.0000000000000002
230
-1.0
 50
90.00003791819654
 51
116.7955400130361028
  0
ARC
  5
10E8
  8
0
  6
VERDECKT
 62
     1
 10
-66.6506380317940454
 20
-47.3729765236933034
 30
0.0
 40
6.9999999999994582
210
0.0
220
-0.0000000000000002
230
-1.0
 50
354.9999999999993179
 51
0.0000000000005216
  0
ARC
  5
10E9
  8
0
  6
VERDECKT
 62
     1
 10
-122.450638031806605
 20
-47.3729765236938718
 30
0.0
 40
6.999999999988133
210
0.0
220
-0.0000000000000002
230
-1.0
 50
179.9999999999961915
 51
185.0000000000052864
  0
LINE
  5
10EA
  8
0
  6
VERDECKT
 62
     1
 10
129.4506380317949095
 20
17.2533110315499307
 30
-0.0000000000000038
 11
129.4506380317947105
 21
-47.3729765236934028
 31
0.0000000000000105
210
0.0
220
1.0
230
-0.0000000000000002
  0
LINE
  5
10EB
  8
0
  6
VERDECKT
 62
     1
 10
59.6506380317947205
 20
17.2533110315502398
 30
-0.0000000000000038
 11
59.6506380317945712
 21
-47.3729765236932394
 31
0.0000000000000105
210
0.0
220
1.0
230
-0.0000000000000002
  0
LINE
  5
10EC
  8
0
  6
VERDECKT
 62
     1
 10
60.0941930894935581
 20
-52.748460632706383
 30
0.0000000000000117
 11
59.677275145152322
 21
-47.9830667229269494
 31
0.0000000000000107
210
0.0
220
1.0
230
-0.0000000000000002
  0
LINE
  5
10ED
  8
0
  6
VERDECKT
 62
     1
 10
129.0070829740957095
 20
-52.7484606327064682
 30
0.0000000000000117
 11
129.4240009184368887
 21
-47.9830667229270915
 31
0.0000000000000107
210
0.0
220
1.0
230
-0.0000000000000002
  0
ARC
  5
10EE
  8
0
  6
VERDECKT
 62
     1
 10
-144.5506380317947048
 20
17.2533110315498703
 30
0.0
 40
84.8999999999998636
210
0.0
220
-0.0000000000000002
230
-1.0
 50
0.0000000000002417
 51
90.0000000000000995
  0
ARC
  5
10EF
  8
0
  6
VERDECKT
 62
     1
 10
144.5506380317945911
 20
17.2533110315498917
 30
-0.0000000000000038
 40
15.0999999999998504
 50
89.9999999999995737
 51
179.999999999999801
  0
ENDBLK
  5
10F1
  8
0
  0
ENDSEC
  0
SECTION
  2
ENTITIES
  0
TEXT
  5
8F
  8
VOLL
 10
78.076754716981128
 20
31.025947764705851
 30
0.0
 40
1.8
  1

  7
GREEKS
  0
INSERT
  5
A16
  8
ADSK_ASSOC_ENTITY_BACKUPS
  2
*S4
 10
0.0
 20
0.0
 30
0.0
  0
INSERT
  5
10B7
  8
STEMPEL
  2
A$C98FAF96A
 10
228.4589617096756058
 20
-147.6441316821536986
 30
-32.6595823152219467
  0
INSERT
  5
10F2
  8
STEMPEL
  2
A$CECF30977
 10
228.4589617096756058
 20
171.0497225500791956
 30
-32.6595823152218827
  0
VIEWPORT
  5
928
 67
     1
  8
0
 10
187.5926004317946081
 20
117.4993928190293957
 30
0.0
 40
827.0469067237620493
 41
463.278949087241017
 68
     1
 69
     1
1001
ACAD
1000
MVIEW
1002
{
1070
    16
1010
0.0
1020
0.0
1030
0.0
1010
0.0
1020
0.0
1030
1.0
1040
0.0
1040
463.278949087241017
1040
187.5926004317946081
1040
117.4993928190293957
1040
50.0
1040
0.0
1040
0.0
1070
     0
1070
  1500
1070
     1
1070
     1
1070
     0
1070
     0
1070
     0
1070
     0
1040
0.0
1040
0.0
1040
0.0
1040
10.0
1040
10.0
1040
10.0
1040
10.0
1070
     0
1002
{
1002
}
1002
}
  0
ENDSEC
  0
EOF
