  0
SECTION
  2
HEADER
  9
$ACADVER
  1
AC1009
  9
$INSBASE
 10
0.0
 20
0.0
 30
0.0
  9
$EXTMIN
 10
-5.2031463696619076
 20
-59.0334131763165715
 30
-0.0170041922592645
  9
$EXTMAX
 10
684.8823071947547305
 20
432.3078790640497004
 30
0.0114289685927815
  9
$LIMMIN
 10
0.0
 20
0.0
  9
$LIMMAX
 10
839.9999999999997726
 20
594.0
  9
$ORTHOMODE
 70
     1
  9
$REGENMODE
 70
     1
  9
$FILLMODE
 70
     1
  9
$QTEXTMODE
 70
     0
  9
$MIRRTEXT
 70
     1
  9
$DRAGMODE
 70
     2
  9
$LTSCALE
 40
20.0
  9
$OSMODE
 70
  1327
  9
$ATTMODE
 70
     1
  9
$TEXTSIZE
 40
3.5
  9
$TRACEWID
 40
0.5
  9
$TEXTSTYLE
  7
STANDARD
  9
$CLAYER
  8
DEFPOINTS
  9
$CELTYPE
  6
BYLAYER
  9
$CECOLOR
 62
   256
  9
$DIMSCALE
 40
2.0
  9
$DIMASZ
 40
3.5
  9
$DIMEXO
 40
1.0
  9
$DIMDLI
 40
7.0
  9
$DIMRND
 40
0.0
  9
$DIMDLE
 40
0.0
  9
$DIMEXE
 40
1.0
  9
$DIMTP
 40
8.0
  9
$DIMTM
 40
8.0
  9
$DIMTXT
 40
3.5
  9
$DIMCEN
 40
1.5
  9
$DIMTSZ
 40
0.0
  9
$DIMTOL
 70
     0
  9
$DIMLIM
 70
     0
  9
$DIMTIH
 70
     0
  9
$DIMTOH
 70
     0
  9
$DIMSE1
 70
     0
  9
$DIMSE2
 70
     0
  9
$DIMTAD
 70
     1
  9
$DIMZIN
 70
     8
  9
$DIMBLK
  1

  9
$DIMASO
 70
     1
  9
$DIMSHO
 70
     0
  9
$DIMPOST
  1

  9
$DIMAPOST
  1

  9
$DIMALT
 70
     0
  9
$DIMALTD
 70
     2
  9
$DIMALTF
 40
25.3999999999999986
  9
$DIMLFAC
 40
1.0
  9
$DIMTOFL
 70
     1
  9
$DIMTVP
 40
0.0
  9
$DIMTIX
 70
     0
  9
$DIMSOXD
 70
     0
  9
$DIMSAH
 70
     0
  9
$DIMBLK1
  1

  9
$DIMBLK2
  1

  9
$DIMSTYLE
  2
STANDARD
  9
$DIMCLRD
 70
     0
  9
$DIMCLRE
 70
     0
  9
$DIMCLRT
 70
     1
  9
$DIMTFAC
 40
0.5
  9
$DIMGAP
 40
1.5
  9
$LUNITS
 70
     2
  9
$LUPREC
 70
     2
  9
$SKETCHINC
 40
1.0
  9
$FILLETRAD
 40
0.0
  9
$AUNITS
 70
     0
  9
$AUPREC
 70
     0
  9
$MENU
  1
ACAD
  9
$ELEVATION
 40
0.0
  9
$PELEVATION
 40
0.0
  9
$THICKNESS
 40
0.0
  9
$LIMCHECK
 70
     0
  9
$BLIPMODE
 70
     0
  9
$CHAMFERA
 40
0.0
  9
$CHAMFERB
 40
0.0
  9
$SKPOLY
 70
     0
  9
$TDCREATE
 40
2452138.6649652780033648
  9
$TDUPDATE
 40
2458386.3287615738809109
  9
$TDINDWG
 40
0.1130799537
  9
$TDUSRTIMER
 40
0.1130799537
  9
$USRTIMER
 70
     1
  9
$ANGBASE
 50
0.0
  9
$ANGDIR
 70
     0
  9
$PDMODE
 70
     0
  9
$PDSIZE
 40
0.0
  9
$PLINEWID
 40
0.0
  9
$COORDS
 70
     1
  9
$SPLFRAME
 70
     0
  9
$SPLINETYPE
 70
     6
  9
$SPLINESEGS
 70
     8
  9
$ATTDIA
 70
     0
  9
$ATTREQ
 70
     0
  9
$HANDLING
 70
     1
  9
$HANDSEED
  5
F54
  9
$SURFTAB1
 70
     6
  9
$SURFTAB2
 70
     6
  9
$SURFTYPE
 70
     6
  9
$SURFU
 70
     6
  9
$SURFV
 70
     6
  9
$UCSNAME
  2

  9
$UCSORG
 10
0.0
 20
0.0
 30
0.0
  9
$UCSXDIR
 10
1.0
 20
0.0
 30
0.0
  9
$UCSYDIR
 10
0.0
 20
1.0
 30
0.0
  9
$PUCSNAME
  2

  9
$PUCSORG
 10
0.0
 20
0.0
 30
0.0
  9
$PUCSXDIR
 10
1.0
 20
0.0
 30
0.0
  9
$PUCSYDIR
 10
0.0
 20
1.0
 30
0.0
  9
$USERI1
 70
     0
  9
$USERI2
 70
     0
  9
$USERI3
 70
     0
  9
$USERI4
 70
     0
  9
$USERI5
 70
     0
  9
$USERR1
 40
0.0
  9
$USERR2
 40
0.0
  9
$USERR3
 40
0.0
  9
$USERR4
 40
0.0
  9
$USERR5
 40
0.0
  9
$WORLDVIEW
 70
     1
  9
$SHADEDGE
 70
     3
  9
$SHADEDIF
 70
    70
  9
$TILEMODE
 70
     1
  9
$MAXACTVP
 70
    16
  9
$PLIMCHECK
 70
     0
  9
$PEXTMIN
 10
-0.1062264240478399
 20
-0.1350198713457438
 30
0.0
  9
$PEXTMAX
 10
9.9484831844859016
 20
6.9363824130840541
 30
0.0
  9
$PLIMMIN
 10
-0.2500002402958907
 20
-0.2499999962453767
  9
$PLIMMAX
 10
10.7499995194082203
 20
8.2499997634587334
  9
$UNITMODE
 70
     0
  9
$VISRETAIN
 70
     0
  9
$PLINEGEN
 70
     0
  9
$PSLTSCALE
 70
     0
  0
ENDSEC
  0
SECTION
  2
TABLES
  0
TABLE
  2
VPORT
 70
     1
  0
VPORT
  2
*ACTIVE
 70
     0
 10
0.0
 20
0.0
 11
1.0
 21
1.0
 12
0.0169359840316474
 22
8.5422389057862063
 13
0.0
 23
0.0
 14
1.0
 24
1.0
 15
10.0
 25
10.0
 16
-0.0000000000004547
 26
0.0
 36
2138.6705846351560467
 17
339.8226444285147068
 27
178.0949940380803866
 37
0.0000000000000739
 40
495.0171622571270973
 41
1.8514357053682891
 42
50.0
 43
0.0
 44
0.0
 50
0.0
 51
0.0
 71
     0
 72
  1500
 73
     1
 74
     0
 75
     0
 76
     0
 77
     0
 78
     0
  0
ENDTAB
  0
TABLE
  2
LTYPE
 70
     4
  0
LTYPE
  2
CONTINUOUS
 70
     0
  3
Solid line
 72
    65
 73
     0
 40
0.0
  0
LTYPE
  2
VERDECKT
 70
     0
  3
Verdeckt __ __ __ __ __ __ __ __ __ __ __ __ __
 72
    65
 73
     2
 40
0.375
 49
0.25
 49
-0.125
  0
ENDTAB
  0
TABLE
  2
LAYER
 70
    10
  0
LAYER
  2
0
 70
     0
 62
     7
  6
CONTINUOUS
  0
LAYER
  2
VOLL
 70
     0
 62
     1
  6
CONTINUOUS
  0
LAYER
  2
DEFPOINTS
 70
     0
 62
     7
  6
CONTINUOUS
  0
ENDTAB
  0
TABLE
  2
STYLE
 70
     3
  0
STYLE
  2
STANDARD
 70
     0
 40
0.0
 41
0.8
 50
0.0
 71
     0
 42
3.5
  3
simplex.shx
  4

  0
STYLE
  2
GREEKS
 70
     0
 40
0.0
 41
0.8
 50
0.0
 71
     0
 42
2.5
  3
SIMPLEX.shx
  4

  0
ENDTAB
  0
TABLE
  2
VIEW
 70
     2
  0
ENDTAB
  0
TABLE
  2
UCS
 70
     0
  0
ENDTAB
  0
TABLE
  2
APPID
 70
     8
  0
APPID
  2
ACAD
 70
     0
  0
APPID
  2
ACAD_NAV_VCDISPLAY
 70
     0
  0
APPID
  2
ACAD_PSEXT
 70
     0
  0
APPID
  2
ACAD_EXEMPT_FROM_CAD_STANDARDS
 70
     0
  0
APPID
  2
ACAD_MLEADERVER
 70
     0
  0
APPID
  2
ACAECLAYERSTANDARD
 70
     0
  0
APPID
  2
ACCMTRANSPARENCY
 70
     0
  0
APPID
  2
ACAD_OBJECT_CHANGE_GUID
 70
     0
  0
ENDTAB
  0
TABLE
  2
DIMSTYLE
 70
     1
  0
DIMSTYLE
  2
STANDARD
 70
     0
  3

  4

  5

  6

  7

 40
1.0
 41
0.18
 42
0.0625
 43
0.38
 44
0.18
 45
0.0
 46
0.0
 47
0.0
 48
0.0
140
0.18
141
0.09
142
0.0
143
25.3999999999999986
144
1.0
145
0.0
146
1.0
147
0.09
 71
     0
 72
     0
 73
     1
 74
     1
 75
     0
 76
     0
 77
     0
 78
     0
170
     0
171
     2
172
     0
173
     0
174
     0
175
     0
176
     0
177
     0
178
     0
  0
ENDTAB
  0
ENDSEC
  0
SECTION
  2
BLOCKS
  0
BLOCK
  8
0
  2
$MODEL_SPACE
 70
     0
 10
0.0
 20
0.0
 30
0.0
  3
$MODEL_SPACE
  1

  0
ENDBLK
  5
57
  8
0
  0
BLOCK
 67
     1
  8
0
  2
$PAPER_SPACE
 70
     0
 10
0.0
 20
0.0
 30
0.0
  3
$PAPER_SPACE
  1

  0
ENDBLK
  5
55
 67
     1
  8
0
  0
BLOCK
  8
0
  2
A$C2316545C
 70
     0
 10
0.0
 20
0.0
 30
0.0
  3
A$C2316545C
  1

  0
LINE
  5
E79
  8
0
  6
CONTINUOUS
 62
     3
 10
690.0
 20
-50.3875793553184508
 30
0.0000000000001608
 11
690.0
 21
50.3875793553184508
 31
0.0000000000001608
  0
LINE
  5
E7A
  8
0
  6
CONTINUOUS
 62
     3
 10
0.0
 20
55.7067558379250016
 30
0.0
 11
0.0
 21
-55.7067558379250016
 31
0.0
  0
LINE
  5
E7B
  8
0
  6
CONTINUOUS
 62
     3
 10
594.9949493661172255
 20
51.0
 30
0.0000000000001387
 11
682.9999999999992042
 21
51.0
 31
0.0000000000001592
  0
LINE
  5
E7C
  8
0
  6
CONTINUOUS
 62
     3
 10
594.9949493661172255
 20
-51.0
 30
0.0000000000001387
 11
682.9999999999992042
 21
-51.0
 31
0.0000000000001592
  0
LINE
  5
E7D
  8
0
  6
CONTINUOUS
 62
     3
 10
690.0
 20
-50.3875793553184081
 30
0.0000000000001608
 11
682.9999999999992042
 21
-50.9999999999999574
 31
0.0000000000001592
  0
LINE
  5
E7E
  8
0
  6
CONTINUOUS
 62
     3
 10
690.0
 20
50.3875793553184081
 30
0.0000000000001608
 11
682.9999999999992042
 21
50.9999999999999574
 31
0.0000000000001592
  0
LINE
  5
E7F
  8
0
  6
CONTINUOUS
 62
     3
 10
594.9949493661172255
 20
51.0
 30
0.0000000000001387
 11
545.497474683059977
 21
50.9999999999999929
 31
0.0000000000001279
  0
LINE
  5
E80
  8
0
  6
CONTINUOUS
 62
     3
 10
545.497474683059977
 20
-51.0000000000000071
 30
0.0000000000001279
 11
594.9949493661172255
 21
-51.0
 31
0.0000000000001387
  0
LINE
  5
E81
  8
0
  6
CONTINUOUS
 62
     3
 10
390.9974746830553158
 20
50.9999999999999787
 30
0.0000000000000853
 11
545.497474683059977
 21
50.9999999999999929
 31
0.0000000000001137
  0
LINE
  5
E82
  8
0
  6
CONTINUOUS
 62
     3
 10
390.9974746830553158
 20
-51.0000000000000071
 30
0.0000000000000853
 11
545.497474683059977
 21
-51.0000000000000071
 31
0.0000000000001137
  0
LINE
  5
E83
  8
0
  6
CONTINUOUS
 62
     3
 10
292.0025253169428083
 20
-51.0000000000000071
 30
0.0000000000000568
 11
390.9974746830553158
 21
-51.0000000000000071
 31
0.0000000000000853
  0
LINE
  5
E84
  8
0
  6
CONTINUOUS
 62
     3
 10
390.9974746830553158
 20
50.9999999999999929
 30
0.0000000000000853
 11
292.002525316942922
 21
50.9999999999999929
 31
0.0000000000000568
  0
LINE
  5
E85
  8
0
  6
CONTINUOUS
 62
     3
 10
137.5025253169384882
 20
51.0
 30
0.000000000000032
 11
292.002525316942922
 21
50.9999999999999929
 31
0.0000000000000604
  0
LINE
  5
E86
  8
0
  6
CONTINUOUS
 62
     3
 10
137.5025253169384882
 20
-51.0
 30
0.000000000000032
 11
292.002525316942922
 21
-51.0000000000000071
 31
0.0000000000000604
  0
LINE
  5
E87
  8
0
  6
CONTINUOUS
 62
     3
 10
137.5025253169386019
 20
50.9999999999999929
 30
0.000000000000032
 11
88.0050506338836556
 21
51.0
 31
0.0000000000000205
  0
LINE
  5
E88
  8
0
  6
CONTINUOUS
 62
     3
 10
88.005050633883684
 20
-51.0
 30
0.0000000000000205
 11
137.5025253169386019
 21
-51.0000000000000071
 31
0.000000000000032
  0
LINE
  5
E89
  8
0
  6
CONTINUOUS
 62
     3
 10
88.005050633883684
 20
-50.9999999999998792
 30
0.0000000000000205
 11
76.0339925198682067
 21
-50.9999999999998792
 31
0.0000000000000177
  0
LINE
  5
E8A
  8
0
  6
CONTINUOUS
 62
     3
 10
88.005050633883684
 20
50.9999999999998792
 30
0.0000000000000205
 11
76.0339925198682067
 21
50.9999999999998792
 31
0.0000000000000177
  0
ARC
  5
E8B
  8
0
  6
CONTINUOUS
 62
     3
 10
76.033992519867752
 20
58.9999999999986215
 30
0.0000000000000177
 40
7.9999999999988196
 50
235.6988472432128958
 51
270.0000000000032969
  0
ARC
  5
E8C
  8
0
  6
CONTINUOUS
 62
     3
 10
76.033992519867752
 20
-58.9999999999986215
 30
0.0000000000000177
 40
7.9999999999988169
 50
89.9999999999967457
 51
124.3011527567871042
  0
ARC
  5
E8D
  8
0
  6
CONTINUOUS
 62
     3
 10
63.0725111230494875
 20
39.9999999999907985
 30
0.0000000000000147
 40
15.0000000000089901
 50
55.6988472432148427
 51
89.999999999988745
  0
ARC
  5
E8E
  8
0
  6
CONTINUOUS
 62
     3
 10
63.0725111230494875
 20
-39.9999999999907985
 30
0.0000000000000147
 40
15.0000000000089901
 50
270.0000000000111982
 51
304.3011527567851999
  0
LINE
  5
E8F
  8
0
  6
CONTINUOUS
 62
     3
 10
63.0725111230524433
 20
-54.9999999999998295
 30
0.0000000000000147
 11
44.5
 21
-54.9999999999998295
 31
0.0000000000000104
  0
LINE
  5
E90
  8
0
  6
CONTINUOUS
 62
     3
 10
63.0725111230524433
 20
54.9999999999998295
 30
0.0000000000000147
 11
44.5
 21
54.9999999999998295
 31
0.0000000000000104
  0
ARC
  5
E91
  8
0
  6
CONTINUOUS
 62
     3
 10
44.5000000000004405
 20
67.0000000000001563
 30
0.0000000000000104
 40
12.0000000000002807
 50
243.1119523822736994
 51
270.0
  0
ARC
  5
E92
  8
0
  6
CONTINUOUS
 62
     3
 10
44.5000000000004192
 20
-67.0000000000000711
 30
0.0000000000000104
 40
12.0000000000002007
 50
90.0000000000020606
 51
116.8880476177285033
  0
ARC
  5
E93
  8
0
  6
CONTINUOUS
 62
     3
 10
27.7667994693210893
 20
34.0000000000112621
 30
0.0000000000000065
 40
24.9999999999886491
 50
63.1119523822709212
 51
90.0000000000062528
  0
ARC
  5
E94
  8
0
  6
CONTINUOUS
 62
     3
 10
27.7667994693210289
 20
-34.0000000000110205
 30
0.0000000000000065
 40
24.99999999998888
 50
269.9999999999939178
 51
296.8880476177290006
  0
LINE
  5
E95
  8
0
  6
CONTINUOUS
 62
     3
 10
27.7667994693183608
 20
-58.9999999999999503
 30
0.0000000000000065
 11
12.6047514625711301
 21
-58.9999999999999503
 31
0.0000000000000029
  0
LINE
  5
E96
  8
0
  6
CONTINUOUS
 62
     3
 10
27.7667994693183608
 20
58.9999999999999503
 30
0.0000000000000065
 11
12.6047514625711301
 21
58.9999999999999503
 31
0.0000000000000029
  0
ARC
  5
E97
  8
0
  6
CONTINUOUS
 62
     3
 10
12.6047514625711106
 20
33.9999999999980815
 30
0.0000000000000029
 40
25.0000000000018687
 50
89.9999999999999574
 51
114.9999999999917009
  0
ARC
  5
E98
  8
0
  6
CONTINUOUS
 62
     3
 10
12.6047514625711106
 20
-33.9999999999980389
 30
0.0000000000000029
 40
25.0000000000019185
 50
245.0000000000082991
 51
270.0
  0
LINE
  5
E99
  8
0
  6
CONTINUOUS
 62
     3
 10
-0.0000000000000269
 20
55.7067558379250585
 30
0.0
 11
2.0392949190561209
 21
56.6576946759175115
 31
0.0000000000000005
  0
LINE
  5
E9A
  8
0
  6
CONTINUOUS
 62
     3
 10
-0.0000000000000269
 20
-55.7067558379250585
 30
0.0
 11
2.0392949190561209
 21
-56.6576946759175115
 31
0.0000000000000005
  0
LINE
  5
E9B
  8
0
  6
VERDECKT
 62
     1
 10
690.0
 20
-48.3799396802316579
 30
0.0000000000001608
 11
682.9126781141815172
 21
-49.0000000000000213
 31
0.0000000000001592
  0
LINE
  5
E9C
  8
0
  6
VERDECKT
 62
     1
 10
690.0
 20
48.3799396802316579
 30
0.0000000000001608
 11
682.9126781141815172
 21
49.0000000000000213
 31
0.0000000000001592
  0
LINE
  5
E9D
  8
0
  6
VERDECKT
 62
     1
 10
682.9126781141815172
 20
-49.0
 30
0.0000000000001592
 11
594.9949493661213182
 21
-49.0
 31
0.0000000000001387
  0
LINE
  5
E9E
  8
0
  6
VERDECKT
 62
     1
 10
682.9126781141815172
 20
49.0
 30
0.0000000000001592
 11
594.9949493661213182
 21
49.0
 31
0.0000000000001387
  0
LINE
  5
E9F
  8
0
  6
VERDECKT
 62
     1
 10
594.9949493661213182
 20
49.0
 30
0.0000000000001387
 11
545.4974746830596359
 21
48.9999999999999929
 31
0.0000000000001279
  0
LINE
  5
EA0
  8
0
  6
VERDECKT
 62
     1
 10
545.4974746830597496
 20
-49.0000000000000071
 30
0.0000000000001279
 11
594.9949493661213182
 21
-49.0
 31
0.0000000000001387
  0
LINE
  5
EA1
  8
0
  6
VERDECKT
 62
     1
 10
390.9974746830548042
 20
48.9999999999999787
 30
0.0000000000000853
 11
545.4974746830596359
 21
48.9999999999999929
 31
0.0000000000001137
  0
LINE
  5
EA2
  8
0
  6
VERDECKT
 62
     1
 10
390.9974746830548042
 20
-49.0000000000000213
 30
0.0000000000000853
 11
545.4974746830596359
 21
-49.0000000000000071
 31
0.0000000000001137
  0
LINE
  5
EA3
  8
0
  6
VERDECKT
 62
     1
 10
292.0025253169428083
 20
-49.0000000000000071
 30
0.0000000000000568
 11
390.9974746830549179
 21
-49.0000000000000071
 31
0.0000000000000853
  0
LINE
  5
EA4
  8
0
  6
VERDECKT
 62
     1
 10
390.9974746830549179
 20
48.9999999999999929
 30
0.0000000000000853
 11
292.0025253169428083
 21
48.9999999999999929
 31
0.0000000000000568
  0
LINE
  5
EA5
  8
0
  6
VERDECKT
 62
     1
 10
137.5025253169384882
 20
49.0
 30
0.000000000000032
 11
292.002525316942922
 21
48.9999999999999929
 31
0.0000000000000604
  0
LINE
  5
EA6
  8
0
  6
VERDECKT
 62
     1
 10
137.5025253169384882
 20
-49.0
 30
0.000000000000032
 11
292.002525316942922
 21
-49.0000000000000071
 31
0.0000000000000604
  0
LINE
  5
EA7
  8
0
  6
VERDECKT
 62
     1
 10
137.5025253169384882
 20
48.9999999999999929
 30
0.000000000000032
 11
88.0050506338836698
 21
49.0
 31
0.0000000000000205
  0
LINE
  5
EA8
  8
0
  6
VERDECKT
 62
     1
 10
88.0050506338837124
 20
-49.0
 30
0.0000000000000205
 11
137.5025253169384882
 21
-49.0000000000000071
 31
0.000000000000032
  0
LINE
  5
EA9
  8
0
  6
VERDECKT
 62
     1
 10
88.005050633883684
 20
-48.9999999999997726
 30
0.0000000000000205
 11
76.0339925198682067
 21
-48.9999999999997726
 31
0.0000000000000177
  0
LINE
  5
EAA
  8
0
  6
VERDECKT
 62
     1
 10
88.005050633883684
 20
48.9999999999997726
 30
0.0000000000000205
 11
76.0339925198682067
 21
48.9999999999997726
 31
0.0000000000000177
  0
ARC
  5
EAB
  8
0
  6
VERDECKT
 62
     1
 10
76.0339925198684199
 20
59.0000000000006182
 30
0.0000000000000177
 40
10.00000000000081
 50
235.6988472432153117
 51
270.0
  0
ARC
  5
EAC
  8
0
  6
VERDECKT
 62
     1
 10
76.0339925198684199
 20
-59.0000000000006182
 30
0.0000000000000177
 40
10.00000000000081
 50
90.0000000000012221
 51
124.3011527567858963
  0
ARC
  5
EAD
  8
0
  6
VERDECKT
 62
     1
 10
63.0725111230501696
 20
39.9999999999936691
 30
0.0000000000000147
 40
13.0000000000062101
 50
55.6988472432121782
 51
89.9999999999900524
  0
ARC
  5
EAE
  8
0
  6
VERDECKT
 62
     1
 10
63.0725111230501696
 20
-39.9999999999936691
 30
0.0000000000000147
 40
13.0000000000062101
 50
270.0000000000100044
 51
304.3011527567879284
  0
LINE
  5
EAF
  8
0
  6
VERDECKT
 62
     1
 10
63.0725111230524433
 20
-52.9999999999998224
 30
0.0000000000000147
 11
44.5
 21
-52.9999999999998224
 31
0.0000000000000104
  0
LINE
  5
EB0
  8
0
  6
VERDECKT
 62
     1
 10
63.0725111230524433
 20
52.9999999999998224
 30
0.0000000000000147
 11
44.5
 21
52.9999999999998224
 31
0.0000000000000104
  0
ARC
  5
EB1
  8
0
  6
VERDECKT
 62
     1
 10
44.5000000000000071
 20
66.9999999999993037
 30
0.0000000000000104
 40
13.9999999999994298
 50
243.1119523822719941
 51
270.0
  0
ARC
  5
EB2
  8
0
  6
VERDECKT
 62
     1
 10
44.5000000000000071
 20
-66.9999999999993747
 30
0.0000000000000104
 40
13.9999999999995008
 50
90.0000000000000568
 51
116.8880476177279064
  0
ARC
  5
EB3
  8
0
  6
VERDECKT
 62
     1
 10
27.7667994693202012
 20
34.0000000000076099
 30
0.0000000000000065
 40
22.99999999999228
 50
63.1119523822728112
 51
90.0000000000045759
  0
ARC
  5
EB4
  8
0
  6
VERDECKT
 62
     1
 10
27.7667994693202189
 20
-34.0000000000077165
 30
0.0000000000000065
 40
22.9999999999921698
 50
269.9999999999953957
 51
296.8880476177272953
  0
LINE
  5
EB5
  8
0
  6
VERDECKT
 62
     1
 10
27.7667994693183608
 20
-56.9999999999999432
 30
0.0000000000000065
 11
12.6047514625711301
 21
-56.9999999999999432
 31
0.0000000000000029
  0
LINE
  5
EB6
  8
0
  6
VERDECKT
 62
     1
 10
27.7667994693183608
 20
56.9999999999999432
 30
0.0000000000000065
 11
12.6047514625711301
 21
56.9999999999999432
 31
0.0000000000000029
  0
ARC
  5
EB7
  8
0
  6
VERDECKT
 62
     1
 10
12.6047514625706807
 20
33.99999999999973
 30
0.0000000000000029
 40
23.0000000000002309
 50
89.9999999999988916
 51
114.9999999999922977
  0
ARC
  5
EB8
  8
0
  6
VERDECKT
 62
     1
 10
12.6047514625706896
 20
-33.9999999999997016
 30
0.0000000000000029
 40
23.0000000000002487
 50
245.0000000000065086
 51
270.0
  0
LINE
  5
EB9
  8
0
  6
VERDECKT
 62
     1
 10
-0.0000000000002278
 20
53.4999999999999005
 30
0.0
 11
2.8845314425373441
 21
54.8450791018440427
 31
0.0000000000000007
  0
LINE
  5
EBA
  8
0
  6
VERDECKT
 62
     1
 10
-0.0000000000002278
 20
-53.4999999999999005
 30
0.0
 11
2.8845314425373441
 21
-54.8450791018440427
 31
0.0000000000000007
  0
ENDBLK
  5
EBC
  8
0
  0
BLOCK
  8
0
  2
A$C1E4D6C30
 70
     0
 10
0.0
 20
0.0
 30
0.0
  3
A$C1E4D6C30
  1

  0
LINE
  5
EC0
  8
0
  6
CONTINUOUS
 62
     3
 10
690.0
 20
-50.3875793553184721
 30
0.0000000000000112
 11
690.0
 21
50.3875793553184721
 31
-0.0000000000000112
210
0.0
220
1.0
230
-0.0000000000000002
  0
LINE
  5
EC1
  8
0
  6
CONTINUOUS
 62
     3
 10
0.0000000000002274
 20
55.7067558379250301
 30
-0.0000000000000124
 11
-0.0000000000002274
 21
-55.7067558379250301
 31
0.0000000000000124
210
0.0
220
1.0
230
-0.0000000000000002
  0
LINE
  5
EC2
  8
0
  6
CONTINUOUS
 62
     3
 10
594.9949493661173392
 20
51.0000000000000071
 30
-0.0000000000000113
 11
682.9999999999992042
 21
51.0000000000000071
 31
-0.0000000000000113
210
0.0
220
1.0
230
-0.0000000000000002
  0
LINE
  5
EC3
  8
0
  6
CONTINUOUS
 62
     3
 10
594.9949493661171118
 20
-51.0000000000000071
 30
0.0000000000000113
 11
682.9999999999992042
 21
-51.0000000000000071
 31
0.0000000000000113
210
0.0
220
1.0
230
-0.0000000000000002
  0
LINE
  5
EC4
  8
0
  6
CONTINUOUS
 62
     3
 10
690.0
 20
-50.3875793553184295
 30
0.0000000000000112
 11
682.9999999999992042
 21
-50.9999999999999716
 31
0.0000000000000113
210
0.0
220
1.0
230
-0.0000000000000002
  0
LINE
  5
EC5
  8
0
  6
CONTINUOUS
 62
     3
 10
690.0
 20
50.3875793553184295
 30
-0.0000000000000112
 11
682.9999999999992042
 21
50.9999999999999716
 31
-0.0000000000000113
210
0.0
220
1.0
230
-0.0000000000000002
  0
ARC
  5
EC6
  8
0
  6
CONTINUOUS
 62
     3
 10
-594.9949493661209772
 20
-70.0000000000050022
 30
0.0
 40
121.0000000000045048
210
0.0
220
-0.0000000000000002
230
-1.0
 50
45.0000000000021885
 51
89.9999999999982236
  0
ARC
  5
EC7
  8
0
  6
CONTINUOUS
 62
     3
 10
594.9949493661215456
 20
-70.0000000000059259
 30
0.0000000000000155
 40
19.0000000000054392
 50
90.000000000013344
 51
135.0000000000086118
  0
LINE
  5
EC8
  8
0
  6
CONTINUOUS
 62
     3
 10
354.9350288425442272
 20
-138.940079476429986
 30
0.0000000000000309
 11
509.4350288425490021
 21
15.5599205235736502
 31
-0.0000000000000035
210
0.0
220
1.0
230
-0.0000000000000002
  0
LINE
  5
EC9
  8
0
  6
CONTINUOUS
 62
     3
 10
427.0599205235662907
 20
-211.0649711574635035
 30
0.0000000000000469
 11
581.5599205235712361
 21
-56.5649711574597021
 31
0.0000000000000126
210
0.0
220
1.0
230
-0.0000000000000002
  0
ARC
  5
ECA
  8
0
  6
CONTINUOUS
 62
     3
 10
-341.5000000000015916
 20
-125.5050506338802023
 30
0.0
 40
121.0000000000025011
210
0.0
220
-0.0000000000000002
230
-1.0
 50
225.0000000000061107
 51
314.9999999999972147
  0
ARC
  5
ECB
  8
0
  6
CONTINUOUS
 62
     3
 10
341.5000000000015916
 20
-125.5050506338802023
 30
0.0000000000000279
 40
19.0000000000025189
 50
224.999999999994003
 51
314.9999999999845954
  0
LINE
  5
ECC
  8
0
  6
CONTINUOUS
 62
     3
 10
173.5649711574496052
 20
15.5599205235785405
 30
-0.0000000000000035
 11
328.0649711574540106
 21
-138.9400794764250122
 31
0.0000000000000309
210
0.0
220
1.0
230
-0.0000000000000002
  0
LINE
  5
ECD
  8
0
  6
CONTINUOUS
 62
     3
 10
101.4400794764273996
 20
-56.5649711574549414
 30
0.0000000000000126
 11
255.9400794764316913
 21
-211.0649711574585012
 31
0.0000000000000469
210
0.0
220
1.0
230
-0.0000000000000002
  0
ARC
  5
ECE
  8
0
  6
CONTINUOUS
 62
     3
 10
-88.0050506338838829
 20
-70.0000000000006253
 30
0.0
 40
121.0000000000003979
210
0.0
220
-0.0000000000000002
230
-1.0
 50
89.9999999999999432
 51
134.9999999999955094
  0
ARC
  5
ECF
  8
0
  6
CONTINUOUS
 62
     3
 10
88.0050506338839256
 20
-70.0000000000005542
 30
0.0000000000000155
 40
19.0000000000003411
 50
45.0000000000044977
 51
90.0000000000011084
  0
LINE
  5
ED0
  8
0
  6
CONTINUOUS
 62
     3
 10
88.0050506338835561
 20
-51.0000000000001421
 30
0.0000000000000113
 11
76.0339925198679794
 21
-51.0000000000001208
 31
0.0000000000000113
210
0.0
220
1.0
230
-0.0000000000000002
  0
LINE
  5
ED1
  8
0
  6
CONTINUOUS
 62
     3
 10
88.0050506338838119
 20
50.9999999999996518
 30
-0.0000000000000113
 11
76.0339925198683346
 21
50.9999999999996874
 31
-0.0000000000000113
210
0.0
220
1.0
230
-0.0000000000000002
  0
ARC
  5
ED2
  8
0
  6
CONTINUOUS
 62
     3
 10
-76.0339925198679083
 20
58.9999999999984865
 30
0.0
 40
7.9999999999988409
210
0.0
220
-0.0000000000000002
230
-1.0
 50
270.0
 51
304.3011527567902021
  0
ARC
  5
ED3
  8
0
  6
CONTINUOUS
 62
     3
 10
-76.0339925198676241
 20
-58.9999999999988134
 30
0.0
 40
7.9999999999988241
210
0.0
220
-0.0000000000000002
230
-1.0
 50
55.6988472432122279
 51
90.0000000000025437
  0
ARC
  5
ED4
  8
0
  6
CONTINUOUS
 62
     3
 10
-63.0725111230495372
 20
39.9999999999904574
 30
0.0
 40
15.0000000000091607
210
0.0
220
-0.0000000000000002
230
-1.0
 50
90.0000000000115534
 51
124.3011527567849015
  0
ARC
  5
ED5
  8
0
  6
CONTINUOUS
 62
     3
 10
-63.0725111230493809
 20
-39.9999999999909193
 30
0.0
 40
15.0000000000090399
210
0.0
220
-0.0000000000000002
230
-1.0
 50
235.6988472432153969
 51
269.9999999999891998
  0
LINE
  5
ED6
  8
0
  6
CONTINUOUS
 62
     3
 10
63.0725111230522089
 20
-55.0000000000000284
 30
0.0000000000000122
 11
44.4999999999997726
 21
-55.0
 31
0.0000000000000122
210
0.0
220
1.0
230
-0.0000000000000002
  0
LINE
  5
ED7
  8
0
  6
CONTINUOUS
 62
     3
 10
63.0725111230525712
 20
54.9999999999996518
 30
-0.0000000000000122
 11
44.5000000000001279
 21
54.9999999999996874
 31
-0.0000000000000122
210
0.0
220
1.0
230
-0.0000000000000002
  0
ARC
  5
ED8
  8
0
  6
CONTINUOUS
 62
     3
 10
-44.5000000000006111
 20
67.0000000000000853
 30
0.0
 40
12.0000000000003109
210
0.0
220
-0.0000000000000002
230
-1.0
 50
270.0
 51
296.8880476177262153
  0
ARC
  5
ED9
  8
0
  6
CONTINUOUS
 62
     3
 10
-44.5000000000002629
 20
-67.0000000000002842
 30
0.0
 40
12.0000000000002807
210
0.0
220
-0.0000000000000002
230
-1.0
 50
63.1119523822714186
 51
89.9999999999975984
  0
ARC
  5
EDA
  8
0
  6
CONTINUOUS
 62
     3
 10
-27.7667994693211284
 20
34.0000000000109992
 30
0.0
 40
24.9999999999888516
210
0.0
220
-0.0000000000000002
230
-1.0
 50
89.9999999999939888
 51
116.8880476177291001
  0
ARC
  5
EDB
  8
0
  6
CONTINUOUS
 62
     3
 10
-27.7667994693210183
 20
-34.0000000000113403
 30
0.0
 40
24.9999999999886313
210
0.0
220
-0.0000000000000002
230
-1.0
 50
243.111952382271312
 51
270.0000000000065938
  0
LINE
  5
EDC
  8
0
  6
CONTINUOUS
 62
     3
 10
27.7667994693181299
 20
-59.0000000000000284
 30
0.0000000000000131
 11
12.6047514625708992
 21
-58.9999999999999929
 31
0.0000000000000131
210
0.0
220
1.0
230
-0.0000000000000002
  0
LINE
  5
EDD
  8
0
  6
CONTINUOUS
 62
     3
 10
27.7667994693184994
 20
58.9999999999998721
 30
-0.0000000000000131
 11
12.6047514625712704
 21
58.9999999999999218
 31
-0.0000000000000131
210
0.0
220
1.0
230
-0.0000000000000002
  0
ARC
  5
EDE
  8
0
  6
CONTINUOUS
 62
     3
 10
-12.60475146257121
 20
33.999999999997911
 30
0.0
 40
25.0000000000020108
210
0.0
220
-0.0000000000000002
230
-1.0
 50
65.0000000000085265
 51
90.0000000000001705
  0
ARC
  5
EDF
  8
0
  6
CONTINUOUS
 62
     3
 10
-12.6047514625710093
 20
-33.9999999999981668
 30
0.0
 40
25.000000000001851
210
0.0
220
-0.0000000000000002
230
-1.0
 50
270.0000000000002274
 51
294.9999999999920988
  0
LINE
  5
EE0
  8
0
  6
CONTINUOUS
 62
     3
 10
0.0000000000001084
 20
55.7067558379250727
 30
-0.0000000000000124
 11
2.0392949190562608
 21
56.6576946759175186
 31
-0.0000000000000126
210
0.0
220
1.0
230
-0.0000000000000002
  0
LINE
  5
EE1
  8
0
  6
CONTINUOUS
 62
     3
 10
-0.0000000000002314
 20
-55.7067558379250301
 30
0.0000000000000124
 11
2.039294919055914
 21
-56.6576946759174902
 31
0.0000000000000126
210
0.0
220
1.0
230
-0.0000000000000002
  0
LINE
  5
EE2
  8
0
  6
VERDECKT
 62
     1
 10
690.0
 20
-48.3799396802316792
 30
0.0000000000000107
 11
682.9126781141815172
 21
-49.0000000000000284
 31
0.0000000000000109
210
0.0
220
1.0
230
-0.0000000000000002
  0
LINE
  5
EE3
  8
0
  6
VERDECKT
 62
     1
 10
690.0
 20
48.3799396802316792
 30
-0.0000000000000107
 11
682.9126781141815172
 21
49.0000000000000284
 31
-0.0000000000000109
210
0.0
220
1.0
230
-0.0000000000000002
  0
LINE
  5
EE4
  8
0
  6
VERDECKT
 62
     1
 10
682.9126781141815172
 20
-49.0000000000000213
 30
0.0000000000000109
 11
594.9949493661212045
 21
-49.0000000000000213
 31
0.0000000000000109
210
0.0
220
1.0
230
-0.0000000000000002
  0
LINE
  5
EE5
  8
0
  6
VERDECKT
 62
     1
 10
682.9126781141815172
 20
49.0000000000000213
 30
-0.0000000000000109
 11
594.9949493661214319
 21
49.0000000000000213
 31
-0.0000000000000109
210
0.0
220
1.0
230
-0.0000000000000002
  0
ARC
  5
EE6
  8
0
  6
VERDECKT
 62
     1
 10
-594.9949493661209772
 20
-70.0000000000053859
 30
0.0
 40
119.0000000000055991
210
0.0
220
-0.0000000000000002
230
-1.0
 50
45.0000000000023732
 51
90.0000000000001847
  0
ARC
  5
EE7
  8
0
  6
VERDECKT
 62
     1
 10
594.9949493661209772
 20
-70.0000000000053006
 30
0.0000000000000155
 40
21.0000000000054996
 50
89.9999999999996874
 51
135.0000000000067928
  0
LINE
  5
EE8
  8
0
  6
VERDECKT
 62
     1
 10
356.3492424049167084
 20
-140.3542930388024956
 30
0.0000000000000312
 11
510.8492424049214833
 21
14.1457069612011406
 31
-0.0000000000000031
210
0.0
220
1.0
230
-0.0000000000000002
  0
LINE
  5
EE9
  8
0
  6
VERDECKT
 62
     1
 10
425.6457069611931274
 20
-209.6507575950894875
 30
0.0000000000000466
 11
580.145706961198016
 21
-55.1507575950857216
 31
0.0000000000000122
210
0.0
220
1.0
230
-0.0000000000000002
  0
ARC
  5
EEA
  8
0
  6
VERDECKT
 62
     1
 10
-341.5000000000011937
 20
-125.5050506338801029
 30
0.0
 40
119.0000000000022027
210
0.0
220
-0.0000000000000002
230
-1.0
 50
225.0000000000059117
 51
314.9999999999969873
  0
ARC
  5
EEB
  8
0
  6
VERDECKT
 62
     1
 10
341.5000000000011937
 20
-125.5050506338800034
 30
0.0000000000000279
 40
21.0000000000022986
 50
224.9999999999957083
 51
314.9999999999866986
  0
LINE
  5
EEC
  8
0
  6
VERDECKT
 62
     1
 10
172.1507575950766125
 20
14.1457069612055193
 30
-0.0000000000000031
 11
326.6507575950809041
 21
-140.3542930387980903
 31
0.0000000000000312
210
0.0
220
1.0
230
-0.0000000000000002
  0
LINE
  5
EED
  8
0
  6
VERDECKT
 62
     1
 10
102.8542930388006056
 20
-55.1507575950817994
 30
0.0000000000000122
 11
257.3542930388048831
 21
-209.6507575950853948
 31
0.0000000000000466
210
0.0
220
1.0
230
-0.0000000000000002
  0
ARC
  5
EEE
  8
0
  6
VERDECKT
 62
     1
 10
-88.005050633883684
 20
-70.0000000000009237
 30
0.0
 40
119.0000000000006963
210
0.0
220
-0.0000000000000002
230
-1.0
 50
90.0000000000000284
 51
134.9999999999953104
  0
ARC
  5
EEF
  8
0
  6
VERDECKT
 62
     1
 10
88.005050633883684
 20
-70.0000000000009521
 30
0.0000000000000155
 40
21.0000000000007283
 50
45.0000000000043983
 51
90.0000000000003268
  0
LINE
  5
EF0
  8
0
  6
VERDECKT
 62
     1
 10
88.0050506338835703
 20
-49.0000000000000284
 30
0.0000000000000109
 11
76.0339925198679794
 21
-49.0
 31
0.0000000000000109
210
0.0
220
1.0
230
-0.0000000000000002
  0
LINE
  5
EF1
  8
0
  6
VERDECKT
 62
     1
 10
88.0050506338837977
 20
48.9999999999995524
 30
-0.0000000000000109
 11
76.0339925198683204
 21
48.9999999999995666
 31
-0.0000000000000109
210
0.0
220
1.0
230
-0.0000000000000002
  0
ARC
  5
EF2
  8
0
  6
VERDECKT
 62
     1
 10
-76.033992519868562
 20
59.000000000000469
 30
0.0
 40
10.0000000000008207
210
0.0
220
-0.0000000000000002
230
-1.0
 50
270.0
 51
304.3011527567845746
  0
ARC
  5
EF3
  8
0
  6
VERDECKT
 62
     1
 10
-76.0339925198683062
 20
-59.0000000000009166
 30
0.0
 40
10.0000000000009308
210
0.0
220
-0.0000000000000002
230
-1.0
 50
55.6988472432138622
 51
89.99999999999811
  0
ARC
  5
EF4
  8
0
  6
VERDECKT
 62
     1
 10
-63.072511123050262
 20
39.999999999993463
 30
0.0
 40
13.0000000000062599
210
0.0
220
-0.0000000000000002
230
-1.0
 50
90.0000000000101466
 51
124.3011527567878005
  0
ARC
  5
EF5
  8
0
  6
VERDECKT
 62
     1
 10
-63.0725111230500488
 20
-39.9999999999937614
 30
0.0
 40
13.0000000000063007
210
0.0
220
-0.0000000000000002
230
-1.0
 50
235.6988472432126969
 51
269.9999999999905071
  0
LINE
  5
EF6
  8
0
  6
VERDECKT
 62
     1
 10
63.0725111230522089
 20
-53.0000000000000426
 30
0.0000000000000118
 11
44.4999999999997726
 21
-52.9999999999999929
 31
0.0000000000000118
210
0.0
220
1.0
230
-0.0000000000000002
  0
LINE
  5
EF7
  8
0
  6
VERDECKT
 62
     1
 10
63.072511123052557
 20
52.9999999999996518
 30
-0.0000000000000118
 11
44.5000000000001208
 21
52.9999999999996874
 31
-0.0000000000000118
210
0.0
220
1.0
230
-0.0000000000000002
  0
ARC
  5
EF8
  8
0
  6
VERDECKT
 62
     1
 10
-44.5000000000001634
 20
66.9999999999992184
 30
0.0
 40
13.9999999999994404
210
0.0
220
-0.0000000000000002
230
-1.0
 50
270.0000000000001137
 51
296.8880476177279775
  0
ARC
  5
EF9
  8
0
  6
VERDECKT
 62
     1
 10
-44.4999999999998295
 20
-66.9999999999994031
 30
0.0
 40
13.9999999999993996
210
0.0
220
-0.0000000000000002
230
-1.0
 50
63.1119523822717596
 51
89.9999999999997442
  0
ARC
  5
EFA
  8
0
  6
VERDECKT
 62
     1
 10
-27.76679946932029
 20
34.0000000000076312
 30
0.0
 40
22.9999999999921982
210
0.0
220
-0.0000000000000002
230
-1.0
 50
89.999999999995552
 51
116.8880476177273948
  0
ARC
  5
EFB
  8
0
  6
VERDECKT
 62
     1
 10
-27.7667994693200804
 20
-34.0000000000076099
 30
0.0
 40
22.999999999992351
210
0.0
220
-0.0000000000000002
230
-1.0
 50
243.1119523822731026
 51
270.0000000000048885
  0
LINE
  5
EFC
  8
0
  6
VERDECKT
 62
     1
 10
27.7667994693181299
 20
-57.0000000000000284
 30
0.0000000000000127
 11
12.6047514625708992
 21
-56.9999999999999929
 31
0.0000000000000127
210
0.0
220
1.0
230
-0.0000000000000002
  0
LINE
  5
EFD
  8
0
  6
VERDECKT
 62
     1
 10
27.7667994693184994
 20
56.9999999999998792
 30
-0.0000000000000127
 11
12.6047514625712704
 21
56.9999999999999218
 31
-0.0000000000000127
210
0.0
220
1.0
230
-0.0000000000000002
  0
ARC
  5
EFE
  8
0
  6
VERDECKT
 62
     1
 10
-12.6047514625707695
 20
33.9999999999996021
 30
0.0
 40
23.0000000000002984
210
0.0
220
-0.0000000000000002
230
-1.0
 50
65.0000000000078728
 51
90.0000000000012221
  0
ARC
  5
EFF
  8
0
  6
VERDECKT
 62
     1
 10
-12.6047514625705901
 20
-33.9999999999998295
 30
0.0
 40
23.000000000000199
210
0.0
220
-0.0000000000000002
230
-1.0
 50
270.0
 51
294.9999999999935199
  0
LINE
  5
F00
  8
0
  6
VERDECKT
 62
     1
 10
-0.0000000000000984
 20
53.4999999999999218
 30
-0.0000000000000119
 11
2.8845314425374791
 21
54.8450791018440427
 31
-0.0000000000000122
210
0.0
220
1.0
230
-0.0000000000000002
  0
LINE
  5
F01
  8
0
  6
VERDECKT
 62
     1
 10
-0.0000000000001901
 20
-53.4999999999999929
 30
0.0000000000000119
 11
2.8845314425371398
 21
-54.8450791018440214
 31
0.0000000000000122
210
0.0
220
1.0
230
-0.0000000000000002
  0
ENDBLK
  5
F03
  8
0
  0
ENDSEC
  0
SECTION
  2
ENTITIES
  0
TEXT
  5
8AB
  8
VOLL
 10
150.1719177103209972
 20
444.8094416056192131
 30
0.0
 40
1.8
  1

 50
90.0
  7
GREEKS
  0
INSERT
  5
EBD
  8
DEFPOINTS
  2
A$C2316545C
 10
-5.1773555714851218
 20
-0.0000000000000013
 30
0.0
  0
INSERT
  5
F04
  8
DEFPOINTS
  2
A$C1E4D6C30
 10
-5.1773555714851218
 20
356.1899880761607733
 30
0.0
  0
VIEWPORT
  5
C2F
 67
     1
  8
0
 10
6.5605319030317011
 20
3.747209787838385
 30
0.0
 40
21.0865518744234492
 41
11.3892974048639104
 68
     1
 69
     1
1001
ACAD
1000
MVIEW
1002
{
1070
    16
1010
0.0
1020
0.0
1030
0.0
1010
0.0
1020
0.0
1030
1.0
1040
0.0
1040
11.3892974048639104
1040
6.5605319030317011
1040
3.747209787838385
1040
50.0
1040
0.0
1040
0.0
1070
     0
1070
  1500
1070
     1
1070
     1
1070
     0
1070
     0
1070
     0
1070
     0
1040
0.0
1040
0.0
1040
0.0
1040
10.0
1040
10.0
1040
10.0
1040
10.0
1070
     0
1002
{
1002
}
1002
}
  0
ENDSEC
  0
EOF
