  0
SECTION
  2
HEADER
  9
$ACADVER
  1
AC1009
  9
$INSBASE
 10
0.0
 20
0.0
 30
0.0
  9
$EXTMIN
 10
683.0445213638290625
 20
318.9210596929343069
 30
-104.1712171895554064
  9
$EXTMAX
 10
853.6445213638290852
 20
909.5475640331244449
 30
-104.171217189555307
  9
$LIMMIN
 10
0.0
 20
0.0
  9
$LIMMAX
 10
419.9999999999998863
 20
594.0
  9
$ORTHOMODE
 70
     1
  9
$REGENMODE
 70
     1
  9
$FILLMODE
 70
     1
  9
$QTEXTMODE
 70
     0
  9
$MIRRTEXT
 70
     1
  9
$DRAGMODE
 70
     2
  9
$LTSCALE
 40
20.0
  9
$OSMODE
 70
  1327
  9
$ATTMODE
 70
     1
  9
$TEXTSIZE
 40
3.5
  9
$TRACEWID
 40
0.5
  9
$TEXTSTYLE
  7
STANDARD
  9
$CLAYER
  8
0
  9
$CELTYPE
  6
BYLAYER
  9
$CECOLOR
 62
   256
  9
$DIMSCALE
 40
2.0
  9
$DIMASZ
 40
3.5
  9
$DIMEXO
 40
1.0
  9
$DIMDLI
 40
7.0
  9
$DIMRND
 40
0.0
  9
$DIMDLE
 40
0.0
  9
$DIMEXE
 40
1.0
  9
$DIMTP
 40
0.0
  9
$DIMTM
 40
0.0
  9
$DIMTXT
 40
3.5
  9
$DIMCEN
 40
1.5
  9
$DIMTSZ
 40
0.0
  9
$DIMTOL
 70
     0
  9
$DIMLIM
 70
     0
  9
$DIMTIH
 70
     0
  9
$DIMTOH
 70
     0
  9
$DIMSE1
 70
     0
  9
$DIMSE2
 70
     0
  9
$DIMTAD
 70
     1
  9
$DIMZIN
 70
     8
  9
$DIMBLK
  1

  9
$DIMASO
 70
     1
  9
$DIMSHO
 70
     0
  9
$DIMPOST
  1

  9
$DIMAPOST
  1

  9
$DIMALT
 70
     0
  9
$DIMALTD
 70
     2
  9
$DIMALTF
 40
25.3999999999999986
  9
$DIMLFAC
 40
1.0
  9
$DIMTOFL
 70
     1
  9
$DIMTVP
 40
0.0
  9
$DIMTIX
 70
     0
  9
$DIMSOXD
 70
     0
  9
$DIMSAH
 70
     0
  9
$DIMBLK1
  1

  9
$DIMBLK2
  1

  9
$DIMSTYLE
  2
STANDARD
  9
$DIMCLRD
 70
     0
  9
$DIMCLRE
 70
     0
  9
$DIMCLRT
 70
     1
  9
$DIMTFAC
 40
0.5142857142857143
  9
$DIMGAP
 40
1.5
  9
$LUNITS
 70
     2
  9
$LUPREC
 70
     2
  9
$SKETCHINC
 40
1.0
  9
$FILLETRAD
 40
0.0
  9
$AUNITS
 70
     0
  9
$AUPREC
 70
     0
  9
$MENU
  1
ACAD
  9
$ELEVATION
 40
0.0
  9
$PELEVATION
 40
0.0
  9
$THICKNESS
 40
0.0
  9
$LIMCHECK
 70
     0
  9
$BLIPMODE
 70
     0
  9
$CHAMFERA
 40
0.0
  9
$CHAMFERB
 40
0.0
  9
$SKPOLY
 70
     0
  9
$TDCREATE
 40
2455397.8646990740671754
  9
$TDUPDATE
 40
2458383.5728240739554167
  9
$TDINDWG
 40
0.1235172454
  9
$TDUSRTIMER
 40
0.1235172454
  9
$USRTIMER
 70
     1
  9
$ANGBASE
 50
0.0
  9
$ANGDIR
 70
     0
  9
$PDMODE
 70
     0
  9
$PDSIZE
 40
0.0
  9
$PLINEWID
 40
0.0
  9
$COORDS
 70
     1
  9
$SPLFRAME
 70
     0
  9
$SPLINETYPE
 70
     6
  9
$SPLINESEGS
 70
     8
  9
$ATTDIA
 70
     0
  9
$ATTREQ
 70
     0
  9
$HANDLING
 70
     1
  9
$HANDSEED
  5
16DA
  9
$SURFTAB1
 70
     6
  9
$SURFTAB2
 70
     6
  9
$SURFTYPE
 70
     6
  9
$SURFU
 70
     6
  9
$SURFV
 70
     6
  9
$UCSNAME
  2

  9
$UCSORG
 10
0.0
 20
0.0
 30
0.0
  9
$UCSXDIR
 10
1.0
 20
0.0
 30
0.0
  9
$UCSYDIR
 10
0.0
 20
1.0
 30
0.0
  9
$PUCSNAME
  2

  9
$PUCSORG
 10
0.0
 20
0.0
 30
0.0
  9
$PUCSXDIR
 10
1.0
 20
0.0
 30
0.0
  9
$PUCSYDIR
 10
0.0
 20
1.0
 30
0.0
  9
$USERI1
 70
     0
  9
$USERI2
 70
     0
  9
$USERI3
 70
     0
  9
$USERI4
 70
     0
  9
$USERI5
 70
     0
  9
$USERR1
 40
0.0
  9
$USERR2
 40
0.0
  9
$USERR3
 40
0.0
  9
$USERR4
 40
0.0
  9
$USERR5
 40
0.0
  9
$WORLDVIEW
 70
     1
  9
$SHADEDGE
 70
     3
  9
$SHADEDIF
 70
    70
  9
$TILEMODE
 70
     1
  9
$MAXACTVP
 70
    16
  9
$PLIMCHECK
 70
     0
  9
$PEXTMIN
 10
-0.1278078343990714
 20
-0.1567611821604196
 30
-0.0000000000000058
  9
$PEXTMAX
 10
6.8445430828193032
 20
9.4803884111972501
 30
0.0000000000000104
  9
$PLIMMIN
 10
-0.2500002402958907
 20
-0.2499999962453767
  9
$PLIMMAX
 10
10.7499995194082203
 20
8.2499997634587334
  9
$UNITMODE
 70
     0
  9
$VISRETAIN
 70
     0
  9
$PLINEGEN
 70
     0
  9
$PSLTSCALE
 70
     0
  0
ENDSEC
  0
SECTION
  2
TABLES
  0
TABLE
  2
VPORT
 70
     1
  0
VPORT
  2
*ACTIVE
 70
     0
 10
0.0
 20
0.0
 11
1.0
 21
1.0
 12
0.0000084243759488
 22
-0.0084642941577044
 13
0.0
 23
0.0
 14
1.0
 24
1.0
 15
10.0
 25
10.0
 16
-0.0000000000003411
 26
0.0
 36
1590.1162290949830549
 17
768.344512939453125
 27
614.2427761571869951
 37
-104.171217189555307
 40
595.0451564923612295
 41
1.8826466916354549
 42
50.0
 43
0.0
 44
0.0
 50
0.0
 51
0.0
 71
     0
 72
  1500
 73
     1
 74
     0
 75
     0
 76
     0
 77
     0
 78
     0
  0
ENDTAB
  0
TABLE
  2
LTYPE
 70
     4
  0
LTYPE
  2
CONTINUOUS
 70
     0
  3
Solid line
 72
    65
 73
     0
 40
0.0
  0
LTYPE
  2
PHANTOM2
 70
     0
  3
Phantom (.5x) ___ _ _ ___ _ _ ___ _ _ ___ _ _
 72
    65
 73
     6
 40
1.25
 49
0.625
 49
-0.125
 49
0.125
 49
-0.125
 49
0.125
 49
-0.125
  0
LTYPE
  2
VERDECKT
 70
     0
  3
Verdeckt __ __ __ __ __ __ __ __ __ __ __ __ __
 72
    65
 73
     2
 40
0.375
 49
0.25
 49
-0.125
  0
ENDTAB
  0
TABLE
  2
LAYER
 70
    10
  0
LAYER
  2
0
 70
     0
 62
     7
  6
CONTINUOUS
  0
LAYER
  2
VOLL
 70
     0
 62
     1
  6
CONTINUOUS
  0
LAYER
  2
DEFPOINTS
 70
     0
 62
     7
  6
CONTINUOUS
  0
ENDTAB
  0
TABLE
  2
STYLE
 70
     4
  0
STYLE
  2
STANDARD
 70
     0
 40
0.0
 41
0.8
 50
0.0
 71
     0
 42
3.5
  3
simplex.shx
  4

  0
STYLE
  2
GREEKS
 70
     0
 40
0.0
 41
0.8
 50
0.0
 71
     0
 42
2.5
  3
SIMPLEX.shx
  4

  0
ENDTAB
  0
TABLE
  2
VIEW
 70
     2
  0
ENDTAB
  0
TABLE
  2
UCS
 70
     0
  0
ENDTAB
  0
TABLE
  2
APPID
 70
    14
  0
APPID
  2
ACAD
 70
     0
  0
APPID
  2
ACAD_NAV_VCDISPLAY
 70
     0
  0
APPID
  2
ACADANNOMONITORALERTICONDI
 70
     0
  0
APPID
  2
ACAD_EXEMPT_FROM_CAD_STANDARDS
 70
     0
  0
APPID
  2
ACAD_DSTYLE_DIMRADIAL_EXTENSION
 70
     0
  0
APPID
  2
ACAD_MLEADERVER
 70
     0
  0
APPID
  2
ACAD_DSTYLE_DIMJAG
 70
     0
  0
APPID
  2
ACAD_DSTYLE_DIMTALN
 70
     0
  0
APPID
  2
ACAD_PSEXT
 70
     0
  0
APPID
  2
GRADIENTCOLOR1ACI
 70
     0
  0
APPID
  2
GRADIENTCOLOR2ACI
 70
     0
  0
APPID
  2
ACAECLAYERSTANDARD
 70
     0
  0
APPID
  2
ACCMTRANSPARENCY
 70
     0
  0
APPID
  2
ACAD_OBJECT_CHANGE_GUID
 70
     0
  0
ENDTAB
  0
TABLE
  2
DIMSTYLE
 70
     2
  0
DIMSTYLE
  2
STANDARD
 70
     0
  3

  4

  5

  6

  7

 40
1.0
 41
0.18
 42
0.0625
 43
0.38
 44
0.18
 45
0.0
 46
0.0
 47
0.0
 48
0.0
140
0.18
141
0.09
142
0.0
143
25.3999999999999986
144
1.0
145
0.0
146
1.0
147
0.09
 71
     0
 72
     0
 73
     1
 74
     1
 75
     0
 76
     0
 77
     0
 78
     0
170
     0
171
     2
172
     0
173
     0
174
     0
175
     0
176
     0
177
     0
178
     0
  0
ENDTAB
  0
ENDSEC
  0
SECTION
  2
BLOCKS
  0
BLOCK
  8
0
  2
$MODEL_SPACE
 70
     0
 10
0.0
 20
0.0
 30
0.0
  3
$MODEL_SPACE
  1

  0
ENDBLK
  5
36
  8
0
  0
BLOCK
 67
     1
  8
0
  2
$PAPER_SPACE
 70
     0
 10
0.0
 20
0.0
 30
0.0
  3
$PAPER_SPACE
  1

  0
ENDBLK
  5
34
 67
     1
  8
0
  0
BLOCK
  8
0
  2
A$C494D7C0A
 70
     0
 10
0.0
 20
0.0
 30
0.0
  3
A$C494D7C0A
  1

  0
ARC
  5
162E
  8
0
  6
CONTINUOUS
 62
     3
 10
809.1445213638278346
 20
370.0210596929338749
 30
0.0000000000001563
 40
42.8999999999987267
 50
179.9999999999996021
 51
209.058308666803299
  0
ARC
  5
162F
  8
0
  6
CONTINUOUS
 62
     3
 10
809.1445213638281757
 20
370.0210596929343865
 30
0.0000000000001563
 40
42.8999999999991815
 50
150.9416913331967862
 51
180.0000000000003979
  0
ARC
  5
1630
  8
0
  6
CONTINUOUS
 62
     3
 10
809.1445213638294263
 20
370.0210596929342728
 30
0.0000000000001421
 40
42.0190016246716596
 50
180.0000000000001137
 51
208.2871580979904138
  0
ARC
  5
1631
  8
0
  6
CONTINUOUS
 62
     3
 10
809.1445213638294263
 20
370.0210596929339886
 30
0.0000000000001421
 40
42.0190016246716667
 50
151.7128419020095009
 51
179.999999999999801
  0
ARC
  5
1632
  8
0
  6
CONTINUOUS
 62
     3
 10
809.1445213638290852
 20
370.0210596929342159
 30
0.0000000000001563
 40
44.5
 50
270.0
 51
89.9999999999999858
  0
CIRCLE
  5
1633
  8
0
  6
CONTINUOUS
 62
     3
 10
734.1445213638288578
 20
370.0210596929342159
 30
0.0000000000001421
 40
45.9999999999999289
  0
CIRCLE
  5
1634
  8
0
  6
CONTINUOUS
 62
     3
 10
734.1445213638287441
 20
370.0210596929342159
 30
0.0000000000001421
 40
42.8999999999997996
  0
CIRCLE
  5
1635
  8
0
  6
CONTINUOUS
 62
     3
 10
734.1445213638290852
 20
370.0210596929342159
 30
0.0000000000001421
 40
47.7654046703398691
  0
CIRCLE
  5
1636
  8
0
  6
CONTINUOUS
 62
     3
 10
734.1445213638290852
 20
370.0210596929342159
 30
0.0000000000001421
 40
51.0999999999999872
  0
LINE
  5
1637
  8
0
  6
CONTINUOUS
 62
     3
 10
791.2589127690519035
 20
325.5210596929341023
 30
0.0000000000001492
 11
759.2634385379429887
 21
325.5210596929341023
 31
0.0000000000001421
  0
LINE
  5
1638
  8
0
  6
CONTINUOUS
 62
     3
 10
791.2589127690519035
 20
414.5210596929342159
 30
0.0000000000001492
 11
759.263438537943216
 21
414.5210596929342159
 31
0.0000000000001421
  0
LINE
  5
1639
  8
0
  6
CONTINUOUS
 62
     3
 10
791.2589127690516762
 20
325.5210596929341023
 30
0.0000000000001492
 11
809.1445213638290852
 21
325.5210596929341023
 31
0.0000000000001563
  0
LINE
  5
163A
  8
0
  6
CONTINUOUS
 62
     3
 10
809.1445213638290852
 20
414.5210596929342159
 30
0.0000000000001563
 11
791.2589127690516762
 21
414.5210596929342159
 31
0.0000000000001492
  0
ARC
  5
163B
  8
0
  6
VERDECKT
 62
     1
 10
809.1445213638290852
 20
370.0210596929342159
 30
0.0000000000001563
 40
42.8999999999999915
 50
209.0583086668029864
 51
150.9416913331970989
  0
ARC
  5
163C
  8
0
  6
VERDECKT
 62
     1
 10
809.1445213638290852
 20
370.0210596929342159
 30
0.0000000000001421
 40
42.0190016246712119
 50
208.2871580979906128
 51
151.712841902009302
  0
ARC
  5
163D
  8
0
  6
VERDECKT
 62
     1
 10
809.1445213638290852
 20
370.0210596929342159
 30
0.0000000000001563
 40
44.5
 50
90.0
 51
270.0
  0
CIRCLE
  5
163E
  8
0
  6
VERDECKT
 62
     1
 10
809.1445213638290852
 20
370.0210596929342159
 30
0.0000000000001421
 40
43.625113364740848
  0
CIRCLE
  5
163F
  8
0
  6
VERDECKT
 62
     1
 10
734.1445213638288578
 20
370.0210596929342159
 30
0.0000000000001421
 40
49.4999999999998721
  0
CIRCLE
  5
1640
  8
0
  6
VERDECKT
 62
     1
 10
734.1445213638288578
 20
370.0210596929342159
 30
0.0000000000001421
 40
47.5999999999998167
  0
CIRCLE
  5
1641
  8
0
  6
VERDECKT
 62
     1
 10
734.1445213638288578
 20
370.0210596929342159
 30
0.0000000000001421
 40
44.4999999999999716
  0
LINE
  5
1642
  8
0
  6
VERDECKT
 62
     1
 10
752.030129958606949
 20
412.9210596929341932
 30
0.0000000000001457
 11
734.1445213638290852
 21
412.9210596929341932
 31
0.0000000000001421
  0
LINE
  5
1643
  8
0
  6
VERDECKT
 62
     1
 10
734.1445213638290852
 20
327.1210596929341818
 30
0.0000000000001421
 11
752.030129958606949
 21
327.1210596929341818
 31
0.0000000000001457
  0
LINE
  5
1644
  8
0
  6
VERDECKT
 62
     1
 10
791.2589127690517898
 20
327.1210596929341818
 30
0.0000000000001492
 11
752.030129958606949
 21
327.1210596929341818
 31
0.000000000000135
  0
LINE
  5
1645
  8
0
  6
VERDECKT
 62
     1
 10
791.2589127690517898
 20
412.9210596929340795
 30
0.0000000000001492
 11
752.030129958606949
 21
412.9210596929340795
 31
0.000000000000135
  0
LINE
  5
1646
  8
0
  6
VERDECKT
 62
     1
 10
791.2589127690516762
 20
327.1210596929341818
 30
0.0000000000001492
 11
809.1445213638290852
 21
327.1210596929341818
 31
0.0000000000001563
  0
LINE
  5
1647
  8
0
  6
VERDECKT
 62
     1
 10
809.1445213638290852
 20
412.9210596929340795
 30
0.0000000000001563
 11
791.2589127690514488
 21
412.9210596929340795
 31
0.0000000000001492
  0
LINE
  5
1648
  8
0
  6
VERDECKT
 62
     1
 10
752.0301299586072901
 20
414.5210596929342159
 30
0.0000000000001457
 11
734.1445213638290852
 21
414.5210596929342159
 31
0.0000000000001421
  0
LINE
  5
1649
  8
0
  6
VERDECKT
 62
     1
 10
734.1445213638290852
 20
325.5210596929342159
 30
0.0000000000001421
 11
752.0301299586071764
 21
325.5210596929342159
 31
0.0000000000001457
  0
LINE
  5
164A
  8
0
  6
VERDECKT
 62
     1
 10
759.2634385379429887
 20
325.5210596929341023
 30
0.0000000000001457
 11
752.0301299586071764
 21
325.5210596929341023
 31
0.0000000000001439
  0
LINE
  5
164B
  8
0
  6
VERDECKT
 62
     1
 10
759.263438537943216
 20
414.5210596929342159
 30
0.0000000000001457
 11
752.0301299586071764
 21
414.5210596929342159
 31
0.0000000000001439
  0
ENDBLK
  5
164D
  8
0
  0
BLOCK
  8
0
  2
A$C18123625
 70
     0
 10
0.0
 20
0.0
 30
0.0
  3
A$C18123625
  1

  0
LINE
  5
1651
  8
0
  6
CONTINUOUS
 62
     3
 10
765.5194079990882301
 20
-205.5000000000001137
 30
0.0000000000000456
 11
852.7696347285699403
 21
-205.5000000000001137
 31
0.0000000000000456
210
0.0
220
1.0
230
-0.0000000000000002
  0
LINE
  5
1652
  8
0
  6
CONTINUOUS
 62
     3
 10
686.379116693489209
 20
205.5000000000003126
 30
-0.0000000000000456
 11
781.9099260341689615
 21
205.499999999999801
 31
-0.0000000000000456
210
0.0
220
1.0
230
-0.0000000000000002
  0
LINE
  5
1653
  8
0
  6
CONTINUOUS
 62
     3
 10
853.6445213638290852
 20
-104.1712171895550938
 30
0.0000000000000231
 11
853.6445213638290852
 21
-195.5
 31
0.0000000000000434
210
0.0
220
1.0
230
-0.0000000000000002
  0
LINE
  5
1654
  8
0
  6
CONTINUOUS
 62
     3
 10
764.6445213638289715
 20
-104.1712171895544969
 30
0.0000000000000231
 11
764.6445213638289715
 21
-195.5
 31
0.0000000000000434
210
0.0
220
1.0
230
-0.0000000000000002
  0
LINE
  5
1655
  8
0
  6
CONTINUOUS
 62
     3
 10
765.5194079990882301
 20
-205.5000000000001137
 30
0.0000000000000456
 11
764.6445213638289715
 21
-195.5
 31
0.0000000000000434
210
0.0
220
1.0
230
-0.0000000000000002
  0
LINE
  5
1656
  8
0
  6
CONTINUOUS
 62
     3
 10
852.7696347285699403
 20
-205.5000000000001137
 30
0.0000000000000456
 11
853.6445213638290852
 21
-195.5
 31
0.0000000000000434
210
0.0
220
1.0
230
-0.0000000000000002
  0
ARC
  5
1657
  8
0
  6
CONTINUOUS
 62
     3
 10
-867.6445213638286305
 20
97.2750277572212241
 30
0.0
 40
177.9999999999996021
210
0.0
220
-0.0000000000000002
230
-1.0
 50
329.9999999999994884
 51
359.9999999999998863
  0
ARC
  5
1658
  8
0
  6
CONTINUOUS
 62
     3
 10
867.6445213638293126
 20
97.2750277572213804
 30
-0.0000000000000216
 40
89.0000000000003411
 50
180.0000000000003979
 51
210.0000000000009095
  0
LINE
  5
1659
  8
0
  6
CONTINUOUS
 62
     3
 10
752.7207823006443732
 20
-59.6712171895545396
 30
0.0000000000000132
 11
713.4919994901996461
 21
8.2750277572199966
 31
-0.0000000000000018
210
0.0
220
1.0
230
-0.0000000000000002
  0
LINE
  5
165A
  8
0
  6
CONTINUOUS
 62
     3
 10
829.7970432374594338
 20
-15.1712171895546
 30
0.0000000000000034
 11
790.5682604270147067
 21
52.7750277572198812
 31
-0.0000000000000117
210
0.0
220
1.0
230
-0.0000000000000002
  0
ARC
  5
165B
  8
0
  6
CONTINUOUS
 62
     3
 10
-675.6445213638301084
 20
-104.171217189554298
 30
0.0
 40
177.9999999999988063
210
0.0
220
-0.0000000000000002
230
-1.0
 50
149.9999999999998863
 51
180.000000000000199
  0
ARC
  5
165C
  8
0
  6
CONTINUOUS
 62
     3
 10
675.6445213638307905
 20
-104.1712171895541985
 30
0.0000000000000231
 40
88.9999999999982947
 50
359.9999999999997726
 51
30.0000000000002913
  0
ARC
  5
165D
  8
0
  6
CONTINUOUS
 62
     3
 10
-708.5347636030725198
 20
192.895248537429211
 30
0.0
 40
25.4902422392434609
210
0.0
220
-0.0000000000000002
230
-1.0
 50
359.9999999999997158
 51
29.6363369472541116
  0
ARC
  5
165E
  8
0
  6
CONTINUOUS
 62
     3
 10
-759.7542791245856506
 20
192.895248537429012
 30
0.0
 40
25.4902422392433614
210
0.0
220
-0.0000000000000002
230
-1.0
 50
150.363663052745693
 51
180.0000000000003126
  0
LINE
  5
165F
  8
0
  6
CONTINUOUS
 62
     3
 10
785.2445213638291079
 20
192.8952485374288131
 30
-0.0000000000000428
 11
785.2445213638291079
 21
185.7998649610190114
 31
-0.0000000000000413
210
0.0
220
1.0
230
-0.0000000000000002
  0
LINE
  5
1660
  8
0
  6
CONTINUOUS
 62
     3
 10
683.0445213638290625
 20
192.895248537429012
 30
-0.0000000000000428
 11
683.0445213638290625
 21
185.7998649610192956
 31
-0.0000000000000413
210
0.0
220
1.0
230
-0.0000000000000002
  0
ARC
  5
1661
  8
0
  6
CONTINUOUS
 62
     3
 10
-708.0454249109527609
 20
185.8685686859114981
 30
0.0
 40
25.0009979475698216
210
0.0
220
-0.0000000000000002
230
-1.0
 50
334.8779398133660834
 51
359.8425487480179754
  0
ARC
  5
1662
  8
0
  6
CONTINUOUS
 62
     3
 10
-760.2436178167074559
 20
185.8685686859109865
 30
0.0
 40
25.0009979475676687
210
0.0
220
-0.0000000000000002
230
-1.0
 50
180.157451251981314
 51
205.1220601866355082
  0
ARC
  5
1663
  8
0
  6
CONTINUOUS
 62
     3
 10
-674.5445213638314499
 20
170.1598669368052867
 30
0.0
 40
11.9999999999977192
210
0.0
220
-0.0000000000000002
230
-1.0
 50
154.8779398133648044
 51
180.0000000000019895
  0
ARC
  5
1664
  8
0
  6
CONTINUOUS
 62
     3
 10
-793.7445213638263795
 20
170.1598669368050878
 30
0.0
 40
11.9999999999977192
210
0.0
220
-0.0000000000000002
230
-1.0
 50
359.9999999999980105
 51
25.1220601866351601
  0
LINE
  5
1665
  8
0
  6
CONTINUOUS
 62
     3
 10
781.7445213638286532
 20
170.1598669368046899
 30
-0.0000000000000378
 11
781.7445213638286532
 21
150.8887264174169047
 31
-0.0000000000000335
210
0.0
220
1.0
230
-0.0000000000000002
  0
LINE
  5
1666
  8
0
  6
CONTINUOUS
 62
     3
 10
686.5445213638291762
 20
170.1598669368048888
 30
-0.0000000000000378
 11
686.5445213638291762
 21
150.8887264174171037
 31
-0.0000000000000335
210
0.0
220
1.0
230
-0.0000000000000002
  0
ARC
  5
1667
  8
0
  6
CONTINUOUS
 62
     3
 10
-698.544521363828494
 20
150.888726417416791
 30
0.0
 40
11.9999999999993197
210
0.0
220
-0.0000000000000002
230
-1.0
 50
327.6719358778386209
 51
0.0000000000012086
  0
ARC
  5
1668
  8
0
  6
CONTINUOUS
 62
     3
 10
-769.744521363829449
 20
150.8887264174165921
 30
0.0
 40
11.9999999999993197
210
0.0
220
-0.0000000000000002
230
-1.0
 50
179.9999999999986073
 51
212.3280641221612086
  0
ARC
  5
1669
  8
0
  6
CONTINUOUS
 62
     3
 10
-681.6445213638286305
 20
140.1934003354317042
 30
0.0
 40
8.0000000000003322
210
0.0
220
-0.0000000000000002
230
-1.0
 50
147.6719358778383935
 51
180.0000000000017906
  0
ARC
  5
166A
  8
0
  6
CONTINUOUS
 62
     3
 10
-786.64452136382954
 20
140.1934003354313916
 30
0.0
 40
8.0000000000005684
210
0.0
220
-0.0000000000000002
230
-1.0
 50
359.9999999999988063
 51
32.328064122161237
  0
LINE
  5
166B
  8
0
  6
CONTINUOUS
 62
     3
 10
778.6445213638287441
 20
140.1934003354311926
 30
-0.0000000000000311
 11
778.6445213638287441
 21
97.2750277572206556
 31
-0.0000000000000216
210
0.0
220
1.0
230
-0.0000000000000002
  0
LINE
  5
166C
  8
0
  6
CONTINUOUS
 62
     3
 10
689.6445213638289715
 20
140.1934003354313916
 30
-0.0000000000000311
 11
689.6445213638289715
 21
97.2750277572208546
 31
-0.0000000000000216
210
0.0
220
1.0
230
-0.0000000000000002
  0
LINE
  5
166D
  8
0
  6
VERDECKT
 62
     1
 10
852.0445213638290625
 20
-104.1712171895556054
 30
0.0000000000000231
 11
852.0445213638290625
 21
-195.4301424913473966
 31
0.0000000000000434
210
0.0
220
1.0
230
-0.0000000000000002
  0
LINE
  5
166E
  8
0
  6
VERDECKT
 62
     1
 10
766.2445213638291079
 20
-104.1712171895546959
 30
0.0000000000000231
 11
766.2445213638291079
 21
-195.4301424913473966
 31
0.0000000000000434
210
0.0
220
1.0
230
-0.0000000000000002
  0
LINE
  5
166F
  8
0
  6
VERDECKT
 62
     1
 10
767.1255197391578804
 20
-205.5000000000001137
 30
0.0000000000000456
 11
766.2445213638291079
 21
-195.4301424913473966
 31
0.0000000000000434
210
0.0
220
1.0
230
-0.0000000000000002
  0
LINE
  5
1670
  8
0
  6
VERDECKT
 62
     1
 10
851.16352298850029
 20
-205.5000000000001137
 30
0.0000000000000456
 11
852.0445213638290625
 21
-195.4301424913473966
 31
0.0000000000000434
210
0.0
220
1.0
230
-0.0000000000000002
  0
ARC
  5
1671
  8
0
  6
VERDECKT
 62
     1
 10
-867.6445213638291989
 20
97.2750277572208546
 30
0.0
 40
176.4000000000000909
210
0.0
220
-0.0000000000000002
230
-1.0
 50
329.9999999999996021
 51
0.0000000000000891
  0
ARC
  5
1672
  8
0
  6
VERDECKT
 62
     1
 10
867.6445213638302221
 20
97.2750277572212241
 30
-0.0000000000000216
 40
90.6000000000012733
 50
180.0000000000001137
 51
210.0000000000005116
  0
LINE
  5
1673
  8
0
  6
VERDECKT
 62
     1
 10
754.1064229466994675
 20
-58.8712171895546916
 30
0.0000000000000131
 11
714.8776401362547404
 21
9.0750277572198801
 31
-0.000000000000002
210
0.0
220
1.0
230
-0.0000000000000002
  0
LINE
  5
1674
  8
0
  6
VERDECKT
 62
     1
 10
828.4114025914043395
 20
-15.9712171895546593
 30
0.0000000000000035
 11
789.1826197809594987
 21
51.9750277572198627
 31
-0.0000000000000115
210
0.0
220
1.0
230
-0.0000000000000002
  0
ARC
  5
1675
  8
0
  6
VERDECKT
 62
     1
 10
-675.6445213638293126
 20
-104.1712171895545964
 30
0.0
 40
176.3999999999996078
210
0.0
220
-0.0000000000000002
230
-1.0
 50
149.9999999999998863
 51
180.000000000000199
  0
ARC
  5
1676
  8
0
  6
VERDECKT
 62
     1
 10
675.6445213638307905
 20
-104.1712171895543975
 30
0.0000000000000231
 40
90.5999999999983032
 50
359.9999999999997726
 51
30.0000000000003197
  0
LINE
  5
1677
  8
0
  6
VERDECKT
 62
     1
 10
780.1445213638287441
 20
205.5
 30
-0.0000000000000456
 11
781.4896004656724244
 21
202.6154685574637995
 31
-0.000000000000045
210
0.0
220
1.0
230
-0.0000000000000002
  0
LINE
  5
1678
  8
0
  6
VERDECKT
 62
     1
 10
688.1445213638290852
 20
205.5000000000001137
 30
-0.0000000000000456
 11
686.7994422619855186
 21
202.6154685574639132
 31
-0.000000000000045
210
0.0
220
1.0
230
-0.0000000000000002
  0
ARC
  5
1679
  8
0
  6
VERDECKT
 62
     1
 10
-707.6445213638318137
 20
192.8952485374285004
 30
0.0
 40
23.0000000000027285
210
0.0
220
-0.0000000000000002
230
-1.0
 50
0.0000000000012722
 51
24.9999999999948415
  0
ARC
  5
167A
  8
0
  6
VERDECKT
 62
     1
 10
-760.6445213638261293
 20
192.8952485374285004
 30
0.0
 40
23.0000000000027214
210
0.0
220
-0.0000000000000002
230
-1.0
 50
155.0000000000052012
 51
179.9999999999986926
  0
LINE
  5
167B
  8
0
  6
VERDECKT
 62
     1
 10
783.6445213638287441
 20
192.895248537429012
 30
-0.0000000000000428
 11
783.6445213638287441
 21
185.7998649610192103
 31
-0.0000000000000413
210
0.0
220
1.0
230
-0.0000000000000002
  0
LINE
  5
167C
  8
0
  6
VERDECKT
 62
     1
 10
684.6445213638290852
 20
192.895248537429012
 30
-0.0000000000000428
 11
684.6445213638290852
 21
185.7998649610192956
 31
-0.0000000000000413
210
0.0
220
1.0
230
-0.0000000000000002
  0
ARC
  5
167D
  8
0
  6
VERDECKT
 62
     1
 10
-708.4982021350866717
 20
185.9703117429494057
 30
0.0
 40
23.8542897283180508
210
0.0
220
-0.0000000000000002
230
-1.0
 50
335.0309667503299238
 51
359.5905992402185234
  0
ARC
  5
167E
  8
0
  6
VERDECKT
 62
     1
 10
-759.7908405925711577
 20
185.9703117429494057
 30
0.0
 40
23.8542897283180402
210
0.0
220
-0.0000000000000002
230
-1.0
 50
180.4094007597815903
 51
204.9690332496701899
  0
ARC
  5
167F
  8
0
  6
VERDECKT
 62
     1
 10
-674.5446950719162942
 20
170.1598669368048888
 30
0.0
 40
13.5998262919127892
210
0.0
220
-0.0000000000000002
230
-1.0
 50
155.0309667503294122
 51
180.0
  0
ARC
  5
1680
  8
0
  6
VERDECKT
 62
     1
 10
-793.7443476557416489
 20
170.1598669368048036
 30
0.0
 40
13.5998262919127892
210
0.0
220
-0.0000000000000002
230
-1.0
 50
0.0
 51
24.9690332496705416
  0
LINE
  5
1681
  8
0
  6
VERDECKT
 62
     1
 10
780.1445213638287441
 20
170.1598669368048036
 30
-0.0000000000000378
 11
780.1445213638287441
 21
150.88872641741699
 31
-0.0000000000000335
210
0.0
220
1.0
230
-0.0000000000000002
  0
LINE
  5
1682
  8
0
  6
VERDECKT
 62
     1
 10
688.1445213638291989
 20
170.1598669368048888
 30
-0.0000000000000378
 11
688.1445213638291989
 21
150.8887264174171037
 31
-0.0000000000000335
210
0.0
220
1.0
230
-0.0000000000000002
  0
ARC
  5
1683
  8
0
  6
VERDECKT
 62
     1
 10
-698.5445213638283803
 20
150.8887264174161942
 30
0.0
 40
10.3999999999989399
210
0.0
220
-0.0000000000000002
230
-1.0
 50
327.6719358778377114
 51
0.0000000000046945
  0
ARC
  5
1684
  8
0
  6
VERDECKT
 62
     1
 10
-769.7445213638293353
 20
150.8887264174161942
 30
0.0
 40
10.3999999999991797
210
0.0
220
-0.0000000000000002
230
-1.0
 50
179.9999999999953957
 51
212.3280641221620897
  0
ARC
  5
1685
  8
0
  6
VERDECKT
 62
     1
 10
-681.6445213638281757
 20
140.1934003354309937
 30
0.0
 40
9.6000000000008132
210
0.0
220
-0.0000000000000002
230
-1.0
 50
147.6719358778397861
 51
179.9999999999976126
  0
ARC
  5
1686
  8
0
  6
VERDECKT
 62
     1
 10
-786.6445213638296536
 20
140.1934003354309084
 30
0.0
 40
9.6000000000010441
210
0.0
220
-0.0000000000000002
230
-1.0
 50
0.0000000000025444
 51
32.3280641221597591
  0
LINE
  5
1687
  8
0
  6
VERDECKT
 62
     1
 10
777.0445213638286077
 20
140.1934003354313063
 30
-0.0000000000000311
 11
777.0445213638286077
 21
97.2750277572209257
 31
-0.0000000000000216
210
0.0
220
1.0
230
-0.0000000000000002
  0
LINE
  5
1688
  8
0
  6
VERDECKT
 62
     1
 10
691.2445213638291079
 20
140.1934003354313916
 30
-0.0000000000000311
 11
691.2445213638291079
 21
97.2750277572210962
 31
-0.0000000000000216
210
0.0
220
1.0
230
-0.0000000000000002
  0
ENDBLK
  5
168A
  8
0
  0
ENDSEC
  0
SECTION
  2
ENTITIES
  0
TEXT
  5
8F
  8
VOLL
 10
78.076754716981128
 20
31.025947764705851
 30
0.0
 40
1.8
  1

  7
GREEKS
  0
TEXT
  5
10ED
  8
VOLL
 10
1924.8729757373951088
 20
185.7805208454115018
 30
0.0
 40
3.6000000000000001
  1

  7
GREEKS
  0
TEXT
  5
10EE
  8
VOLL
 10
2167.6785130757571096
 20
600.4213369359365515
 30
0.0
 40
3.6000000000000001
  1

  7
GREEKS
  0
TEXT
  5
10EF
  8
VOLL
 10
2827.3449350045971187
 20
233.2424888677500974
 30
0.0
 40
3.6000000000000001
  1

  7
GREEKS
  0
TEXT
  5
10F0
  8
VOLL
 10
2819.680381975922046
 20
210.8348414108284032
 30
0.0
 40
3.6000000000000001
  1

  7
GREEKS
  0
TEXT
  5
13E7
  8
VOLL
 10
754.3341074255971535
 20
503.4629711277735282
 30
0.0
 40
1.8
  1

  7
GREEKS
  0
INSERT
  5
164E
  8
DEFPOINTS
  2
A$C494D7C0A
 10
0.0
 20
0.0
 30
-104.1712171895554064
  0
INSERT
  5
168B
  8
DEFPOINTS
  2
A$C18123625
 10
0.0
 20
704.0475640331242175
 30
-104.171217189555307
  0
VIEWPORT
  5
1450
 67
     1
  8
0
 10
3.9467074166972158
 20
4.6618885479789318
 30
0.0
 40
18.2718932681290411
 41
9.7054287186812758
 68
     1
 69
     1
1001
ACAD
1000
MVIEW
1002
{
1070
    16
1010
0.0
1020
0.0
1030
0.0
1010
0.0
1020
0.0
1030
1.0
1040
0.0
1040
9.7054287186812758
1040
3.9467074166972158
1040
4.6618885479789318
1040
50.0
1040
0.0
1040
0.0
1070
     0
1070
  1500
1070
     1
1070
     1
1070
     0
1070
     0
1070
     0
1070
     0
1040
0.0
1040
0.0
1040
0.0
1040
10.0
1040
10.0
1040
10.0
1040
10.0
1070
     0
1002
{
1002
}
1002
}
  0
ENDSEC
  0
EOF
