  0
SECTION
  2
HEADER
  9
$ACADVER
  1
AC1009
  9
$INSBASE
 10
0.0
 20
0.0
 30
0.0
  9
$EXTMIN
 10
-129.8407581877960979
 20
-42.1423045800231577
 30
-0.010832913698323
  9
$EXTMAX
 10
54.8573450779251814
 20
431.9236055423962171
 30
0.0162510236447133
  9
$LIMMIN
 10
0.0
 20
0.0
  9
$LIMMAX
 10
419.9999999999998863
 20
594.0
  9
$ORTHOMODE
 70
     1
  9
$REGENMODE
 70
     1
  9
$FILLMODE
 70
     1
  9
$QTEXTMODE
 70
     0
  9
$MIRRTEXT
 70
     1
  9
$DRAGMODE
 70
     2
  9
$LTSCALE
 40
20.0
  9
$OSMODE
 70
  1327
  9
$ATTMODE
 70
     1
  9
$TEXTSIZE
 40
3.5
  9
$TRACEWID
 40
0.5
  9
$TEXTSTYLE
  7
STANDARD
  9
$CLAYER
  8
ROHR
  9
$CELTYPE
  6
BYLAYER
  9
$CECOLOR
 62
   256
  9
$DIMSCALE
 40
2.0
  9
$DIMASZ
 40
3.5
  9
$DIMEXO
 40
1.0
  9
$DIMDLI
 40
7.0
  9
$DIMRND
 40
0.0
  9
$DIMDLE
 40
0.0
  9
$DIMEXE
 40
1.0
  9
$DIMTP
 40
0.0
  9
$DIMTM
 40
0.0
  9
$DIMTXT
 40
3.5
  9
$DIMCEN
 40
1.5
  9
$DIMTSZ
 40
0.0
  9
$DIMTOL
 70
     0
  9
$DIMLIM
 70
     0
  9
$DIMTIH
 70
     0
  9
$DIMTOH
 70
     0
  9
$DIMSE1
 70
     0
  9
$DIMSE2
 70
     0
  9
$DIMTAD
 70
     1
  9
$DIMZIN
 70
     8
  9
$DIMBLK
  1

  9
$DIMASO
 70
     1
  9
$DIMSHO
 70
     0
  9
$DIMPOST
  1

  9
$DIMAPOST
  1

  9
$DIMALT
 70
     0
  9
$DIMALTD
 70
     2
  9
$DIMALTF
 40
25.3999999999999986
  9
$DIMLFAC
 40
1.0
  9
$DIMTOFL
 70
     1
  9
$DIMTVP
 40
0.0
  9
$DIMTIX
 70
     0
  9
$DIMSOXD
 70
     0
  9
$DIMSAH
 70
     0
  9
$DIMBLK1
  1

  9
$DIMBLK2
  1

  9
$DIMSTYLE
  2
STANDARD
  9
$DIMCLRD
 70
     0
  9
$DIMCLRE
 70
     0
  9
$DIMCLRT
 70
     1
  9
$DIMTFAC
 40
0.5142857142857143
  9
$DIMGAP
 40
1.5
  9
$LUNITS
 70
     2
  9
$LUPREC
 70
     2
  9
$SKETCHINC
 40
1.0
  9
$FILLETRAD
 40
82.5
  9
$AUNITS
 70
     0
  9
$AUPREC
 70
     0
  9
$MENU
  1
ACAD
  9
$ELEVATION
 40
0.0
  9
$PELEVATION
 40
0.0
  9
$THICKNESS
 40
0.0
  9
$LIMCHECK
 70
     0
  9
$BLIPMODE
 70
     0
  9
$CHAMFERA
 40
0.0
  9
$CHAMFERB
 40
0.0
  9
$SKPOLY
 70
     0
  9
$TDCREATE
 40
2455397.8646990740671754
  9
$TDUPDATE
 40
2458383.5622337958775461
  9
$TDINDWG
 40
0.0712279398
  9
$TDUSRTIMER
 40
0.0712279398
  9
$USRTIMER
 70
     1
  9
$ANGBASE
 50
0.0
  9
$ANGDIR
 70
     0
  9
$PDMODE
 70
     0
  9
$PDSIZE
 40
0.0
  9
$PLINEWID
 40
0.0
  9
$COORDS
 70
     1
  9
$SPLFRAME
 70
     0
  9
$SPLINETYPE
 70
     6
  9
$SPLINESEGS
 70
     8
  9
$ATTDIA
 70
     0
  9
$ATTREQ
 70
     0
  9
$HANDLING
 70
     1
  9
$HANDSEED
  5
1094
  9
$SURFTAB1
 70
     6
  9
$SURFTAB2
 70
     6
  9
$SURFTYPE
 70
     6
  9
$SURFU
 70
     6
  9
$SURFV
 70
     6
  9
$UCSNAME
  2

  9
$UCSORG
 10
0.0
 20
0.0
 30
0.0
  9
$UCSXDIR
 10
1.0
 20
0.0
 30
0.0
  9
$UCSYDIR
 10
0.0
 20
1.0
 30
0.0
  9
$PUCSNAME
  2

  9
$PUCSORG
 10
0.0
 20
0.0
 30
0.0
  9
$PUCSXDIR
 10
1.0
 20
0.0
 30
0.0
  9
$PUCSYDIR
 10
0.0
 20
1.0
 30
0.0
  9
$USERI1
 70
     0
  9
$USERI2
 70
     0
  9
$USERI3
 70
     0
  9
$USERI4
 70
     0
  9
$USERI5
 70
     0
  9
$USERR1
 40
0.0
  9
$USERR2
 40
0.0
  9
$USERR3
 40
0.0
  9
$USERR4
 40
0.0
  9
$USERR5
 40
0.0
  9
$WORLDVIEW
 70
     1
  9
$SHADEDGE
 70
     3
  9
$SHADEDIF
 70
    70
  9
$TILEMODE
 70
     1
  9
$MAXACTVP
 70
    16
  9
$PLIMCHECK
 70
     0
  9
$PEXTMIN
 10
-0.0959169659179793
 20
-0.1562270908129832
 30
-0.0000000000112498
  9
$PEXTMAX
 10
5.082152982548414
 20
7.0310819696095761
 30
0.0000000000002956
  9
$PLIMMIN
 10
-0.2500002402958907
 20
-0.2499999962453767
  9
$PLIMMAX
 10
10.7499995194082203
 20
8.2499997634587334
  9
$UNITMODE
 70
     0
  9
$VISRETAIN
 70
     0
  9
$PLINEGEN
 70
     0
  9
$PSLTSCALE
 70
     0
  0
ENDSEC
  0
SECTION
  2
TABLES
  0
TABLE
  2
VPORT
 70
     1
  0
VPORT
  2
*ACTIVE
 70
     0
 10
0.0
 20
0.0
 11
1.0
 21
1.0
 12
2.8082934450646908
 22
56.690649718247073
 13
0.0
 23
0.0
 14
1.0
 24
1.0
 15
10.0
 25
10.0
 16
-0.0000000000003055
 26
0.0
 36
1367.836751421343024
 17
-40.300000000000118
 27
138.2000007629393963
 37
177.5
 40
477.6125378789462275
 41
1.8826466916354549
 42
50.0
 43
0.0
 44
0.0
 50
0.0
 51
0.0
 71
     0
 72
  1500
 73
     1
 74
     0
 75
     0
 76
     0
 77
     0
 78
     0
  0
ENDTAB
  0
TABLE
  2
LTYPE
 70
     3
  0
LTYPE
  2
CONTINUOUS
 70
     0
  3
Solid line
 72
    65
 73
     0
 40
0.0
  0
LTYPE
  2
VERDECKT
 70
     0
  3
Verdeckt __ __ __ __ __ __ __ __ __ __ __ __ __
 72
    65
 73
     2
 40
0.375
 49
0.25
 49
-0.125
  0
ENDTAB
  0
TABLE
  2
LAYER
 70
    10
  0
LAYER
  2
0
 70
     0
 62
     7
  6
CONTINUOUS
  0
LAYER
  2
VOLL
 70
     0
 62
     1
  6
CONTINUOUS
  0
LAYER
  2
DEFPOINTS
 70
     0
 62
     7
  6
CONTINUOUS
  0
LAYER
  2
ROHR
 70
     0
 62
     9
  6
CONTINUOUS
  0
ENDTAB
  0
TABLE
  2
STYLE
 70
     4
  0
STYLE
  2
STANDARD
 70
     0
 40
0.0
 41
0.8
 50
0.0
 71
     0
 42
3.5
  3
simplex.shx
  4

  0
STYLE
  2
GREEKS
 70
     0
 40
0.0
 41
0.8
 50
0.0
 71
     0
 42
2.5
  3
SIMPLEX.shx
  4

  0
ENDTAB
  0
TABLE
  2
VIEW
 70
     2
  0
ENDTAB
  0
TABLE
  2
UCS
 70
     0
  0
ENDTAB
  0
TABLE
  2
APPID
 70
     8
  0
APPID
  2
ACAD
 70
     0
  0
APPID
  2
ACAD_NAV_VCDISPLAY
 70
     0
  0
APPID
  2
ACAECLAYERSTANDARD
 70
     0
  0
APPID
  2
ACCMTRANSPARENCY
 70
     0
  0
APPID
  2
ACAD_PSEXT
 70
     0
  0
APPID
  2
ACAD_MLEADERVER
 70
     0
  0
APPID
  2
ACAD_OBJECT_CHANGE_GUID
 70
     0
  0
APPID
  2
ACAD_EXEMPT_FROM_CAD_STANDARDS
 70
     0
  0
ENDTAB
  0
TABLE
  2
DIMSTYLE
 70
     2
  0
DIMSTYLE
  2
STANDARD
 70
     0
  3

  4

  5

  6

  7

 40
1.0
 41
0.18
 42
0.0625
 43
0.38
 44
0.18
 45
0.0
 46
0.0
 47
0.0
 48
0.0
140
0.18
141
0.09
142
0.0
143
25.3999999999999986
144
1.0
145
0.0
146
1.0
147
0.09
 71
     0
 72
     0
 73
     1
 74
     1
 75
     0
 76
     0
 77
     0
 78
     0
170
     0
171
     2
172
     0
173
     0
174
     0
175
     0
176
     0
177
     0
178
     0
  0
ENDTAB
  0
ENDSEC
  0
SECTION
  2
BLOCKS
  0
BLOCK
  8
0
  2
$MODEL_SPACE
 70
     0
 10
0.0
 20
0.0
 30
0.0
  3
$MODEL_SPACE
  1

  0
ENDBLK
  5
36
  8
0
  0
BLOCK
 67
     1
  8
0
  2
$PAPER_SPACE
 70
     0
 10
0.0
 20
0.0
 30
0.0
  3
$PAPER_SPACE
  1

  0
ENDBLK
  5
34
 67
     1
  8
0
  0
BLOCK
  8
0
  2
A$C31546A3C
 70
     0
 10
0.0
 20
0.0
 30
0.0
  3
A$C31546A3C
  1

  0
ARC
  5
FEC
  8
0
  6
CONTINUOUS
 62
     3
 10
-0.0000000000002111
 20
0.000000000000016
 30
0.0
 40
36.5
 50
270.0
 51
90.0
  0
CIRCLE
  5
FED
  8
0
  6
CONTINUOUS
 62
     3
 10
-75.0000000000002558
 20
0.0000000000000333
 30
0.0
 40
37.9873223762319512
  0
CIRCLE
  5
FEE
  8
0
  6
CONTINUOUS
 62
     3
 10
-75.0000000000001563
 20
0.0000000000000296
 30
0.0
 40
34.8999999999999417
  0
CIRCLE
  5
FEF
  8
0
  6
CONTINUOUS
 62
     3
 10
-75.0000000000002558
 20
0.0000000000000333
 30
0.0
 40
39.7653973282764426
  0
CIRCLE
  5
FF0
  8
0
  6
CONTINUOUS
 62
     3
 10
-75.00000000000027
 20
0.0000000000000326
 30
0.0
 40
42.0999999999999233
  0
LINE
  5
FF1
  8
0
  6
CONTINUOUS
 62
     3
 10
-16.2200125843265504
 20
-36.4999999999999787
 30
0.0
 11
-54.0200095328910805
 21
-36.4999999999999716
 31
-0.0000000000000142
  0
LINE
  5
FF2
  8
0
  6
CONTINUOUS
 62
     3
 10
-16.2200125843265504
 20
36.5000000000000213
 30
0.0
 11
-54.0200095328910521
 21
36.5000000000000284
 31
-0.0000000000000142
  0
LINE
  5
FF3
  8
0
  6
CONTINUOUS
 62
     3
 10
-16.2200125843263905
 20
-36.4999999999999787
 30
0.0
 11
-0.0000000000002096
 21
-36.4999999999999929
 31
0.0
  0
LINE
  5
FF4
  8
0
  6
CONTINUOUS
 62
     3
 10
-0.0000000000002111
 20
36.5000000000000213
 30
0.0
 11
-16.2200125843264402
 21
36.5000000000000213
 31
0.0
  0
CIRCLE
  5
FF5
  8
0
  6
VERDECKT
 62
     1
 10
0.0000000000000163
 20
0.000000000000016
 30
0.0
 40
34.8999999999999986
  0
CIRCLE
  5
FF6
  8
0
  6
VERDECKT
 62
     1
 10
0.0
 20
0.0000000000000115
 30
0.0
 40
34.1939789517233024
  0
ARC
  5
FF7
  8
0
  6
VERDECKT
 62
     1
 10
-0.0000000000003247
 20
-0.000000000000055
 30
0.0
 40
36.4999999999998934
 50
179.9999999999998863
 51
270.0000000000002274
  0
ARC
  5
FF8
  8
0
  6
VERDECKT
 62
     1
 10
-0.0000000000003247
 20
0.0000000000000835
 30
0.0
 40
36.4999999999999289
 50
89.9999999999998153
 51
180.0000000000001137
  0
CIRCLE
  5
FF9
  8
0
  6
VERDECKT
 62
     1
 10
0.0
 20
0.0000000000000115
 30
0.0
 40
35.8000906917925406
  0
CIRCLE
  5
FFA
  8
0
  6
VERDECKT
 62
     1
 10
-75.00000000000027
 20
0.0000000000000326
 30
0.0
 40
40.5000000000000213
  0
CIRCLE
  5
FFB
  8
0
  6
VERDECKT
 62
     1
 10
-75.00000000000027
 20
0.0000000000000312
 30
0.0
 40
37.9999999999998224
  0
CIRCLE
  5
FFC
  8
0
  6
VERDECKT
 62
     1
 10
-75.00000000000027
 20
0.0000000000000312
 30
0.0
 40
39.599999999999838
  0
CIRCLE
  5
FFD
  8
0
  6
VERDECKT
 62
     1
 10
-75.0000000000001563
 20
0.0000000000000296
 30
0.0
 40
36.4999999999999716
  0
LINE
  5
FFE
  8
0
  6
VERDECKT
 62
     1
 10
-58.7799874156759614
 20
34.9000000000000199
 30
0.0
 11
-75.0000000000001847
 21
34.900000000000027
 31
0.0
  0
LINE
  5
FFF
  8
0
  6
VERDECKT
 62
     1
 10
-75.0000000000001847
 20
-34.8999999999999702
 30
0.0
 11
-58.7799874156759401
 21
-34.8999999999999773
 31
0.0
  0
LINE
  5
1000
  8
0
  6
VERDECKT
 62
     1
 10
-16.2200125843262093
 20
-34.8999999999999773
 30
0.0
 11
-58.7799874156760325
 21
-34.8999999999999702
 31
-0.0000000000000142
  0
LINE
  5
1001
  8
0
  6
VERDECKT
 62
     1
 10
-16.2200125843262093
 20
34.9000000000000199
 30
0.0
 11
-58.7799874156760112
 21
34.900000000000027
 31
-0.0000000000000142
  0
LINE
  5
1002
  8
0
  6
VERDECKT
 62
     1
 10
-16.2200125843261915
 20
-34.8999999999999773
 30
0.0
 11
0.0000000000000178
 21
-34.8999999999999773
 31
0.0
  0
LINE
  5
1003
  8
0
  6
VERDECKT
 62
     1
 10
0.0000000000000163
 20
34.9000000000000128
 30
0.0
 11
-16.2200125843262306
 21
34.9000000000000199
 31
0.0
  0
LINE
  5
1004
  8
0
  6
VERDECKT
 62
     1
 10
-58.779987415676338
 20
36.5000000000000213
 30
0.0
 11
-75.0000000000004263
 21
36.5000000000000213
 31
0.0
  0
LINE
  5
1005
  8
0
  6
VERDECKT
 62
     1
 10
-75.0000000000003837
 20
-36.4999999999999716
 30
0.0
 11
-58.7799874156763593
 21
-36.4999999999999716
 31
0.0
  0
LINE
  5
1006
  8
0
  6
VERDECKT
 62
     1
 10
-54.0200095328910805
 20
-36.4999999999999716
 30
0.0
 11
-58.7799874156763025
 21
-36.4999999999999716
 31
-0.0000000000000018
  0
LINE
  5
1007
  8
0
  6
VERDECKT
 62
     1
 10
-54.0200095328910521
 20
36.5000000000000284
 30
0.0
 11
-58.7799874156762883
 21
36.5000000000000284
 31
-0.0000000000000018
  0
ENDBLK
  5
1009
  8
0
  0
BLOCK
  8
0
  2
A$C272B0359
 70
     0
 10
0.0
 20
0.0
 30
0.0
  3
A$C272B0359
  1

  0
LINE
  5
100D
  8
0
  6
CONTINUOUS
 62
     3
 10
-35.8000906917925477
 20
-0.0000000000000568
 30
0.0
 11
35.8000906917925477
 21
0.0000000000000568
 31
0.0
210
0.0
220
1.0
230
-0.0000000000000002
  0
LINE
  5
100E
  8
0
  6
CONTINUOUS
 62
     3
 10
-114.7653973282767055
 20
354.9999999999977831
 30
-0.0000000000000788
 11
-35.2346026717239127
 21
354.9999999999977831
 31
-0.0000000000000788
210
0.0
220
1.0
230
-0.0000000000000002
  0
LINE
  5
100F
  8
0
  6
CONTINUOUS
 62
     3
 10
36.4999999999997229
 20
73.5000000000028848
 30
-0.0000000000000163
 11
36.4999999999998295
 21
8.000000000000087
 31
-0.0000000000000018
210
0.0
220
1.0
230
-0.0000000000000002
  0
LINE
  5
1010
  8
0
  6
CONTINUOUS
 62
     3
 10
-36.5000000000000497
 20
73.5000000000017479
 30
-0.0000000000000163
 11
-36.4999999999999503
 21
7.9999999999999734
 31
-0.0000000000000018
210
0.0
220
1.0
230
-0.0000000000000002
  0
LINE
  5
1011
  8
0
  6
CONTINUOUS
 62
     3
 10
-35.8000906917925477
 20
-0.0000000000000568
 30
0.0
 11
-36.5
 21
7.9999999999999734
 31
-0.0000000000000018
210
0.0
220
1.0
230
-0.0000000000000002
  0
LINE
  5
1012
  8
0
  6
CONTINUOUS
 62
     3
 10
35.8000906917925619
 20
0.0000000000000497
 30
0.0
 11
36.4999999999999929
 21
8.0000000000000835
 31
-0.0000000000000018
210
0.0
220
1.0
230
-0.0000000000000002
  0
ARC
  5
1013
  8
0
  6
CONTINUOUS
 62
     3
 10
-42.5000000000013713
 20
265.0000000000026716
 30
0.0
 40
154.0000000000017906
210
0.0
220
-0.0000000000000002
230
-1.0
 50
329.5370683702774954
 51
359.9999999999990905
  0
ARC
  5
1014
  8
0
  6
CONTINUOUS
 62
     3
 10
42.5000000000003126
 20
265.0000000000023874
 30
-0.0000000000000588
 40
81.0000000000007674
 50
180.0000000000013927
 51
210.462931629721993
  0
LINE
  5
1015
  8
0
  6
CONTINUOUS
 62
     3
 10
-47.6814554836640028
 20
114.5654458349172984
 30
-0.0000000000000254
 11
-90.2414303150137869
 21
186.9249548323915064
 31
-0.0000000000000415
210
0.0
220
1.0
230
-0.0000000000000002
  0
LINE
  5
1016
  8
0
  6
CONTINUOUS
 62
     3
 10
15.2414303150108399
 20
151.5750451676163948
 30
-0.0000000000000337
 11
-27.3185445163389211
 21
223.9345541650905886
 31
-0.0000000000000497
210
0.0
220
1.0
230
-0.0000000000000002
  0
ARC
  5
1017
  8
0
  6
CONTINUOUS
 62
     3
 10
117.5000000000080007
 20
73.5000000000000853
 30
0.0
 40
154.0000000000077023
210
0.0
220
-0.0000000000000002
230
-1.0
 50
149.5370683702765859
 51
179.9999999999988916
  0
ARC
  5
1018
  8
0
  6
CONTINUOUS
 62
     3
 10
-117.5000000000083986
 20
73.4999999999999289
 30
-0.0000000000000163
 40
81.0000000000081855
 50
0.0000000000012722
 51
30.462931629723581
  0
ARC
  5
1019
  8
0
  6
CONTINUOUS
 62
     3
 10
92.1000000000002643
 20
344.4510775928816884
 30
0.0
 40
25.0
210
0.0
220
-0.0000000000000002
230
-1.0
 50
0.0
 51
24.9581963123093082
  0
ARC
  5
101A
  8
0
  6
CONTINUOUS
 62
     3
 10
57.8999999999998423
 20
344.4510775928819157
 30
0.0
 40
24.9999999999994316
210
0.0
220
-0.0000000000000002
230
-1.0
 50
155.0418036876907024
 51
180.0000000000003126
  0
LINE
  5
101B
  8
0
  6
CONTINUOUS
 62
     3
 10
-32.9000000000004391
 20
344.4510775928816884
 30
-0.0000000000000765
 11
-32.900000000000432
 21
335.3017199517648237
 31
-0.0000000000000745
210
0.0
220
1.0
230
-0.0000000000000002
  0
LINE
  5
101C
  8
0
  6
CONTINUOUS
 62
     3
 10
-117.1000000000001933
 20
344.4510775928815178
 30
-0.0000000000000765
 11
-117.1000000000001933
 21
335.30171995176471
 31
-0.0000000000000745
210
0.0
220
1.0
230
-0.0000000000000002
  0
ARC
  5
101D
  8
0
  6
CONTINUOUS
 62
     3
 10
92.1000000000169905
 20
335.3699999999972192
 30
0.0
 40
25.0000932431091414
210
0.0
220
-0.0000000000000002
230
-1.0
 50
338.8168456069577132
 51
359.8435140455526948
  0
ARC
  5
101E
  8
0
  6
CONTINUOUS
 62
     3
 10
57.8999999999836703
 20
335.3699999999972192
 30
0.0
 40
25.0000932431091201
210
0.0
220
-0.0000000000000002
230
-1.0
 50
180.1564859544471062
 51
201.1831543930422015
  0
ARC
  5
101F
  8
0
  6
CONTINUOUS
 62
     3
 10
126.5999999999961005
 20
322.0000000000005116
 30
0.0
 40
11.9999999999959392
210
0.0
220
-0.0000000000000002
230
-1.0
 50
158.816845606956889
 51
180.0000000000007958
  0
ARC
  5
1020
  8
0
  6
CONTINUOUS
 62
     3
 10
23.4000000000049901
 20
322.0000000000006821
 30
0.0
 40
11.9999999999955094
210
0.0
220
-0.0000000000000002
230
-1.0
 50
0.0
 51
21.1831543930446493
  0
LINE
  5
1021
  8
0
  6
CONTINUOUS
 62
     3
 10
-35.4000000000004391
 20
322.0000000000002842
 30
-0.0000000000000715
 11
-35.400000000000432
 21
305.3887264174172742
 31
-0.0000000000000678
210
0.0
220
1.0
230
-0.0000000000000002
  0
LINE
  5
1022
  8
0
  6
CONTINUOUS
 62
     3
 10
-114.6000000000001933
 20
322.0000000000002842
 30
-0.0000000000000715
 11
-114.6000000000001933
 21
305.3887264174172174
 31
-0.0000000000000678
210
0.0
220
1.0
230
-0.0000000000000002
  0
ARC
  5
1023
  8
0
  6
CONTINUOUS
 62
     3
 10
102.599999999999298
 20
305.3887264174176721
 30
0.0
 40
12.0000000000009699
210
0.0
220
-0.0000000000000002
230
-1.0
 50
327.6719358778369724
 51
359.9999999999977831
  0
ARC
  5
1024
  8
0
  6
CONTINUOUS
 62
     3
 10
47.4000000000015191
 20
305.3887264174178995
 30
0.0
 40
12.0000000000013802
210
0.0
220
-0.0000000000000002
230
-1.0
 50
180.000000000002899
 51
212.3280641221626865
  0
ARC
  5
1025
  8
0
  6
CONTINUOUS
 62
     3
 10
119.500000000000199
 20
294.6934003354315905
 30
0.0
 40
7.9999999999999574
210
0.0
220
-0.0000000000000002
230
-1.0
 50
147.6719358778387914
 51
179.9999999999996021
  0
ARC
  5
1026
  8
0
  6
CONTINUOUS
 62
     3
 10
30.5000000000004192
 20
294.6934003354318179
 30
0.0
 40
7.9999999999998472
210
0.0
220
-0.0000000000000002
230
-1.0
 50
0.0
 51
32.3280641221611376
  0
LINE
  5
1027
  8
0
  6
CONTINUOUS
 62
     3
 10
-38.5000000000002487
 20
294.6934003354318179
 30
-0.0000000000000654
 11
-38.5000000000002132
 21
265.0000000000002842
 31
-0.0000000000000588
210
0.0
220
1.0
230
-0.0000000000000002
  0
LINE
  5
1028
  8
0
  6
CONTINUOUS
 62
     3
 10
-111.500000000000199
 20
294.6934003354317042
 30
-0.0000000000000654
 11
-111.500000000000199
 21
265.0000000000002842
 31
-0.0000000000000588
210
0.0
220
1.0
230
-0.0000000000000002
  0
LINE
  5
1029
  8
0
  6
VERDECKT
 62
     1
 10
34.8999999999997002
 20
73.5000000000023448
 30
-0.0000000000000163
 11
34.8999999999997996
 21
8.0698575086536284
 31
-0.0000000000000018
210
0.0
220
1.0
230
-0.0000000000000002
  0
LINE
  5
102A
  8
0
  6
VERDECKT
 62
     1
 10
-34.900000000000027
 20
73.5000000000015632
 30
-0.0000000000000163
 11
-34.8999999999999275
 21
8.0698575086535147
 31
-0.0000000000000018
210
0.0
220
1.0
230
-0.0000000000000002
  0
LINE
  5
102B
  8
0
  6
VERDECKT
 62
     1
 10
-34.1939789517233024
 20
-0.0000000000000613
 30
0.0
 11
-34.9000000000000412
 21
8.0698575086535111
 31
-0.0000000000000018
210
0.0
220
1.0
230
-0.0000000000000002
  0
LINE
  5
102C
  8
0
  6
VERDECKT
 62
     1
 10
34.1939789517233024
 20
0.0000000000000204
 30
0.0
 11
34.9000000000000199
 21
8.0698575086536142
 31
-0.0000000000000018
210
0.0
220
1.0
230
-0.0000000000000002
  0
ARC
  5
102D
  8
0
  6
VERDECKT
 62
     1
 10
-42.4999999999975273
 20
265.000000000001819
 30
0.0
 40
152.3999999999977035
210
0.0
220
-0.0000000000000002
230
-1.0
 50
329.537068370276927
 51
359.9999999999993747
  0
ARC
  5
102E
  8
0
  6
VERDECKT
 62
     1
 10
42.4999999999977405
 20
265.0000000000018758
 30
-0.0000000000000588
 40
82.5999999999979906
 50
180.0000000000011084
 51
210.4629316297225898
  0
LINE
  5
102F
  8
0
  6
VERDECKT
 62
     1
 10
-46.3023237401309089
 20
115.3766151353596001
 30
-0.0000000000000256
 11
-88.862298571480693
 21
187.736124132833794
 31
-0.0000000000000417
210
0.0
220
1.0
230
-0.0000000000000002
  0
LINE
  5
1030
  8
0
  6
VERDECKT
 62
     1
 10
13.8622985714784193
 20
150.7638758671737946
 30
-0.0000000000000335
 11
-28.6976762598713897
 21
223.1233848646481022
 31
-0.0000000000000495
210
0.0
220
1.0
230
-0.0000000000000002
  0
ARC
  5
1031
  8
0
  6
VERDECKT
 62
     1
 10
117.5000000000063949
 20
73.5000000000000284
 30
0.0
 40
152.4000000000064858
210
0.0
220
-0.0000000000000002
230
-1.0
 50
149.537068370276188
 51
179.9999999999990905
  0
ARC
  5
1032
  8
0
  6
VERDECKT
 62
     1
 10
-117.5000000000066933
 20
73.4999999999999858
 30
-0.0000000000000163
 40
82.600000000006716
 50
0.0000000000011068
 51
30.4629316297237196
  0
ARC
  5
1033
  8
0
  6
VERDECKT
 62
     1
 10
92.1000000000011738
 20
344.4510775928816884
 30
0.0
 40
23.3999999999991815
210
0.0
220
-0.0000000000000002
230
-1.0
 50
359.9999999999993747
 51
26.7955779312327103
  0
ARC
  5
1034
  8
0
  6
VERDECKT
 62
     1
 10
57.8999999999994088
 20
344.4510775928816884
 30
0.0
 40
23.3999999999990713
210
0.0
220
-0.0000000000000002
230
-1.0
 50
153.2044220687735958
 51
180.0000000000003979
  0
LINE
  5
1035
  8
0
  6
VERDECKT
 62
     1
 10
-34.5000000000004619
 20
344.4510775928815747
 30
-0.0000000000000765
 11
-34.5000000000004476
 21
335.3017199518064899
 31
-0.0000000000000745
210
0.0
220
1.0
230
-0.0000000000000002
  0
LINE
  5
1036
  8
0
  6
VERDECKT
 62
     1
 10
-115.500000000000199
 20
344.4510775928815178
 30
-0.0000000000000765
 11
-115.500000000000199
 21
335.3017199518063762
 31
-0.0000000000000745
210
0.0
220
1.0
230
-0.0000000000000002
  0
ARC
  5
1037
  8
0
  6
VERDECKT
 62
     1
 10
92.0999106307383215
 20
335.370034633830528
 30
0.0
 40
23.400189088663911
210
0.0
220
-0.0000000000000002
230
-1.0
 50
338.8168456069577132
 51
359.8327300474390995
  0
ARC
  5
1038
  8
0
  6
VERDECKT
 62
     1
 10
57.9000893692631209
 20
335.3700346338305849
 30
0.0
 40
23.4001890886646891
210
0.0
220
-0.0000000000000002
230
-1.0
 50
180.1672699525610994
 51
201.1831543930418036
  0
ARC
  5
1039
  8
0
  6
VERDECKT
 62
     1
 10
126.5999999999929031
 20
322.00000000000108
 30
0.0
 40
13.5999999999928001
210
0.0
220
-0.0000000000000002
230
-1.0
 50
158.816845606955809
 51
180.0000000000034959
  0
ARC
  5
103A
  8
0
  6
VERDECKT
 62
     1
 10
23.4000000000073598
 20
322.0000000000013074
 30
0.0
 40
13.5999999999931607
210
0.0
220
-0.0000000000000002
230
-1.0
 50
359.9999999999961915
 51
21.1831543930433313
  0
LINE
  5
103B
  8
0
  6
VERDECKT
 62
     1
 10
-37.0000000000004619
 20
322.0000000000002842
 30
-0.0000000000000715
 11
-37.0000000000004476
 21
305.3887264174172742
 31
-0.0000000000000678
210
0.0
220
1.0
230
-0.0000000000000002
  0
LINE
  5
103C
  8
0
  6
VERDECKT
 62
     1
 10
-113.000000000000199
 20
322.0000000000002842
 30
-0.0000000000000715
 11
-113.000000000000199
 21
305.3887264174172174
 31
-0.0000000000000678
210
0.0
220
1.0
230
-0.0000000000000002
  0
ARC
  5
103D
  8
0
  6
VERDECKT
 62
     1
 10
102.5999999999957026
 20
305.3887264174186953
 30
0.0
 40
10.4000000000045407
210
0.0
220
-0.0000000000000002
230
-1.0
 50
327.6719358778419746
 51
359.9999999999914735
  0
ARC
  5
103E
  8
0
  6
VERDECKT
 62
     1
 10
47.4000000000045532
 20
305.388726417418809
 30
0.0
 40
10.4000000000044004
210
0.0
220
-0.0000000000000002
230
-1.0
 50
180.0000000000084128
 51
212.3280641221585086
  0
ARC
  5
103F
  8
0
  6
VERDECKT
 62
     1
 10
119.4999999999995026
 20
294.6934003354318747
 30
0.0
 40
9.5999999999993531
210
0.0
220
-0.0000000000000002
230
-1.0
 50
147.6719358778385924
 51
180.0000000000013074
  0
ARC
  5
1040
  8
0
  6
VERDECKT
 62
     1
 10
30.5000000000008988
 20
294.6934003354319884
 30
0.0
 40
9.5999999999993832
210
0.0
220
-0.0000000000000002
230
-1.0
 50
359.9999999999982947
 51
32.3280641221608178
  0
LINE
  5
1041
  8
0
  6
VERDECKT
 62
     1
 10
-40.1000000000002714
 20
294.6934003354318179
 30
-0.0000000000000654
 11
-40.1000000000002217
 21
265.0000000000002842
 31
-0.0000000000000588
210
0.0
220
1.0
230
-0.0000000000000002
  0
LINE
  5
1042
  8
0
  6
VERDECKT
 62
     1
 10
-109.9000000000002046
 20
294.6934003354317042
 30
-0.0000000000000654
 11
-109.9000000000002046
 21
265.0000000000002274
 31
-0.0000000000000588
210
0.0
220
1.0
230
-0.0000000000000002
  0
ENDBLK
  5
1044
  8
0
  0
ENDSEC
  0
SECTION
  2
ENTITIES
  0
TEXT
  5
8F
  8
VOLL
 10
78.076754716981128
 20
31.025947764705851
 30
0.0
 40
1.8
  1

  7
GREEKS
  0
INSERT
  5
100A
  8
ROHR
  2
A$C31546A3C
 10
0.0
 20
0.0000000000000115
 30
-0.0000000000000284
  0
INSERT
  5
1045
  8
ROHR
  2
A$C272B0359
 10
-0.0000000000003407
 20
76.9127126413798408
 30
-0.0000000000000284
  0
VIEWPORT
  5
E5F
 67
     1
  8
0
 10
2.931833318122552
 20
3.4374160963779028
 30
0.0
 40
13.6264626785338905
 41
7.2379287834918076
 68
     1
 69
     1
1001
ACAD
1000
MVIEW
1002
{
1070
    16
1010
0.0
1020
0.0
1030
0.0
1010
0.0
1020
0.0
1030
1.0
1040
0.0
1040
7.2379287834918076
1040
2.931833318122552
1040
3.4374160963779028
1040
50.0
1040
0.0
1040
0.0
1070
     0
1070
  1500
1070
     1
1070
     1
1070
     0
1070
     0
1070
     0
1070
     0
1040
0.0
1040
0.0
1040
0.0
1040
10.0
1040
10.0
1040
10.0
1040
10.0
1070
     0
1002
{
1002
}
1002
}
  0
ENDSEC
  0
EOF
