  0
SECTION
  2
HEADER
  9
$ACADVER
  1
AC1009
  9
$INSBASE
 10
0.0
 20
0.0
 30
0.0
  9
$EXTMIN
 10
-172.4950880996331932
 20
-42.099999999999838
 30
8.0
  9
$EXTMAX
 10
36.4999999999999929
 20
489.3131080955143943
 30
11.1482920212313505
  9
$LIMMIN
 10
0.0
 20
0.0
  9
$LIMMAX
 10
419.9999999999998863
 20
594.0
  9
$ORTHOMODE
 70
     1
  9
$REGENMODE
 70
     1
  9
$FILLMODE
 70
     1
  9
$QTEXTMODE
 70
     0
  9
$MIRRTEXT
 70
     1
  9
$DRAGMODE
 70
     2
  9
$LTSCALE
 40
20.0
  9
$OSMODE
 70
  1327
  9
$ATTMODE
 70
     1
  9
$TEXTSIZE
 40
3.5
  9
$TRACEWID
 40
0.5
  9
$TEXTSTYLE
  7
STANDARD
  9
$CLAYER
  8
DEFPOINTS
  9
$CELTYPE
  6
BYLAYER
  9
$CECOLOR
 62
   256
  9
$DIMSCALE
 40
2.0
  9
$DIMASZ
 40
3.5
  9
$DIMEXO
 40
1.0
  9
$DIMDLI
 40
7.0
  9
$DIMRND
 40
0.0
  9
$DIMDLE
 40
0.0
  9
$DIMEXE
 40
1.0
  9
$DIMTP
 40
0.0
  9
$DIMTM
 40
0.0
  9
$DIMTXT
 40
3.5
  9
$DIMCEN
 40
1.5
  9
$DIMTSZ
 40
0.0
  9
$DIMTOL
 70
     0
  9
$DIMLIM
 70
     0
  9
$DIMTIH
 70
     0
  9
$DIMTOH
 70
     0
  9
$DIMSE1
 70
     0
  9
$DIMSE2
 70
     0
  9
$DIMTAD
 70
     1
  9
$DIMZIN
 70
     8
  9
$DIMBLK
  1

  9
$DIMASO
 70
     1
  9
$DIMSHO
 70
     0
  9
$DIMPOST
  1

  9
$DIMAPOST
  1

  9
$DIMALT
 70
     0
  9
$DIMALTD
 70
     2
  9
$DIMALTF
 40
25.3999999999999986
  9
$DIMLFAC
 40
1.0
  9
$DIMTOFL
 70
     1
  9
$DIMTVP
 40
0.0
  9
$DIMTIX
 70
     0
  9
$DIMSOXD
 70
     0
  9
$DIMSAH
 70
     0
  9
$DIMBLK1
  1

  9
$DIMBLK2
  1

  9
$DIMSTYLE
  2
STANDARD
  9
$DIMCLRD
 70
     0
  9
$DIMCLRE
 70
     0
  9
$DIMCLRT
 70
     1
  9
$DIMTFAC
 40
0.5142857142857143
  9
$DIMGAP
 40
1.5
  9
$LUNITS
 70
     2
  9
$LUPREC
 70
     2
  9
$SKETCHINC
 40
1.0
  9
$FILLETRAD
 40
82.5
  9
$AUNITS
 70
     0
  9
$AUPREC
 70
     0
  9
$MENU
  1
ACAD
  9
$ELEVATION
 40
0.0
  9
$PELEVATION
 40
0.0
  9
$THICKNESS
 40
0.0
  9
$LIMCHECK
 70
     0
  9
$BLIPMODE
 70
     0
  9
$CHAMFERA
 40
0.0
  9
$CHAMFERB
 40
0.0
  9
$SKPOLY
 70
     0
  9
$TDCREATE
 40
2455397.8646990740671754
  9
$TDUPDATE
 40
2458383.321122684981674
  9
$TDINDWG
 40
0.1006651505
  9
$TDUSRTIMER
 40
0.1006651505
  9
$USRTIMER
 70
     1
  9
$ANGBASE
 50
0.0
  9
$ANGDIR
 70
     0
  9
$PDMODE
 70
     0
  9
$PDSIZE
 40
0.0
  9
$PLINEWID
 40
0.0
  9
$COORDS
 70
     1
  9
$SPLFRAME
 70
     0
  9
$SPLINETYPE
 70
     6
  9
$SPLINESEGS
 70
     8
  9
$ATTDIA
 70
     0
  9
$ATTREQ
 70
     0
  9
$HANDLING
 70
     1
  9
$HANDSEED
  5
FB4
  9
$SURFTAB1
 70
     6
  9
$SURFTAB2
 70
     6
  9
$SURFTYPE
 70
     6
  9
$SURFU
 70
     6
  9
$SURFV
 70
     6
  9
$UCSNAME
  2

  9
$UCSORG
 10
0.0
 20
0.0
 30
0.0
  9
$UCSXDIR
 10
1.0
 20
0.0
 30
0.0
  9
$UCSYDIR
 10
0.0
 20
1.0
 30
0.0
  9
$PUCSNAME
  2

  9
$PUCSORG
 10
0.0
 20
0.0
 30
0.0
  9
$PUCSXDIR
 10
1.0
 20
0.0
 30
0.0
  9
$PUCSYDIR
 10
0.0
 20
1.0
 30
0.0
  9
$USERI1
 70
     0
  9
$USERI2
 70
     0
  9
$USERI3
 70
     0
  9
$USERI4
 70
     0
  9
$USERI5
 70
     0
  9
$USERR1
 40
0.0
  9
$USERR2
 40
0.0
  9
$USERR3
 40
0.0
  9
$USERR4
 40
0.0
  9
$USERR5
 40
0.0
  9
$WORLDVIEW
 70
     1
  9
$SHADEDGE
 70
     3
  9
$SHADEDIF
 70
    70
  9
$TILEMODE
 70
     1
  9
$MAXACTVP
 70
    16
  9
$PLIMCHECK
 70
     0
  9
$PEXTMIN
 10
-0.1168978004450167
 20
-0.1983794944555583
 30
-0.0000000000112498
  9
$PEXTMAX
 10
6.0800014726541711
 20
8.2068097819786345
 30
0.0000000000002956
  9
$PLIMMIN
 10
-0.2500002402958907
 20
-0.2499999962453767
  9
$PLIMMAX
 10
10.7499995194082203
 20
8.2499997634587334
  9
$UNITMODE
 70
     0
  9
$VISRETAIN
 70
     0
  9
$PLINEGEN
 70
     0
  9
$PSLTSCALE
 70
     0
  0
ENDSEC
  0
SECTION
  2
TABLES
  0
TABLE
  2
VPORT
 70
     1
  0
VPORT
  2
*ACTIVE
 70
     0
 10
0.0
 20
0.0
 11
1.0
 21
1.0
 12
0.0000030517576874
 22
49.6565532848177611
 13
0.0
 23
0.0
 14
1.0
 24
1.0
 15
10.0
 25
10.0
 16
-0.0000000000003553
 26
0.0
 36
1599.6916836362679533
 17
-67.9975471015743551
 27
173.9500007629393963
 37
194.9999999999998863
 40
535.3887672583233552
 41
1.8826466916354549
 42
50.0
 43
0.0
 44
0.0
 50
0.0
 51
0.0
 71
     0
 72
  1500
 73
     1
 74
     0
 75
     0
 76
     0
 77
     0
 78
     0
  0
ENDTAB
  0
TABLE
  2
LTYPE
 70
     3
  0
LTYPE
  2
CONTINUOUS
 70
     0
  3
Solid line
 72
    65
 73
     0
 40
0.0
  0
LTYPE
  2
VERDECKT
 70
     0
  3
Verdeckt __ __ __ __ __ __ __ __ __ __ __ __ __
 72
    65
 73
     2
 40
0.375
 49
0.25
 49
-0.125
  0
ENDTAB
  0
TABLE
  2
LAYER
 70
    10
  0
LAYER
  2
0
 70
     0
 62
     7
  6
CONTINUOUS
  0
LAYER
  2
VOLL
 70
     0
 62
     1
  6
CONTINUOUS
  0
LAYER
  2
DEFPOINTS
 70
     0
 62
     7
  6
CONTINUOUS
  0
ENDTAB
  0
TABLE
  2
STYLE
 70
     5
  0
STYLE
  2
STANDARD
 70
     0
 40
0.0
 41
0.8
 50
0.0
 71
     0
 42
3.5
  3
simplex.shx
  4

  0
STYLE
  2
GREEKS
 70
     0
 40
0.0
 41
0.8
 50
0.0
 71
     0
 42
2.5
  3
SIMPLEX.shx
  4

  0
ENDTAB
  0
TABLE
  2
VIEW
 70
     2
  0
ENDTAB
  0
TABLE
  2
UCS
 70
     0
  0
ENDTAB
  0
TABLE
  2
APPID
 70
    11
  0
APPID
  2
ACAD
 70
     0
  0
APPID
  2
ACAD_NAV_VCDISPLAY
 70
     0
  0
APPID
  2
GRADIENTCOLOR1ACI
 70
     0
  0
APPID
  2
GRADIENTCOLOR2ACI
 70
     0
  0
APPID
  2
ACAECLAYERSTANDARD
 70
     0
  0
APPID
  2
ACCMTRANSPARENCY
 70
     0
  0
APPID
  2
ACAD_PSEXT
 70
     0
  0
APPID
  2
ACAD_EXEMPT_FROM_CAD_STANDARDS
 70
     0
  0
APPID
  2
ACAD_MLEADERVER
 70
     0
  0
APPID
  2
ACAD_DSTYLE_DIMRADIAL_EXTENSION
 70
     0
  0
APPID
  2
ACAD_OBJECT_CHANGE_GUID
 70
     0
  0
ENDTAB
  0
TABLE
  2
DIMSTYLE
 70
     3
  0
DIMSTYLE
  2
STANDARD
 70
     0
  3

  4

  5

  6

  7

 40
1.0
 41
0.18
 42
0.0625
 43
0.38
 44
0.18
 45
0.0
 46
0.0
 47
0.0
 48
0.0
140
0.18
141
0.09
142
0.0
143
25.3999999999999986
144
1.0
145
0.0
146
1.0
147
0.09
 71
     0
 72
     0
 73
     1
 74
     1
 75
     0
 76
     0
 77
     0
 78
     0
170
     0
171
     2
172
     0
173
     0
174
     0
175
     0
176
     0
177
     0
178
     0
  0
ENDTAB
  0
ENDSEC
  0
SECTION
  2
BLOCKS
  0
BLOCK
  8
0
  2
$MODEL_SPACE
 70
     0
 10
0.0
 20
0.0
 30
0.0
  3
$MODEL_SPACE
  1

  0
ENDBLK
  5
36
  8
0
  0
BLOCK
 67
     1
  8
0
  2
$PAPER_SPACE
 70
     0
 10
0.0
 20
0.0
 30
0.0
  3
$PAPER_SPACE
  1

  0
ENDBLK
  5
34
 67
     1
  8
0
  0
BLOCK
  8
0
  2
A$C52D224BD
 70
     0
 10
0.0
 20
0.0
 30
0.0
  3
A$C52D224BD
  1

  0
ARC
  5
F0C
  8
0
  6
CONTINUOUS
 62
     3
 10
0.0000000000000161
 20
0.0000000000000429
 30
0.0
 40
36.5000000000000284
 50
270.0
 51
90.0
  0
CIRCLE
  5
F0D
  8
0
  6
CONTINUOUS
 62
     3
 10
-129.9999999999998863
 20
0.0000000000000338
 30
-0.0000000000000568
 40
38.0
  0
CIRCLE
  5
F0E
  8
0
  6
CONTINUOUS
 62
     3
 10
-129.9999999999998863
 20
0.0000000000000301
 30
-0.0000000000000568
 40
34.8999999999999773
  0
CIRCLE
  5
F0F
  8
0
  6
CONTINUOUS
 62
     3
 10
-129.9999999999998863
 20
0.0000000000000338
 30
-0.0000000000000568
 40
39.7653973282752986
  0
CIRCLE
  5
F10
  8
0
  6
CONTINUOUS
 62
     3
 10
-129.9999999999998863
 20
0.0000000000000332
 30
-0.0000000000000568
 40
42.1000000000000227
  0
LINE
  5
F11
  8
0
  6
CONTINUOUS
 62
     3
 10
-95.0029539263162661
 20
36.5000000000000213
 30
-0.0000000000000284
 11
-109.0200095328904979
 21
36.5000000000000213
 31
-0.0000000000000284
  0
LINE
  5
F12
  8
0
  6
CONTINUOUS
 62
     3
 10
-109.0200095328904979
 20
-36.4999999999999787
 30
-0.0000000000000284
 11
-95.0029539263162661
 21
-36.4999999999999787
 31
-0.0000000000000284
  0
LINE
  5
F13
  8
0
  6
CONTINUOUS
 62
     3
 10
-34.9970460736885514
 20
-36.4999999999999787
 30
0.0
 11
-95.0029539263162661
 21
-36.4999999999999716
 31
-0.0000000000000142
  0
LINE
  5
F14
  8
0
  6
CONTINUOUS
 62
     3
 10
-34.9970460736885514
 20
36.5000000000000213
 30
0.0
 11
-95.0029539263162661
 21
36.5000000000000284
 31
-0.0000000000000142
  0
LINE
  5
F15
  8
0
  6
CONTINUOUS
 62
     3
 10
-34.9970460736885514
 20
-36.4999999999999787
 30
0.0
 11
0.0000000000000142
 21
-36.4999999999999929
 31
0.0
  0
LINE
  5
F16
  8
0
  6
CONTINUOUS
 62
     3
 10
0.0000000000000019
 20
36.5000000000000213
 30
0.0
 11
-34.9970460736886011
 21
36.5000000000000213
 31
0.0
  0
CIRCLE
  5
F17
  8
0
  6
VERDECKT
 62
     1
 10
0.0000000000000161
 20
0.0000000000000145
 30
0.0
 40
34.8999999999999986
  0
CIRCLE
  5
F18
  8
0
  6
VERDECKT
 62
     1
 10
0.0000000000001137
 20
0.00000000000001
 30
0.0
 40
34.1939789517231816
  0
ARC
  5
F19
  8
0
  6
VERDECKT
 62
     1
 10
0.0000000000000161
 20
-0.0000000000000104
 30
0.0
 40
36.5000000000000284
 50
90.0
 51
270.0
  0
CIRCLE
  5
F1A
  8
0
  6
VERDECKT
 62
     1
 10
0.0
 20
0.00000000000001
 30
0.0
 40
35.8000906917925477
  0
CIRCLE
  5
F1B
  8
0
  6
VERDECKT
 62
     1
 10
-129.9999999999998863
 20
0.0000000000000332
 30
-0.0000000000000568
 40
40.4999999999999929
  0
CIRCLE
  5
F1C
  8
0
  6
VERDECKT
 62
     1
 10
-129.9999999999998863
 20
0.0000000000000321
 30
-0.0000000000000568
 40
39.600000000001728
  0
CIRCLE
  5
F1D
  8
0
  6
VERDECKT
 62
     1
 10
-129.9999999999998863
 20
0.0000000000000301
 30
-0.0000000000000568
 40
36.5000000000001066
  0
LINE
  5
F1E
  8
0
  6
VERDECKT
 62
     1
 10
-95.0029539263161524
 20
34.9000000000000412
 30
-0.0000000000000284
 11
-130.0000000000003126
 21
34.9000000000000412
 31
-0.0000000000000568
  0
LINE
  5
F1F
  8
0
  6
VERDECKT
 62
     1
 10
-130.0000000000003126
 20
-34.8999999999999773
 30
-0.0000000000000568
 11
-95.002953926316124
 21
-34.8999999999999915
 31
-0.0000000000000284
  0
LINE
  5
F20
  8
0
  6
VERDECKT
 62
     1
 10
-34.9970460736885514
 20
-34.8999999999999773
 30
0.0
 11
-95.0029539263162661
 21
-34.8999999999999773
 31
-0.0000000000000142
  0
LINE
  5
F21
  8
0
  6
VERDECKT
 62
     1
 10
-34.9970460736885514
 20
34.900000000000027
 30
0.0
 11
-95.0029539263162661
 21
34.9000000000000412
 31
-0.0000000000000142
  0
LINE
  5
F22
  8
0
  6
VERDECKT
 62
     1
 10
-34.9970460736883666
 20
-34.8999999999999773
 30
0.0
 11
0.0000000000000142
 21
-34.8999999999999773
 31
0.0
  0
LINE
  5
F23
  8
0
  6
VERDECKT
 62
     1
 10
0.0000000000000161
 20
34.9000000000000128
 30
0.0
 11
-34.9970460736884235
 21
34.9000000000000199
 31
0.0
  0
LINE
  5
F24
  8
0
  6
VERDECKT
 62
     1
 10
-109.0200095328904979
 20
36.5000000000000213
 30
-0.0000000000000284
 11
-130.0000000000003126
 21
36.5000000000000284
 31
-0.0000000000000568
  0
LINE
  5
F25
  8
0
  6
VERDECKT
 62
     1
 10
-130.0000000000003126
 20
-36.4999999999999716
 30
-0.0000000000000568
 11
-109.0200095328904979
 21
-36.4999999999999787
 31
-0.0000000000000284
  0
ENDBLK
  5
F27
  8
0
  0
BLOCK
  8
0
  2
A$C06180C61
 70
     0
 10
0.0
 20
0.0
 30
0.0
  3
A$C06180C61
  1

  0
LINE
  5
F2B
  8
0
  6
CONTINUOUS
 62
     3
 10
-35.8000906917925477
 20
-0.0000000000000568
 30
0.0
 11
35.8000906917925477
 21
0.0000000000000568
 31
0.0
210
0.0
220
1.0
230
-0.0000000000000002
  0
LINE
  5
F2C
  8
0
  6
CONTINUOUS
 62
     3
 10
-169.7653973282752986
 20
390.0000000000001137
 30
-0.0000000000000866
 11
-90.2346026717247014
 21
390.0000000000001137
 31
-0.0000000000000866
210
0.0
220
1.0
230
-0.0000000000000002
  0
LINE
  5
F2D
  8
0
  6
CONTINUOUS
 62
     3
 10
36.4999999999997229
 20
73.5000000000007958
 30
-0.0000000000000163
 11
36.4999999999998295
 21
8.0000000000001013
 31
-0.0000000000000018
210
0.0
220
1.0
230
-0.0000000000000002
  0
LINE
  5
F2E
  8
0
  6
CONTINUOUS
 62
     3
 10
-36.5000000000000497
 20
73.4999999999988347
 30
-0.0000000000000163
 11
-36.4999999999999503
 21
8.0000000000000018
 31
-0.0000000000000018
210
0.0
220
1.0
230
-0.0000000000000002
  0
LINE
  5
F2F
  8
0
  6
CONTINUOUS
 62
     3
 10
-35.8000906917924908
 20
-0.0000000000000524
 30
0.0
 11
-36.4999999999998295
 21
8.0000000000000053
 31
-0.0000000000000018
210
0.0
220
1.0
230
-0.0000000000000002
  0
LINE
  5
F30
  8
0
  6
CONTINUOUS
 62
     3
 10
35.8000906917925121
 20
0.0000000000000551
 30
0.0
 11
36.4999999999998224
 21
8.0000000000001172
 31
-0.0000000000000018
210
0.0
220
1.0
230
-0.0000000000000002
  0
ARC
  5
F31
  8
0
  6
CONTINUOUS
 62
     3
 10
12.4999999999993392
 20
300.0000000000006253
 30
0.0
 40
154.0000000000009095
210
0.0
220
-0.0000000000000002
230
-1.0
 50
314.5999795913605794
 51
359.9999999999997158
  0
ARC
  5
F32
  8
0
  6
CONTINUOUS
 62
     3
 10
-12.49999999999946
 20
300.0000000000006253
 30
-0.0000000000000666
 40
81.0000000000008811
 50
180.0000000000003979
 51
225.4000204086381132
  0
LINE
  5
F33
  8
0
  6
CONTINUOUS
 62
     3
 10
-60.6256232507987107
 20
131.174129983814197
 30
-0.0000000000000291
 11
-120.6315311034262976
 21
190.3479504011496033
 31
-0.0000000000000423
210
0.0
220
1.0
230
-0.0000000000000002
  0
LINE
  5
F34
  8
0
  6
CONTINUOUS
 62
     3
 10
-9.3684688965783511
 20
183.1520495988548021
 30
-0.0000000000000407
 11
-69.3743767492060641
 21
242.3258700161904073
 31
-0.0000000000000538
210
0.0
220
1.0
230
-0.0000000000000002
  0
ARC
  5
F35
  8
0
  6
CONTINUOUS
 62
     3
 10
117.5000000000074039
 20
73.4999999999967031
 30
0.0
 40
154.0000000000073044
210
0.0
220
-0.0000000000000002
230
-1.0
 50
134.5999795913593005
 51
179.9999999999984084
  0
ARC
  5
F36
  8
0
  6
CONTINUOUS
 62
     3
 10
-117.5000000000074039
 20
73.4999999999966604
 30
-0.0000000000000163
 40
81.0000000000074323
 50
0.0000000000015521
 51
45.4000204086406285
  0
ARC
  5
F37
  8
0
  6
CONTINUOUS
 62
     3
 10
147.1000000000022965
 20
379.4510775928816884
 30
0.0
 40
24.9999999999977582
210
0.0
220
-0.0000000000000002
230
-1.0
 50
0.0
 51
24.9581963123177211
  0
ARC
  5
F38
  8
0
  6
CONTINUOUS
 62
     3
 10
112.8999999999983004
 20
379.4510775928816884
 30
0.0
 40
24.9999999999983515
210
0.0
220
-0.0000000000000002
230
-1.0
 50
155.041803687683398
 51
180.0000000000003979
  0
LINE
  5
F39
  8
0
  6
CONTINUOUS
 62
     3
 10
-87.8999999999999631
 20
379.4510775928814041
 30
-0.0000000000000843
 11
-87.8999999999999631
 21
374.6317199518027792
 31
-0.0000000000000832
210
0.0
220
1.0
230
-0.0000000000000002
  0
LINE
  5
F3A
  8
0
  6
CONTINUOUS
 62
     3
 10
-172.0999999999999943
 20
379.4510775928814041
 30
-0.0000000000000843
 11
-172.0999999999999943
 21
374.6317199518027792
 31
-0.0000000000000832
210
0.0
220
1.0
230
-0.0000000000000002
  0
ARC
  5
F3B
  8
0
  6
CONTINUOUS
 62
     3
 10
147.099999999908988
 20
374.7000000000170985
 30
0.0
 40
25.0000932432167993
210
0.0
220
-0.0000000000000002
230
-1.0
 50
338.8168456070051207
 51
359.8435140455952137
  0
ARC
  5
F3C
  8
0
  6
CONTINUOUS
 62
     3
 10
112.9000000000909978
 20
374.7000000000170985
 30
0.0
 40
25.0000932432168383
210
0.0
220
-0.0000000000000002
230
-1.0
 50
180.1564859544047863
 51
201.1831543929949078
  0
ARC
  5
F3D
  8
0
  6
CONTINUOUS
 62
     3
 10
181.600000000023897
 20
361.3300000000003251
 30
0.0
 40
12.0000000000222293
210
0.0
220
-0.0000000000000002
230
-1.0
 50
158.816845607003188
 51
179.9999999999965041
  0
ARC
  5
F3E
  8
0
  6
CONTINUOUS
 62
     3
 10
78.3999999999764583
 20
361.3300000000004957
 30
0.0
 40
12.0000000000218101
210
0.0
220
-0.0000000000000002
230
-1.0
 50
0.0000000000027226
 51
21.1831543929967197
  0
LINE
  5
F3F
  8
0
  6
CONTINUOUS
 62
     3
 10
-90.3999999999991957
 20
361.3300000000010073
 30
-0.0000000000000802
 11
-90.3999999999991957
 21
340.3887264174171037
 31
-0.0000000000000756
210
0.0
220
1.0
230
-0.0000000000000002
  0
LINE
  5
F40
  8
0
  6
CONTINUOUS
 62
     3
 10
-169.6000000000007901
 20
361.3300000000010073
 30
-0.0000000000000802
 11
-169.6000000000007901
 21
340.3887264174171037
 31
-0.0000000000000756
210
0.0
220
1.0
230
-0.0000000000000002
  0
ARC
  5
F41
  8
0
  6
CONTINUOUS
 62
     3
 10
157.5999999999959869
 20
340.3887264174180132
 30
0.0
 40
12.0000000000039009
210
0.0
220
-0.0000000000000002
230
-1.0
 50
327.6719358778429978
 51
359.9999999999956799
  0
ARC
  5
F42
  8
0
  6
CONTINUOUS
 62
     3
 10
102.4000000000038995
 20
340.3887264174178995
 30
0.0
 40
12.0000000000038796
210
0.0
220
-0.0000000000000002
230
-1.0
 50
180.0000000000040075
 51
212.3280641221570875
  0
ARC
  5
F43
  8
0
  6
CONTINUOUS
 62
     3
 10
174.5000000000017053
 20
329.6934003354311926
 30
0.0
 40
8.0000000000016218
210
0.0
220
-0.0000000000000002
230
-1.0
 50
147.6719358778439926
 51
179.9999999999978968
  0
ARC
  5
F44
  8
0
  6
CONTINUOUS
 62
     3
 10
85.4999999999982663
 20
329.6934003354311926
 30
0.0
 40
8.00000000000162
210
0.0
220
-0.0000000000000002
230
-1.0
 50
0.0000000000020356
 51
32.3280641221564693
  0
LINE
  5
F45
  8
0
  6
CONTINUOUS
 62
     3
 10
-93.4999999999999858
 20
329.6934003354314768
 30
-0.0000000000000732
 11
-93.4999999999999858
 21
300.0
 31
-0.0000000000000666
210
0.0
220
1.0
230
-0.0000000000000002
  0
LINE
  5
F46
  8
0
  6
CONTINUOUS
 62
     3
 10
-166.5
 20
329.6934003354314768
 30
-0.0000000000000732
 11
-166.5
 21
300.0
 31
-0.0000000000000666
210
0.0
220
1.0
230
-0.0000000000000002
  0
LINE
  5
F47
  8
0
  6
VERDECKT
 62
     1
 10
34.8999999999998209
 20
73.5000000000010374
 30
-0.0000000000000163
 11
34.8999999999999133
 21
8.0698575086526052
 31
-0.0000000000000018
210
0.0
220
1.0
230
-0.0000000000000002
  0
LINE
  5
F48
  8
0
  6
VERDECKT
 62
     1
 10
-34.8999999999999133
 20
73.4999999999990479
 30
-0.0000000000000163
 11
-34.8999999999998209
 21
8.0698575086524915
 31
-0.0000000000000018
210
0.0
220
1.0
230
-0.0000000000000002
  0
LINE
  5
F49
  8
0
  6
VERDECKT
 62
     1
 10
-34.1939789517230679
 20
-0.0000000000000622
 30
0.0
 11
-34.8999999999998067
 21
8.0698575086524862
 31
-0.0000000000000018
210
0.0
220
1.0
230
-0.0000000000000002
  0
LINE
  5
F4A
  8
0
  6
VERDECKT
 62
     1
 10
34.1939789517233024
 20
-0.0000000000000648
 30
0.0
 11
34.9000000000000199
 21
8.0698575086525892
 31
-0.0000000000000018
210
0.0
220
1.0
230
-0.0000000000000002
  0
ARC
  5
F4B
  8
0
  6
VERDECKT
 62
     1
 10
12.5000000000000497
 20
300.0000000000002842
 30
0.0
 40
152.4000000000002899
210
0.0
220
-0.0000000000000002
230
-1.0
 50
314.5999795913605794
 51
359.9999999999998863
  0
ARC
  5
F4C
  8
0
  6
VERDECKT
 62
     1
 10
-12.4999999999999698
 20
300.0000000000002842
 30
-0.0000000000000666
 40
82.6000000000004206
 50
180.0000000000001137
 51
225.4000204086383974
  0
LINE
  5
F4D
  8
0
  6
VERDECKT
 62
     1
 10
-59.5021787718021997
 20
132.3133720575683014
 30
-0.0000000000000294
 11
-119.5080866244300069
 21
191.487192474903793
 31
-0.0000000000000425
210
0.0
220
1.0
230
-0.0000000000000002
  0
LINE
  5
F4E
  8
0
  6
VERDECKT
 62
     1
 10
-10.4919133755749794
 20
182.0128075251002997
 30
-0.0000000000000404
 11
-70.4978212282027101
 21
241.1866279424355923
 31
-0.0000000000000536
210
0.0
220
1.0
230
-0.0000000000000002
  0
ARC
  5
F4F
  8
0
  6
VERDECKT
 62
     1
 10
117.500000000006807
 20
73.4999999999970584
 30
0.0
 40
152.4000000000067985
210
0.0
220
-0.0000000000000002
230
-1.0
 50
134.5999795913593005
 51
179.9999999999984936
  0
ARC
  5
F50
  8
0
  6
VERDECKT
 62
     1
 10
-117.5000000000069065
 20
73.4999999999969873
 30
-0.0000000000000163
 40
82.600000000006915
 50
0.0000000000014376
 51
45.4000204086407209
  0
LINE
  5
F51
  8
0
  6
VERDECKT
 62
     1
 10
-92.0
 20
390.0000000000001137
 30
-0.0000000000000866
 11
-91.6923977833416757
 21
389.340344917612299
 31
-0.0000000000000865
210
0.0
220
1.0
230
-0.0000000000000002
  0
LINE
  5
F52
  8
0
  6
VERDECKT
 62
     1
 10
-168.0
 20
390.0000000000001137
 30
-0.0000000000000866
 11
-168.3076022166582959
 21
389.340344917612299
 31
-0.0000000000000865
210
0.0
220
1.0
230
-0.0000000000000002
  0
ARC
  5
F53
  8
0
  6
VERDECKT
 62
     1
 10
147.099999999998488
 20
379.4510775928810062
 30
0.0
 40
23.4000000000014197
210
0.0
220
-0.0000000000000002
230
-1.0
 50
0.0000000000009796
 51
24.9999999999951612
  0
ARC
  5
F54
  8
0
  6
VERDECKT
 62
     1
 10
112.9000000000016968
 20
379.4510775928808926
 30
0.0
 40
23.4000000000017288
210
0.0
220
-0.0000000000000002
230
-1.0
 50
155.0000000000050022
 51
179.9999999999988916
  0
LINE
  5
F55
  8
0
  6
VERDECKT
 62
     1
 10
-89.5000000000000142
 20
379.4510775928814041
 30
-0.0000000000000843
 11
-89.5000000000000142
 21
374.6339410340793847
 31
-0.0000000000000832
210
0.0
220
1.0
230
-0.0000000000000002
  0
LINE
  5
F56
  8
0
  6
VERDECKT
 62
     1
 10
-170.5
 20
379.4510775928814041
 30
-0.0000000000000843
 11
-170.5
 21
374.6339410340793847
 31
-0.0000000000000832
210
0.0
220
1.0
230
-0.0000000000000002
  0
ARC
  5
F57
  8
0
  6
VERDECKT
 62
     1
 10
147.0999999999968963
 20
374.7000000000006139
 30
0.0
 40
23.4000932431288291
210
0.0
220
-0.0000000000000002
230
-1.0
 50
338.8168456069653871
 51
359.8382525687297857
  0
ARC
  5
F58
  8
0
  6
VERDECKT
 62
     1
 10
112.9000000000031037
 20
374.7000000000006139
 30
0.0
 40
23.4000932431288184
210
0.0
220
-0.0000000000000002
230
-1.0
 50
180.1617474312701006
 51
201.1831543930346129
  0
ARC
  5
F59
  8
0
  6
VERDECKT
 62
     1
 10
181.6000000000005059
 20
361.3299999999999272
 30
0.0
 40
13.6000000000005397
210
0.0
220
-0.0000000000000002
230
-1.0
 50
158.8168456069658134
 51
179.9999999999992042
  0
ARC
  5
F5A
  8
0
  6
VERDECKT
 62
     1
 10
78.3999999999990678
 20
361.3299999999999272
 30
0.0
 40
13.6000000000009305
210
0.0
220
-0.0000000000000002
230
-1.0
 50
0.0000000000009669
 51
21.1831543930336998
  0
LINE
  5
F5B
  8
0
  6
VERDECKT
 62
     1
 10
-92.0
 20
361.3300000000000978
 30
-0.0000000000000802
 11
-92.0
 21
340.38872641741699
 31
-0.0000000000000756
210
0.0
220
1.0
230
-0.0000000000000002
  0
LINE
  5
F5C
  8
0
  6
VERDECKT
 62
     1
 10
-168.0
 20
361.3300000000000978
 30
-0.0000000000000802
 11
-168.0
 21
340.3887264174171037
 31
-0.0000000000000756
210
0.0
220
1.0
230
-0.0000000000000002
  0
ARC
  5
F5D
  8
0
  6
VERDECKT
 62
     1
 10
157.6000000000026944
 20
340.3887264174161942
 30
0.0
 40
10.3999999999972506
210
0.0
220
-0.0000000000000002
230
-1.0
 50
327.6719358778350966
 51
0.0000000000046945
  0
ARC
  5
F5E
  8
0
  6
VERDECKT
 62
     1
 10
102.3999999999974051
 20
340.3887264174163079
 30
0.0
 40
10.3999999999974495
210
0.0
220
-0.0000000000000002
230
-1.0
 50
179.9999999999959073
 51
212.3280641221649034
  0
ARC
  5
F5F
  8
0
  6
VERDECKT
 62
     1
 10
174.4999999999996021
 20
329.6934003354315905
 30
0.0
 40
9.5999999999996408
210
0.0
220
-0.0000000000000002
230
-1.0
 50
147.6719358778352955
 51
180.0000000000005969
  0
ARC
  5
F60
  8
0
  6
VERDECKT
 62
     1
 10
85.50000000000054
 20
329.6934003354315905
 30
0.0
 40
9.5999999999994827
210
0.0
220
-0.0000000000000002
230
-1.0
 50
359.9999999999993179
 51
32.3280641221652303
  0
LINE
  5
F61
  8
0
  6
VERDECKT
 62
     1
 10
-95.1000000000000369
 20
329.6934003354314768
 30
-0.0000000000000732
 11
-95.1000000000000369
 21
300.0
 31
-0.0000000000000666
210
0.0
220
1.0
230
-0.0000000000000002
  0
LINE
  5
F62
  8
0
  6
VERDECKT
 62
     1
 10
-164.9000000000000057
 20
329.6934003354314768
 30
-0.0000000000000732
 11
-164.9000000000000057
 21
300.0
 31
-0.0000000000000666
210
0.0
220
1.0
230
-0.0000000000000002
  0
ENDBLK
  5
F64
  8
0
  0
ENDSEC
  0
SECTION
  2
ENTITIES
  0
TEXT
  5
8F
  8
VOLL
 10
78.076754716981128
 20
31.025947764705851
 30
0.0
 40
1.8
  1

  7
GREEKS
  0
TEXT
  5
B42
  8
VOLL
 10
820.5557371185616375
 20
498.9524625482416127
 30
0.0
 40
1.8
  1

  7
GREEKS
  0
INSERT
  5
F28
  8
DEFPOINTS
  2
A$C52D224BD
 10
0.0
 20
0.0000000000000104
 30
8.0000000000000568
  0
INSERT
  5
F65
  8
DEFPOINTS
  2
A$C06180C61
 10
-0.3950880996331827
 20
99.3131080955140533
 30
11.1482920212313505
  0
VIEWPORT
  5
C0D
 67
     1
  8
0
 10
3.4946736701674168
 20
4.0042151437615372
 30
0.0
 40
15.9358715920076097
 41
8.4646108389907813
 68
     1
 69
     1
1001
ACAD
1000
MVIEW
1002
{
1070
    16
1010
0.0
1020
0.0
1030
0.0
1010
0.0
1020
0.0
1030
1.0
1040
0.0
1040
8.4646108389907813
1040
3.4946736701674168
1040
4.0042151437615372
1040
50.0
1040
0.0
1040
0.0
1070
     0
1070
  1500
1070
     1
1070
     1
1070
     0
1070
     0
1070
     0
1070
     0
1040
0.0
1040
0.0
1040
0.0
1040
10.0
1040
10.0
1040
10.0
1040
10.0
1070
     0
1002
{
1002
}
1002
}
  0
ENDSEC
  0
EOF
