ISO-10303-21;
HEADER;
/* Generated by software containing ST-Developer
 * from STEP Tools, Inc. (www.steptools.com) 
 */

FILE_DESCRIPTION(
/* description */ (''),
/* implementation_level */ '2;1');

FILE_NAME(
/* name */ '5.710.080C_3D.stp',
/* time_stamp */ '2024-12-11T11:55:58+01:00',
/* author */ ('CAD'),
/* organization */ (''),
/* preprocessor_version */ 'ST-DEVELOPER v20',
/* originating_system */ 'AutoCAD Mechanical',
/* authorisation */ '');

FILE_SCHEMA (('AUTOMOTIVE_DESIGN { 1 0 10303 214 3 1 1 }'));
ENDSEC;

DATA;
#10=MECHANICAL_DESIGN_GEOMETRIC_PRESENTATION_REPRESENTATION('',(#14),#498);
#11=PRESENTATION_LAYER_ASSIGNMENT('4','ROHR',(#15));
#12=SHAPE_REPRESENTATION_RELATIONSHIP('SRR','None',#504,#13);
#13=ADVANCED_BREP_SHAPE_REPRESENTATION('',(#15),#497);
#14=STYLED_ITEM('',(#513),#15);
#15=MANIFOLD_SOLID_BREP('ACA',#270);
#16=FACE_BOUND('',#72,.T.);
#17=FACE_BOUND('',#81,.T.);
#18=PLANE('',#289);
#19=PLANE('',#311);
#20=CYLINDRICAL_SURFACE('',#285,40.3000000000001);
#21=CYLINDRICAL_SURFACE('',#293,41.5000000000001);
#22=CYLINDRICAL_SURFACE('',#307,44.4499999999998);
#23=CYLINDRICAL_SURFACE('',#315,43.2499999999998);
#24=LINE('',#429,#34);
#25=LINE('',#441,#35);
#26=LINE('',#445,#36);
#27=LINE('',#453,#37);
#28=LINE('',#458,#38);
#29=LINE('',#470,#39);
#30=LINE('',#481,#40);
#31=LINE('',#485,#41);
#32=LINE('',#491,#42);
#33=LINE('',#494,#43);
#34=VECTOR('',#332,41.8096955136401);
#35=VECTOR('',#347,40.3000000000001);
#36=VECTOR('',#352,40.078986438659);
#37=VECTOR('',#363,41.281278341185);
#38=VECTOR('',#368,41.5000000000001);
#39=VECTOR('',#383,42.975);
#40=VECTOR('',#398,44.4499999999998);
#41=VECTOR('',#403,44.2312783411851);
#42=VECTOR('',#410,43.0289864386591);
#43=VECTOR('',#415,43.2499999999998);
#44=CONICAL_SURFACE('',#278,41.8096955136401,0.241053266213216);
#45=CONICAL_SURFACE('',#287,40.0789864386589,0.08726646259977);
#46=CONICAL_SURFACE('',#291,41.281278341185,0.0872664625997205);
#47=CONICAL_SURFACE('',#300,42.975,0.241053266213208);
#48=CONICAL_SURFACE('',#309,44.2312783411851,0.0872664625997063);
#49=CONICAL_SURFACE('',#313,43.0289864386591,0.0872664625996998);
#50=FACE_OUTER_BOUND('',#66,.T.);
#51=FACE_OUTER_BOUND('',#67,.T.);
#52=FACE_OUTER_BOUND('',#68,.T.);
#53=FACE_OUTER_BOUND('',#69,.T.);
#54=FACE_OUTER_BOUND('',#70,.T.);
#55=FACE_OUTER_BOUND('',#71,.T.);
#56=FACE_OUTER_BOUND('',#73,.T.);
#57=FACE_OUTER_BOUND('',#74,.T.);
#58=FACE_OUTER_BOUND('',#75,.T.);
#59=FACE_OUTER_BOUND('',#76,.T.);
#60=FACE_OUTER_BOUND('',#77,.T.);
#61=FACE_OUTER_BOUND('',#78,.T.);
#62=FACE_OUTER_BOUND('',#79,.T.);
#63=FACE_OUTER_BOUND('',#80,.T.);
#64=FACE_OUTER_BOUND('',#82,.T.);
#65=FACE_OUTER_BOUND('',#83,.T.);
#66=EDGE_LOOP('',(#174,#175,#176,#177,#178,#179));
#67=EDGE_LOOP('',(#180,#181,#182,#183,#184,#185));
#68=EDGE_LOOP('',(#186,#187,#188,#189,#190,#191));
#69=EDGE_LOOP('',(#192,#193,#194,#195,#196));
#70=EDGE_LOOP('',(#197,#198,#199,#200));
#71=EDGE_LOOP('',(#201));
#72=EDGE_LOOP('',(#202));
#73=EDGE_LOOP('',(#203,#204,#205,#206));
#74=EDGE_LOOP('',(#207,#208,#209,#210,#211));
#75=EDGE_LOOP('',(#212,#213,#214,#215,#216,#217));
#76=EDGE_LOOP('',(#218,#219,#220,#221,#222,#223));
#77=EDGE_LOOP('',(#224,#225,#226,#227,#228,#229));
#78=EDGE_LOOP('',(#230,#231,#232,#233,#234));
#79=EDGE_LOOP('',(#235,#236,#237,#238));
#80=EDGE_LOOP('',(#239));
#81=EDGE_LOOP('',(#240));
#82=EDGE_LOOP('',(#241,#242,#243,#244));
#83=EDGE_LOOP('',(#245,#246,#247,#248,#249));
#84=CIRCLE('',#273,43.2499999999998);
#85=CIRCLE('',#274,6.79999999999336);
#86=CIRCLE('',#275,43.0533920893736);
#87=CIRCLE('',#276,43.0533920893736);
#88=CIRCLE('',#277,43.2499999999998);
#89=CIRCLE('',#279,40.5659989379066);
#90=CIRCLE('',#280,40.5659989379066);
#91=CIRCLE('',#282,40.3000000000001);
#92=CIRCLE('',#283,40.3000000000001);
#93=CIRCLE('',#284,9.19999999999425);
#94=CIRCLE('',#286,40.2999999999999);
#95=CIRCLE('',#288,39.8579728773182);
#96=CIRCLE('',#290,41.0625566823702);
#97=CIRCLE('',#292,41.4999999999999);
#98=CIRCLE('',#294,41.5000000000002);
#99=CIRCLE('',#295,41.5000000000002);
#100=CIRCLE('',#297,8.00000000000739);
#101=CIRCLE('',#298,41.7313034242665);
#102=CIRCLE('',#299,41.7313034242665);
#103=CIRCLE('',#301,44.2186965757335);
#104=CIRCLE('',#302,44.2186965757335);
#105=CIRCLE('',#304,44.4499999999998);
#106=CIRCLE('',#305,44.4499999999998);
#107=CIRCLE('',#306,7.99999999999284);
#108=CIRCLE('',#308,44.4499999999998);
#109=CIRCLE('',#310,44.0125566823703);
#110=CIRCLE('',#312,42.8079728773184);
#111=CIRCLE('',#314,43.2499999999998);
#112=VERTEX_POINT('',#418);
#113=VERTEX_POINT('',#419);
#114=VERTEX_POINT('',#421);
#115=VERTEX_POINT('',#423);
#116=VERTEX_POINT('',#428);
#117=VERTEX_POINT('',#430);
#118=VERTEX_POINT('',#434);
#119=VERTEX_POINT('',#435);
#120=VERTEX_POINT('',#440);
#121=VERTEX_POINT('',#444);
#122=VERTEX_POINT('',#448);
#123=VERTEX_POINT('',#451);
#124=VERTEX_POINT('',#455);
#125=VERTEX_POINT('',#456);
#126=VERTEX_POINT('',#461);
#127=VERTEX_POINT('',#463);
#128=VERTEX_POINT('',#467);
#129=VERTEX_POINT('',#468);
#130=VERTEX_POINT('',#473);
#131=VERTEX_POINT('',#474);
#132=VERTEX_POINT('',#479);
#133=VERTEX_POINT('',#483);
#134=VERTEX_POINT('',#487);
#135=VERTEX_POINT('',#490);
#136=EDGE_CURVE('',#112,#113,#84,.T.);
#137=EDGE_CURVE('',#113,#114,#85,.T.);
#138=EDGE_CURVE('',#115,#114,#86,.T.);
#139=EDGE_CURVE('',#114,#115,#87,.T.);
#140=EDGE_CURVE('',#113,#112,#88,.T.);
#141=EDGE_CURVE('',#115,#116,#24,.T.);
#142=EDGE_CURVE('',#117,#116,#89,.T.);
#143=EDGE_CURVE('',#116,#117,#90,.T.);
#144=EDGE_CURVE('',#118,#119,#91,.T.);
#145=EDGE_CURVE('',#119,#118,#92,.T.);
#146=EDGE_CURVE('',#119,#117,#93,.T.);
#147=EDGE_CURVE('',#118,#120,#25,.T.);
#148=EDGE_CURVE('',#120,#120,#94,.T.);
#149=EDGE_CURVE('',#120,#121,#26,.T.);
#150=EDGE_CURVE('',#121,#121,#95,.T.);
#151=EDGE_CURVE('',#122,#122,#96,.T.);
#152=EDGE_CURVE('',#123,#123,#97,.T.);
#153=EDGE_CURVE('',#123,#122,#27,.T.);
#154=EDGE_CURVE('',#124,#125,#98,.T.);
#155=EDGE_CURVE('',#124,#123,#28,.T.);
#156=EDGE_CURVE('',#125,#124,#99,.T.);
#157=EDGE_CURVE('',#125,#126,#100,.T.);
#158=EDGE_CURVE('',#127,#126,#101,.T.);
#159=EDGE_CURVE('',#126,#127,#102,.T.);
#160=EDGE_CURVE('',#128,#129,#103,.T.);
#161=EDGE_CURVE('',#128,#127,#29,.T.);
#162=EDGE_CURVE('',#129,#128,#104,.T.);
#163=EDGE_CURVE('',#130,#131,#105,.T.);
#164=EDGE_CURVE('',#131,#130,#106,.T.);
#165=EDGE_CURVE('',#131,#129,#107,.T.);
#166=EDGE_CURVE('',#132,#132,#108,.T.);
#167=EDGE_CURVE('',#132,#130,#30,.T.);
#168=EDGE_CURVE('',#133,#133,#109,.T.);
#169=EDGE_CURVE('',#133,#132,#31,.T.);
#170=EDGE_CURVE('',#134,#134,#110,.T.);
#171=EDGE_CURVE('',#134,#135,#32,.T.);
#172=EDGE_CURVE('',#135,#135,#111,.T.);
#173=EDGE_CURVE('',#135,#112,#33,.T.);
#174=ORIENTED_EDGE('',*,*,#136,.T.);
#175=ORIENTED_EDGE('',*,*,#137,.T.);
#176=ORIENTED_EDGE('',*,*,#138,.F.);
#177=ORIENTED_EDGE('',*,*,#139,.F.);
#178=ORIENTED_EDGE('',*,*,#137,.F.);
#179=ORIENTED_EDGE('',*,*,#140,.T.);
#180=ORIENTED_EDGE('',*,*,#138,.T.);
#181=ORIENTED_EDGE('',*,*,#139,.T.);
#182=ORIENTED_EDGE('',*,*,#141,.T.);
#183=ORIENTED_EDGE('',*,*,#142,.F.);
#184=ORIENTED_EDGE('',*,*,#143,.F.);
#185=ORIENTED_EDGE('',*,*,#141,.F.);
#186=ORIENTED_EDGE('',*,*,#144,.F.);
#187=ORIENTED_EDGE('',*,*,#145,.F.);
#188=ORIENTED_EDGE('',*,*,#146,.T.);
#189=ORIENTED_EDGE('',*,*,#142,.T.);
#190=ORIENTED_EDGE('',*,*,#143,.T.);
#191=ORIENTED_EDGE('',*,*,#146,.F.);
#192=ORIENTED_EDGE('',*,*,#144,.T.);
#193=ORIENTED_EDGE('',*,*,#145,.T.);
#194=ORIENTED_EDGE('',*,*,#147,.T.);
#195=ORIENTED_EDGE('',*,*,#148,.F.);
#196=ORIENTED_EDGE('',*,*,#147,.F.);
#197=ORIENTED_EDGE('',*,*,#148,.T.);
#198=ORIENTED_EDGE('',*,*,#149,.T.);
#199=ORIENTED_EDGE('',*,*,#150,.F.);
#200=ORIENTED_EDGE('',*,*,#149,.F.);
#201=ORIENTED_EDGE('',*,*,#151,.F.);
#202=ORIENTED_EDGE('',*,*,#150,.T.);
#203=ORIENTED_EDGE('',*,*,#152,.F.);
#204=ORIENTED_EDGE('',*,*,#153,.T.);
#205=ORIENTED_EDGE('',*,*,#151,.T.);
#206=ORIENTED_EDGE('',*,*,#153,.F.);
#207=ORIENTED_EDGE('',*,*,#154,.F.);
#208=ORIENTED_EDGE('',*,*,#155,.T.);
#209=ORIENTED_EDGE('',*,*,#152,.T.);
#210=ORIENTED_EDGE('',*,*,#155,.F.);
#211=ORIENTED_EDGE('',*,*,#156,.F.);
#212=ORIENTED_EDGE('',*,*,#154,.T.);
#213=ORIENTED_EDGE('',*,*,#157,.T.);
#214=ORIENTED_EDGE('',*,*,#158,.F.);
#215=ORIENTED_EDGE('',*,*,#159,.F.);
#216=ORIENTED_EDGE('',*,*,#157,.F.);
#217=ORIENTED_EDGE('',*,*,#156,.T.);
#218=ORIENTED_EDGE('',*,*,#160,.F.);
#219=ORIENTED_EDGE('',*,*,#161,.T.);
#220=ORIENTED_EDGE('',*,*,#158,.T.);
#221=ORIENTED_EDGE('',*,*,#159,.T.);
#222=ORIENTED_EDGE('',*,*,#161,.F.);
#223=ORIENTED_EDGE('',*,*,#162,.F.);
#224=ORIENTED_EDGE('',*,*,#163,.F.);
#225=ORIENTED_EDGE('',*,*,#164,.F.);
#226=ORIENTED_EDGE('',*,*,#165,.T.);
#227=ORIENTED_EDGE('',*,*,#162,.T.);
#228=ORIENTED_EDGE('',*,*,#160,.T.);
#229=ORIENTED_EDGE('',*,*,#165,.F.);
#230=ORIENTED_EDGE('',*,*,#166,.F.);
#231=ORIENTED_EDGE('',*,*,#167,.T.);
#232=ORIENTED_EDGE('',*,*,#163,.T.);
#233=ORIENTED_EDGE('',*,*,#164,.T.);
#234=ORIENTED_EDGE('',*,*,#167,.F.);
#235=ORIENTED_EDGE('',*,*,#168,.F.);
#236=ORIENTED_EDGE('',*,*,#169,.T.);
#237=ORIENTED_EDGE('',*,*,#166,.T.);
#238=ORIENTED_EDGE('',*,*,#169,.F.);
#239=ORIENTED_EDGE('',*,*,#168,.T.);
#240=ORIENTED_EDGE('',*,*,#170,.F.);
#241=ORIENTED_EDGE('',*,*,#170,.T.);
#242=ORIENTED_EDGE('',*,*,#171,.T.);
#243=ORIENTED_EDGE('',*,*,#172,.F.);
#244=ORIENTED_EDGE('',*,*,#171,.F.);
#245=ORIENTED_EDGE('',*,*,#172,.T.);
#246=ORIENTED_EDGE('',*,*,#173,.T.);
#247=ORIENTED_EDGE('',*,*,#140,.F.);
#248=ORIENTED_EDGE('',*,*,#136,.F.);
#249=ORIENTED_EDGE('',*,*,#173,.F.);
#250=TOROIDAL_SURFACE('',#272,36.4500000000064,6.79999999999336);
#251=TOROIDAL_SURFACE('',#281,49.4999999999944,9.19999999999425);
#252=TOROIDAL_SURFACE('',#296,49.5000000000076,8.00000000000739);
#253=TOROIDAL_SURFACE('',#303,36.450000000007,7.99999999999284);
#254=ADVANCED_FACE('',(#50),#250,.F.);
#255=ADVANCED_FACE('',(#51),#44,.F.);
#256=ADVANCED_FACE('',(#52),#251,.T.);
#257=ADVANCED_FACE('',(#53),#20,.F.);
#258=ADVANCED_FACE('',(#54),#45,.F.);
#259=ADVANCED_FACE('',(#55,#16),#18,.T.);
#260=ADVANCED_FACE('',(#56),#46,.T.);
#261=ADVANCED_FACE('',(#57),#21,.T.);
#262=ADVANCED_FACE('',(#58),#252,.F.);
#263=ADVANCED_FACE('',(#59),#47,.T.);
#264=ADVANCED_FACE('',(#60),#253,.T.);
#265=ADVANCED_FACE('',(#61),#22,.T.);
#266=ADVANCED_FACE('',(#62),#48,.T.);
#267=ADVANCED_FACE('',(#63,#17),#19,.T.);
#268=ADVANCED_FACE('',(#64),#49,.F.);
#269=ADVANCED_FACE('',(#65),#23,.F.);
#270=CLOSED_SHELL('',(#254,#255,#256,#257,#258,#259,#260,#261,#262,#263,
#264,#265,#266,#267,#268,#269));
#271=AXIS2_PLACEMENT_3D('',#416,#316,#317);
#272=AXIS2_PLACEMENT_3D('',#417,#318,#319);
#273=AXIS2_PLACEMENT_3D('',#420,#320,#321);
#274=AXIS2_PLACEMENT_3D('',#422,#322,#323);
#275=AXIS2_PLACEMENT_3D('',#424,#324,#325);
#276=AXIS2_PLACEMENT_3D('',#425,#326,#327);
#277=AXIS2_PLACEMENT_3D('',#426,#328,#329);
#278=AXIS2_PLACEMENT_3D('',#427,#330,#331);
#279=AXIS2_PLACEMENT_3D('',#431,#333,#334);
#280=AXIS2_PLACEMENT_3D('',#432,#335,#336);
#281=AXIS2_PLACEMENT_3D('',#433,#337,#338);
#282=AXIS2_PLACEMENT_3D('',#436,#339,#340);
#283=AXIS2_PLACEMENT_3D('',#437,#341,#342);
#284=AXIS2_PLACEMENT_3D('',#438,#343,#344);
#285=AXIS2_PLACEMENT_3D('',#439,#345,#346);
#286=AXIS2_PLACEMENT_3D('',#442,#348,#349);
#287=AXIS2_PLACEMENT_3D('',#443,#350,#351);
#288=AXIS2_PLACEMENT_3D('',#446,#353,#354);
#289=AXIS2_PLACEMENT_3D('',#447,#355,#356);
#290=AXIS2_PLACEMENT_3D('',#449,#357,#358);
#291=AXIS2_PLACEMENT_3D('',#450,#359,#360);
#292=AXIS2_PLACEMENT_3D('',#452,#361,#362);
#293=AXIS2_PLACEMENT_3D('',#454,#364,#365);
#294=AXIS2_PLACEMENT_3D('',#457,#366,#367);
#295=AXIS2_PLACEMENT_3D('',#459,#369,#370);
#296=AXIS2_PLACEMENT_3D('',#460,#371,#372);
#297=AXIS2_PLACEMENT_3D('',#462,#373,#374);
#298=AXIS2_PLACEMENT_3D('',#464,#375,#376);
#299=AXIS2_PLACEMENT_3D('',#465,#377,#378);
#300=AXIS2_PLACEMENT_3D('',#466,#379,#380);
#301=AXIS2_PLACEMENT_3D('',#469,#381,#382);
#302=AXIS2_PLACEMENT_3D('',#471,#384,#385);
#303=AXIS2_PLACEMENT_3D('',#472,#386,#387);
#304=AXIS2_PLACEMENT_3D('',#475,#388,#389);
#305=AXIS2_PLACEMENT_3D('',#476,#390,#391);
#306=AXIS2_PLACEMENT_3D('',#477,#392,#393);
#307=AXIS2_PLACEMENT_3D('',#478,#394,#395);
#308=AXIS2_PLACEMENT_3D('',#480,#396,#397);
#309=AXIS2_PLACEMENT_3D('',#482,#399,#400);
#310=AXIS2_PLACEMENT_3D('',#484,#401,#402);
#311=AXIS2_PLACEMENT_3D('',#486,#404,#405);
#312=AXIS2_PLACEMENT_3D('',#488,#406,#407);
#313=AXIS2_PLACEMENT_3D('',#489,#408,#409);
#314=AXIS2_PLACEMENT_3D('',#492,#411,#412);
#315=AXIS2_PLACEMENT_3D('',#493,#413,#414);
#316=DIRECTION('axis',(0.,0.,1.));
#317=DIRECTION('refdir',(1.,0.,0.));
#318=DIRECTION('center_axis',(-7.840471567008E-16,-6.12323399573677E-17,
-1.));
#319=DIRECTION('ref_axis',(0.,1.,0.));
#320=DIRECTION('center_axis',(-7.840471567008E-16,-6.12323399573677E-17,
-1.));
#321=DIRECTION('ref_axis',(1.,-4.80090420417109E-32,-7.840471567008E-16));
#322=DIRECTION('center_axis',(-1.,4.80090420417109E-32,7.840471567008E-16));
#323=DIRECTION('ref_axis',(0.,-1.,6.12323399573677E-17));
#324=DIRECTION('center_axis',(-7.840471567008E-16,-6.12323399573677E-17,
-1.));
#325=DIRECTION('ref_axis',(1.,-4.80090420417109E-32,-7.840471567008E-16));
#326=DIRECTION('center_axis',(-7.840471567008E-16,-6.12323399573677E-17,
-1.));
#327=DIRECTION('ref_axis',(1.,-4.80090420417109E-32,-7.840471567008E-16));
#328=DIRECTION('center_axis',(-7.840471567008E-16,-6.12323399573677E-17,
-1.));
#329=DIRECTION('ref_axis',(1.,-4.80090420417109E-32,-7.840471567008E-16));
#330=DIRECTION('center_axis',(-7.840471567008E-16,-6.12323399573677E-17,
-1.));
#331=DIRECTION('ref_axis',(1.,-5.02984905783823E-32,-8.21436688740004E-16));
#332=DIRECTION('',(0.238725571858463,3.02264829737607E-17,0.971087071966695));
#333=DIRECTION('center_axis',(-7.840471567008E-16,-6.12323399573677E-17,
-1.));
#334=DIRECTION('ref_axis',(1.,-4.80090420417109E-32,-7.840471567008E-16));
#335=DIRECTION('center_axis',(-7.840471567008E-16,-6.12323399573677E-17,
-1.));
#336=DIRECTION('ref_axis',(1.,-4.80090420417109E-32,-7.840471567008E-16));
#337=DIRECTION('center_axis',(-7.840471567008E-16,-6.12323399573677E-17,
-1.));
#338=DIRECTION('ref_axis',(0.,1.,0.));
#339=DIRECTION('center_axis',(-7.840471567008E-16,-6.12323399573677E-17,
-1.));
#340=DIRECTION('ref_axis',(1.,-4.80090420417109E-32,-7.840471567008E-16));
#341=DIRECTION('center_axis',(-7.840471567008E-16,-6.12323399573677E-17,
-1.));
#342=DIRECTION('ref_axis',(1.,-4.80090420417109E-32,-7.840471567008E-16));
#343=DIRECTION('center_axis',(-1.,4.80090420417109E-32,7.840471567008E-16));
#344=DIRECTION('ref_axis',(0.,-1.,6.12323399573677E-17));
#345=DIRECTION('center_axis',(-7.840471567008E-16,-6.12323399573677E-17,
-1.));
#346=DIRECTION('ref_axis',(1.,-5.02984905783823E-32,-8.21436688740004E-16));
#347=DIRECTION('',(7.840471567008E-16,6.12323399573677E-17,1.));
#348=DIRECTION('center_axis',(-7.840471567008E-16,-6.12323399573677E-17,
-1.));
#349=DIRECTION('ref_axis',(1.,-4.80090420417109E-32,-7.840471567008E-16));
#350=DIRECTION('center_axis',(-7.840471567008E-16,-6.12323399573677E-17,
-1.));
#351=DIRECTION('ref_axis',(1.,-5.02984905783823E-32,-8.21436688740004E-16));
#352=DIRECTION('',(0.0871557427477122,5.03258322789512E-17,0.996194698091741));
#353=DIRECTION('center_axis',(-7.840471567008E-16,-6.12323399573677E-17,
-1.));
#354=DIRECTION('ref_axis',(1.,-4.80090420417109E-32,-7.840471567008E-16));
#355=DIRECTION('center_axis',(7.840471567008E-16,6.12323399573677E-17,1.));
#356=DIRECTION('ref_axis',(0.,-1.,6.12323399573677E-17));
#357=DIRECTION('center_axis',(-7.840471567008E-16,-6.12323399573677E-17,
-1.));
#358=DIRECTION('ref_axis',(1.,-4.80090420417109E-32,-7.840471567008E-16));
#359=DIRECTION('center_axis',(-7.840471567008E-16,-6.12323399573677E-17,
-1.));
#360=DIRECTION('ref_axis',(1.,-5.02984905783823E-32,-8.21436688740004E-16));
#361=DIRECTION('center_axis',(-7.840471567008E-16,-6.12323399573677E-17,
-1.));
#362=DIRECTION('ref_axis',(1.,-4.80090420417109E-32,-7.840471567008E-16));
#363=DIRECTION('',(0.087155742747663,5.03258322789575E-17,0.996194698091745));
#364=DIRECTION('center_axis',(-7.840471567008E-16,-6.12323399573677E-17,
-1.));
#365=DIRECTION('ref_axis',(1.,-5.02984905783823E-32,-8.21436688740004E-16));
#366=DIRECTION('center_axis',(-7.840471567008E-16,-6.12323399573677E-17,
-1.));
#367=DIRECTION('ref_axis',(1.,-4.80090420417109E-32,-7.840471567008E-16));
#368=DIRECTION('',(7.840471567008E-16,6.12323399573677E-17,1.));
#369=DIRECTION('center_axis',(-7.840471567008E-16,-6.12323399573677E-17,
-1.));
#370=DIRECTION('ref_axis',(1.,-4.80090420417109E-32,-7.840471567008E-16));
#371=DIRECTION('center_axis',(-7.840471567008E-16,-6.12323399573677E-17,
-1.));
#372=DIRECTION('ref_axis',(0.,1.,0.));
#373=DIRECTION('center_axis',(-1.,4.80090420417109E-32,7.840471567008E-16));
#374=DIRECTION('ref_axis',(0.,-1.,6.12323399573677E-17));
#375=DIRECTION('center_axis',(-7.840471567008E-16,-6.12323399573677E-17,
-1.));
#376=DIRECTION('ref_axis',(1.,-4.80090420417109E-32,-7.840471567008E-16));
#377=DIRECTION('center_axis',(-7.840471567008E-16,-6.12323399573677E-17,
-1.));
#378=DIRECTION('ref_axis',(1.,-4.80090420417109E-32,-7.840471567008E-16));
#379=DIRECTION('center_axis',(-7.840471567008E-16,-6.12323399573677E-17,
-1.));
#380=DIRECTION('ref_axis',(1.,-5.02984905783823E-32,-8.21436688740004E-16));
#381=DIRECTION('center_axis',(-7.840471567008E-16,-6.12323399573677E-17,
-1.));
#382=DIRECTION('ref_axis',(1.,-4.80090420417109E-32,-7.840471567008E-16));
#383=DIRECTION('',(0.238725571858456,3.02264829737617E-17,0.971087071966697));
#384=DIRECTION('center_axis',(-7.840471567008E-16,-6.12323399573677E-17,
-1.));
#385=DIRECTION('ref_axis',(1.,-4.80090420417109E-32,-7.840471567008E-16));
#386=DIRECTION('center_axis',(-7.840471567008E-16,-6.12323399573677E-17,
-1.));
#387=DIRECTION('ref_axis',(0.,1.,0.));
#388=DIRECTION('center_axis',(-7.840471567008E-16,-6.12323399573677E-17,
-1.));
#389=DIRECTION('ref_axis',(1.,-4.80090420417109E-32,-7.840471567008E-16));
#390=DIRECTION('center_axis',(-7.840471567008E-16,-6.12323399573677E-17,
-1.));
#391=DIRECTION('ref_axis',(1.,-4.80090420417109E-32,-7.840471567008E-16));
#392=DIRECTION('center_axis',(-1.,4.80090420417109E-32,7.840471567008E-16));
#393=DIRECTION('ref_axis',(0.,-1.,6.12323399573677E-17));
#394=DIRECTION('center_axis',(-7.840471567008E-16,-6.12323399573677E-17,
-1.));
#395=DIRECTION('ref_axis',(1.,-5.02984905783823E-32,-8.21436688740004E-16));
#396=DIRECTION('center_axis',(-7.840471567008E-16,-6.12323399573677E-17,
-1.));
#397=DIRECTION('ref_axis',(1.,-4.80090420417109E-32,-7.840471567008E-16));
#398=DIRECTION('',(7.840471567008E-16,6.12323399573677E-17,1.));
#399=DIRECTION('center_axis',(7.840471567008E-16,6.12323399573677E-17,1.));
#400=DIRECTION('ref_axis',(1.,-5.02984905783823E-32,-8.21436688740004E-16));
#401=DIRECTION('center_axis',(-7.840471567008E-16,-6.12323399573677E-17,
-1.));
#402=DIRECTION('ref_axis',(1.,-4.80090420417109E-32,-7.840471567008E-16));
#403=DIRECTION('',(-0.0871557427476472,7.16728325556028E-17,0.996194698091747));
#404=DIRECTION('center_axis',(-7.840471567008E-16,-6.12323399573677E-17,
-1.));
#405=DIRECTION('ref_axis',(0.,1.,-6.12323399573677E-17));
#406=DIRECTION('center_axis',(-7.840471567008E-16,-6.12323399573677E-17,
-1.));
#407=DIRECTION('ref_axis',(1.,-4.80090420417109E-32,-7.840471567008E-16));
#408=DIRECTION('center_axis',(7.840471567008E-16,6.12323399573677E-17,1.));
#409=DIRECTION('ref_axis',(1.,-5.02984905783823E-32,-8.21436688740004E-16));
#410=DIRECTION('',(-0.0871557427476408,7.1672832555602E-17,0.996194698091747));
#411=DIRECTION('center_axis',(-7.840471567008E-16,-6.12323399573677E-17,
-1.));
#412=DIRECTION('ref_axis',(1.,-4.80090420417109E-32,-7.840471567008E-16));
#413=DIRECTION('center_axis',(-7.840471567008E-16,-6.12323399573677E-17,
-1.));
#414=DIRECTION('ref_axis',(1.,-5.02984905783823E-32,-8.21436688740004E-16));
#415=DIRECTION('',(7.840471567008E-16,6.12323399573677E-17,1.));
#416=CARTESIAN_POINT('',(0.,0.,0.));
#417=CARTESIAN_POINT('Origin',(0.,1.2226962891677E-14,69.031090710286));
#418=CARTESIAN_POINT('',(-43.2499999999998,1.75235602979892E-14,69.0310907102841));
#419=CARTESIAN_POINT('',(0.,-43.2499999999997,69.031090710284));
#420=CARTESIAN_POINT('Origin',(0.,1.22269628916769E-14,69.031090710284));
#421=CARTESIAN_POINT('',(0.,-43.0533920893735,70.6544245989217));
#422=CARTESIAN_POINT('Origin',(0.,-36.4500000000064,69.031090710286));
#423=CARTESIAN_POINT('',(-43.0533920893736,1.7598883305679E-14,70.6544245989217));
#424=CARTESIAN_POINT('Origin',(0.,1.23263634242103E-14,70.6544245989217));
#425=CARTESIAN_POINT('Origin',(0.,1.23263634242103E-14,70.6544245989217));
#426=CARTESIAN_POINT('Origin',(0.,1.22269628916769E-14,69.031090710284));
#427=CARTESIAN_POINT('Origin',(0.,1.26361442439898E-14,75.71352931377));
#428=CARTESIAN_POINT('',(-40.5659989379067,1.79138271391216E-14,80.7726340286183));
#429=CARTESIAN_POINT('',(-41.8096955136401,1.77563552224003E-14,75.71352931377));
#430=CARTESIAN_POINT('',(0.,-40.5659989379066,80.7726340286183));
#431=CARTESIAN_POINT('Origin',(0.,1.29459250637693E-14,80.7726340286183));
#432=CARTESIAN_POINT('Origin',(0.,1.29459250637693E-14,80.7726340286183));
#433=CARTESIAN_POINT('Origin',(0.,1.30804081371968E-14,82.9689092897158));
#434=CARTESIAN_POINT('',(-40.3000000000001,1.80157347377607E-14,82.9689092897161));
#435=CARTESIAN_POINT('',(0.,-40.3000000000001,82.968909289716));
#436=CARTESIAN_POINT('Origin',(0.,1.30804081371968E-14,82.968909289716));
#437=CARTESIAN_POINT('Origin',(0.,1.30804081371968E-14,82.968909289716));
#438=CARTESIAN_POINT('Origin',(0.,-49.4999999999944,82.9689092897158));
#439=CARTESIAN_POINT('Origin',(0.,1.45187159276464E-14,106.458258079114));
#440=CARTESIAN_POINT('',(-40.3000000000001,2.08923503186599E-14,129.947606868512));
#441=CARTESIAN_POINT('',(-40.3000000000001,1.94540425282103E-14,106.458258079114));
#442=CARTESIAN_POINT('Origin',(1.13686837721616E-13,1.5957023718096E-14,
129.947606868512));
#443=CARTESIAN_POINT('Origin',(1.13686837721616E-13,1.61117086450088E-14,
132.473803434256));
#444=CARTESIAN_POINT('',(-39.8579728773179,2.11475874623925E-14,135.));
#445=CARTESIAN_POINT('',(-40.0789864386588,2.10199688905262E-14,132.473803434256));
#446=CARTESIAN_POINT('Origin',(1.13686837721616E-13,1.62663935719216E-14,
135.));
#447=CARTESIAN_POINT('Origin',(41.0625566823703,1.62663935719216E-14,135.));
#448=CARTESIAN_POINT('',(-41.0625566823701,2.12951064325087E-14,135.));
#449=CARTESIAN_POINT('Origin',(1.13686837721616E-13,1.62663935719216E-14,
135.));
#450=CARTESIAN_POINT('Origin',(1.13686837721616E-13,1.61133127220281E-14,
132.5));
#451=CARTESIAN_POINT('',(-41.4999999999998,2.10425160885962E-14,129.999999999999));
#452=CARTESIAN_POINT('Origin',(1.13686837721616E-13,1.59602318721347E-14,
129.999999999999));
#453=CARTESIAN_POINT('',(-41.2812783411849,2.11688112605525E-14,132.5));
#454=CARTESIAN_POINT('Origin',(0.,1.45203200046658E-14,106.484454644858));
#455=CARTESIAN_POINT('',(-41.5000000000001,1.81626923536584E-14,82.9689092897161));
#456=CARTESIAN_POINT('',(0.,-41.5000000000002,82.9689092897161));
#457=CARTESIAN_POINT('Origin',(0.,1.30804081371968E-14,82.9689092897161));
#458=CARTESIAN_POINT('',(-41.5000000000001,1.96026042211273E-14,106.484454644858));
#459=CARTESIAN_POINT('Origin',(0.,1.30804081371968E-14,82.9689092897161));
#460=CARTESIAN_POINT('Origin',(0.,1.30804081371969E-14,82.9689092897168));
#461=CARTESIAN_POINT('',(0.,-41.7313034242665,81.0591047148486));
#462=CARTESIAN_POINT('Origin',(0.,-49.5000000000076,82.9689092897168));
#463=CARTESIAN_POINT('',(-41.7313034242666,1.80740770504939E-14,81.0591047148486));
#464=CARTESIAN_POINT('Origin',(0.,1.29634663342164E-14,81.0591047148486));
#465=CARTESIAN_POINT('Origin',(0.,1.29634663342164E-14,81.0591047148486));
#466=CARTESIAN_POINT('Origin',(0.,1.26536855144369E-14,76.0000000000001));
#467=CARTESIAN_POINT('',(-44.2186965757335,1.77591332170514E-14,70.9408952851516));
#468=CARTESIAN_POINT('',(0.,-44.2186965757334,70.9408952851516));
#469=CARTESIAN_POINT('Origin',(0.,1.23439046946573E-14,70.9408952851516));
#470=CARTESIAN_POINT('',(-42.975,1.79166051337726E-14,76.0000000000001));
#471=CARTESIAN_POINT('Origin',(0.,1.23439046946573E-14,70.9408952851516));
#472=CARTESIAN_POINT('Origin',(0.,1.2226962891677E-14,69.0310907102851));
#473=CARTESIAN_POINT('',(-44.4499999999998,1.76705179138869E-14,69.0310907102841));
#474=CARTESIAN_POINT('',(0.,-44.4499999999998,69.031090710284));
#475=CARTESIAN_POINT('Origin',(0.,1.22269628916769E-14,69.031090710284));
#476=CARTESIAN_POINT('Origin',(0.,1.22269628916769E-14,69.031090710284));
#477=CARTESIAN_POINT('Origin',(0.,-36.4500000000069,69.0310907102851));
#478=CARTESIAN_POINT('Origin',(0.,1.02665761345703E-14,37.015545355142));
#479=CARTESIAN_POINT('',(-44.4499999999998,1.37497443996737E-14,5.00000000000003));
#480=CARTESIAN_POINT('Origin',(0.,8.30618937746377E-15,5.));
#481=CARTESIAN_POINT('',(-44.4499999999998,1.57101311567803E-14,37.015545355142));
#482=CARTESIAN_POINT('Origin',(0.,8.15310852757035E-15,2.5));
#483=CARTESIAN_POINT('',(-44.0125566823704,1.33900113440126E-14,2.8421709430404E-14));
#484=CARTESIAN_POINT('Origin',(0.,8.00002767767693E-15,0.));
#485=CARTESIAN_POINT('',(-44.2312783411851,1.35698778718431E-14,2.50000000000003));
#486=CARTESIAN_POINT('Origin',(42.8079728773183,8.00002767767692E-15,-2.8421709430404E-14));
#487=CARTESIAN_POINT('',(-42.8079728773184,1.32424923738964E-14,2.8421709430404E-14));
#488=CARTESIAN_POINT('Origin',(0.,8.00002767767693E-15,0.));
#489=CARTESIAN_POINT('Origin',(0.,8.15471260458973E-15,2.5261965657445));
#490=CARTESIAN_POINT('',(-43.2499999999998,1.36059949378148E-14,5.05239313148905));
#491=CARTESIAN_POINT('',(-43.0289864386591,1.34242436558556E-14,2.52619656574453));
#492=CARTESIAN_POINT('Origin',(0.,8.30939753150253E-15,5.05239313148903));
#493=CARTESIAN_POINT('Origin',(0.,1.02681802115897E-14,37.0417419208865));
#494=CARTESIAN_POINT('',(-43.2499999999998,1.5564777617902E-14,37.0417419208866));
#495=UNCERTAINTY_MEASURE_WITH_UNIT(LENGTH_MEASURE(0.001),#499,
'DISTANCE_ACCURACY_VALUE',
'Maximum model space distance between geometric entities at asserted c
onnectivities');
#496=UNCERTAINTY_MEASURE_WITH_UNIT(LENGTH_MEASURE(0.001),#499,
'DISTANCE_ACCURACY_VALUE',
'Maximum model space distance between geometric entities at asserted c
onnectivities');
#497=(
GEOMETRIC_REPRESENTATION_CONTEXT(3)
GLOBAL_UNCERTAINTY_ASSIGNED_CONTEXT((#495))
GLOBAL_UNIT_ASSIGNED_CONTEXT((#499,#500,#501))
REPRESENTATION_CONTEXT('','3D')
);
#498=(
GEOMETRIC_REPRESENTATION_CONTEXT(3)
GLOBAL_UNCERTAINTY_ASSIGNED_CONTEXT((#496))
GLOBAL_UNIT_ASSIGNED_CONTEXT((#499,#500,#501))
REPRESENTATION_CONTEXT('','3D')
);
#499=(
LENGTH_UNIT()
NAMED_UNIT(*)
SI_UNIT(.CENTI.,.METRE.)
);
#500=(
NAMED_UNIT(*)
PLANE_ANGLE_UNIT()
SI_UNIT($,.RADIAN.)
);
#501=(
NAMED_UNIT(*)
SI_UNIT($,.STERADIAN.)
SOLID_ANGLE_UNIT()
);
#502=SHAPE_DEFINITION_REPRESENTATION(#503,#504);
#503=PRODUCT_DEFINITION_SHAPE('',$,#506);
#504=SHAPE_REPRESENTATION('',(#271),#497);
#505=PRODUCT_DEFINITION_CONTEXT('part definition',#510,'design');
#506=PRODUCT_DEFINITION('Product','Product',#507,#505);
#507=PRODUCT_DEFINITION_FORMATION('',$,#512);
#508=PRODUCT_RELATED_PRODUCT_CATEGORY('Product','Product',(#512));
#509=APPLICATION_PROTOCOL_DEFINITION('international standard',
'automotive_design',2009,#510);
#510=APPLICATION_CONTEXT(
'Core Data for Automotive Mechanical Design Process');
#511=PRODUCT_CONTEXT('part definition',#510,'mechanical');
#512=PRODUCT('Product','Product',$,(#511));
#513=PRESENTATION_STYLE_ASSIGNMENT((#514));
#514=SURFACE_STYLE_USAGE(.BOTH.,#515);
#515=SURFACE_SIDE_STYLE('',(#516));
#516=SURFACE_STYLE_FILL_AREA(#517);
#517=FILL_AREA_STYLE('',(#518));
#518=FILL_AREA_STYLE_COLOUR('',#519);
#519=COLOUR_RGB('',0.901960784313726,0.901960784313726,0.901960784313726);
ENDSEC;
END-ISO-10303-21;
