ISO-10303-21;
HEADER;
/* Generated by software containing ST-Developer
 * from STEP Tools, Inc. (www.steptools.com) 
 */

FILE_DESCRIPTION(
/* description */ (''),
/* implementation_level */ '2;1');

FILE_NAME(
/* name */ '5.710.070C_3D.stp',
/* time_stamp */ '2024-12-11T11:55:55+01:00',
/* author */ ('CAD'),
/* organization */ (''),
/* preprocessor_version */ 'ST-DEVELOPER v20',
/* originating_system */ 'AutoCAD Mechanical',
/* authorisation */ '');

FILE_SCHEMA (('AUTOMOTIVE_DESIGN { 1 0 10303 214 3 1 1 }'));
ENDSEC;

DATA;
#10=MECHANICAL_DESIGN_GEOMETRIC_PRESENTATION_REPRESENTATION('',(#18),#469);
#11=PRESENTATION_LAYER_ASSIGNMENT('3','ROHR',(#19));
#12=ITEM_DEFINED_TRANSFORMATION($,$,#291,#292);
#13=(
REPRESENTATION_RELATIONSHIP($,$,#479,#478)
REPRESENTATION_RELATIONSHIP_WITH_TRANSFORMATION(#12)
SHAPE_REPRESENTATION_RELATIONSHIP()
);
#14=CONTEXT_DEPENDENT_SHAPE_REPRESENTATION(#13,#477);
#15=NEXT_ASSEMBLY_USAGE_OCCURRENCE('A31','A31','A31',#481,#482,'A31');
#16=SHAPE_REPRESENTATION_RELATIONSHIP('SRR','None',#478,#17);
#17=ADVANCED_BREP_SHAPE_REPRESENTATION('',(#19),#467);
#18=STYLED_ITEM('',(#492),#19);
#19=MANIFOLD_SOLID_BREP('9F7',#247);
#20=FACE_BOUND('',#59,.T.);
#21=PLANE('',#290);
#22=CONICAL_SURFACE('',#267,36.2807055149492,0.0872664625997209);
#23=CONICAL_SURFACE('',#269,35.3466100725498,1.48352986419518);
#24=CONICAL_SURFACE('',#271,34.7864134678116,0.0872664625997209);
#25=TOROIDAL_SURFACE('',#253,26.7499999999995,12.0000000000005);
#26=TOROIDAL_SURFACE('',#256,44.4999999999999,7.99999999999986);
#27=TOROIDAL_SURFACE('',#263,28.0000000000062,8.4999999999938);
#28=TOROIDAL_SURFACE('',#274,28.0000000000061,6.99999999999385);
#29=TOROIDAL_SURFACE('',#281,44.5000000000003,9.50000000000034);
#30=TOROIDAL_SURFACE('',#284,26.75,10.5);
#31=FACE_OUTER_BOUND('',#45,.T.);
#32=FACE_OUTER_BOUND('',#46,.T.);
#33=FACE_OUTER_BOUND('',#47,.T.);
#34=FACE_OUTER_BOUND('',#48,.T.);
#35=FACE_OUTER_BOUND('',#49,.T.);
#36=FACE_OUTER_BOUND('',#50,.T.);
#37=FACE_OUTER_BOUND('',#51,.T.);
#38=FACE_OUTER_BOUND('',#52,.T.);
#39=FACE_OUTER_BOUND('',#53,.T.);
#40=FACE_OUTER_BOUND('',#54,.T.);
#41=FACE_OUTER_BOUND('',#55,.T.);
#42=FACE_OUTER_BOUND('',#56,.T.);
#43=FACE_OUTER_BOUND('',#57,.T.);
#44=FACE_OUTER_BOUND('',#58,.T.);
#45=EDGE_LOOP('',(#159,#160,#161,#162,#163));
#46=EDGE_LOOP('',(#164,#165,#166,#167,#168));
#47=EDGE_LOOP('',(#169,#170,#171,#172,#173));
#48=EDGE_LOOP('',(#174,#175,#176,#177,#178,#179));
#49=EDGE_LOOP('',(#180,#181,#182,#183,#184,#185));
#50=EDGE_LOOP('',(#186,#187,#188,#189,#190));
#51=EDGE_LOOP('',(#191,#192,#193,#194));
#52=EDGE_LOOP('',(#195,#196,#197,#198,#199));
#53=EDGE_LOOP('',(#200,#201,#202,#203,#204,#205));
#54=EDGE_LOOP('',(#206,#207,#208,#209,#210,#211));
#55=EDGE_LOOP('',(#212,#213,#214,#215,#216));
#56=EDGE_LOOP('',(#217,#218,#219,#220,#221));
#57=EDGE_LOOP('',(#222,#223,#224,#225,#226));
#58=EDGE_LOOP('',(#227));
#59=EDGE_LOOP('',(#228));
#60=LINE('',#397,#67);
#61=LINE('',#414,#68);
#62=LINE('',#424,#69);
#63=LINE('',#427,#70);
#64=LINE('',#431,#71);
#65=LINE('',#443,#72);
#66=LINE('',#459,#73);
#67=VECTOR('',#301,38.75);
#68=VECTOR('',#324,36.5);
#69=VECTOR('',#337,36.2807055149492);
#70=VECTOR('',#340,35.3466100725498);
#71=VECTOR('',#345,34.7864134678116);
#72=VECTOR('',#360,35.);
#73=VECTOR('',#381,37.25);
#74=CIRCLE('',#250,38.75);
#75=CIRCLE('',#251,38.75);
#76=CIRCLE('',#252,38.75);
#77=CIRCLE('',#254,37.4);
#78=CIRCLE('',#255,12.0000000000005);
#79=CIRCLE('',#257,7.99999999999986);
#80=CIRCLE('',#258,36.5);
#81=CIRCLE('',#259,36.5);
#82=CIRCLE('',#261,36.5);
#83=CIRCLE('',#262,36.5);
#84=CIRCLE('',#264,36.4676549337798);
#85=CIRCLE('',#265,8.4999999999938);
#86=CIRCLE('',#266,36.4676549337798);
#87=CIRCLE('',#268,36.0937560961186);
#88=CIRCLE('',#270,34.5994640489809);
#89=CIRCLE('',#272,34.9733628866422);
#90=CIRCLE('',#273,34.9733628866422);
#91=CIRCLE('',#275,6.99999999999385);
#92=CIRCLE('',#276,35.);
#93=CIRCLE('',#277,35.);
#94=CIRCLE('',#279,35.);
#95=CIRCLE('',#280,35.);
#96=CIRCLE('',#282,36.06875);
#97=CIRCLE('',#283,9.50000000000034);
#98=CIRCLE('',#285,10.5);
#99=CIRCLE('',#286,37.25);
#100=CIRCLE('',#287,37.25);
#101=CIRCLE('',#289,37.25);
#102=VERTEX_POINT('',#392);
#103=VERTEX_POINT('',#393);
#104=VERTEX_POINT('',#396);
#105=VERTEX_POINT('',#400);
#106=VERTEX_POINT('',#404);
#107=VERTEX_POINT('',#406);
#108=VERTEX_POINT('',#410);
#109=VERTEX_POINT('',#411);
#110=VERTEX_POINT('',#416);
#111=VERTEX_POINT('',#417);
#112=VERTEX_POINT('',#422);
#113=VERTEX_POINT('',#426);
#114=VERTEX_POINT('',#430);
#115=VERTEX_POINT('',#432);
#116=VERTEX_POINT('',#436);
#117=VERTEX_POINT('',#438);
#118=VERTEX_POINT('',#442);
#119=VERTEX_POINT('',#444);
#120=VERTEX_POINT('',#448);
#121=VERTEX_POINT('',#452);
#122=VERTEX_POINT('',#454);
#123=VERTEX_POINT('',#458);
#124=EDGE_CURVE('',#102,#103,#74,.T.);
#125=EDGE_CURVE('',#103,#102,#75,.T.);
#126=EDGE_CURVE('',#103,#104,#60,.T.);
#127=EDGE_CURVE('',#104,#104,#76,.T.);
#128=EDGE_CURVE('',#105,#105,#77,.T.);
#129=EDGE_CURVE('',#105,#102,#78,.T.);
#130=EDGE_CURVE('',#105,#106,#79,.T.);
#131=EDGE_CURVE('',#107,#106,#80,.T.);
#132=EDGE_CURVE('',#106,#107,#81,.T.);
#133=EDGE_CURVE('',#108,#109,#82,.T.);
#134=EDGE_CURVE('',#109,#108,#83,.T.);
#135=EDGE_CURVE('',#109,#107,#61,.T.);
#136=EDGE_CURVE('',#110,#111,#84,.T.);
#137=EDGE_CURVE('',#110,#108,#85,.T.);
#138=EDGE_CURVE('',#111,#110,#86,.T.);
#139=EDGE_CURVE('',#112,#112,#87,.T.);
#140=EDGE_CURVE('',#112,#111,#62,.T.);
#141=EDGE_CURVE('',#112,#113,#63,.T.);
#142=EDGE_CURVE('',#113,#113,#88,.T.);
#143=EDGE_CURVE('',#113,#114,#64,.T.);
#144=EDGE_CURVE('',#115,#114,#89,.T.);
#145=EDGE_CURVE('',#114,#115,#90,.T.);
#146=EDGE_CURVE('',#115,#116,#91,.T.);
#147=EDGE_CURVE('',#117,#116,#92,.T.);
#148=EDGE_CURVE('',#116,#117,#93,.T.);
#149=EDGE_CURVE('',#117,#118,#65,.T.);
#150=EDGE_CURVE('',#119,#118,#94,.T.);
#151=EDGE_CURVE('',#118,#119,#95,.T.);
#152=EDGE_CURVE('',#120,#120,#96,.T.);
#153=EDGE_CURVE('',#120,#119,#97,.T.);
#154=EDGE_CURVE('',#120,#121,#98,.T.);
#155=EDGE_CURVE('',#122,#121,#99,.T.);
#156=EDGE_CURVE('',#121,#122,#100,.T.);
#157=EDGE_CURVE('',#122,#123,#66,.T.);
#158=EDGE_CURVE('',#123,#123,#101,.T.);
#159=ORIENTED_EDGE('',*,*,#124,.F.);
#160=ORIENTED_EDGE('',*,*,#125,.F.);
#161=ORIENTED_EDGE('',*,*,#126,.T.);
#162=ORIENTED_EDGE('',*,*,#127,.T.);
#163=ORIENTED_EDGE('',*,*,#126,.F.);
#164=ORIENTED_EDGE('',*,*,#128,.F.);
#165=ORIENTED_EDGE('',*,*,#129,.T.);
#166=ORIENTED_EDGE('',*,*,#124,.T.);
#167=ORIENTED_EDGE('',*,*,#125,.T.);
#168=ORIENTED_EDGE('',*,*,#129,.F.);
#169=ORIENTED_EDGE('',*,*,#128,.T.);
#170=ORIENTED_EDGE('',*,*,#130,.T.);
#171=ORIENTED_EDGE('',*,*,#131,.F.);
#172=ORIENTED_EDGE('',*,*,#132,.F.);
#173=ORIENTED_EDGE('',*,*,#130,.F.);
#174=ORIENTED_EDGE('',*,*,#133,.F.);
#175=ORIENTED_EDGE('',*,*,#134,.F.);
#176=ORIENTED_EDGE('',*,*,#135,.T.);
#177=ORIENTED_EDGE('',*,*,#131,.T.);
#178=ORIENTED_EDGE('',*,*,#132,.T.);
#179=ORIENTED_EDGE('',*,*,#135,.F.);
#180=ORIENTED_EDGE('',*,*,#136,.F.);
#181=ORIENTED_EDGE('',*,*,#137,.T.);
#182=ORIENTED_EDGE('',*,*,#133,.T.);
#183=ORIENTED_EDGE('',*,*,#134,.T.);
#184=ORIENTED_EDGE('',*,*,#137,.F.);
#185=ORIENTED_EDGE('',*,*,#138,.F.);
#186=ORIENTED_EDGE('',*,*,#139,.F.);
#187=ORIENTED_EDGE('',*,*,#140,.T.);
#188=ORIENTED_EDGE('',*,*,#138,.T.);
#189=ORIENTED_EDGE('',*,*,#136,.T.);
#190=ORIENTED_EDGE('',*,*,#140,.F.);
#191=ORIENTED_EDGE('',*,*,#139,.T.);
#192=ORIENTED_EDGE('',*,*,#141,.T.);
#193=ORIENTED_EDGE('',*,*,#142,.F.);
#194=ORIENTED_EDGE('',*,*,#141,.F.);
#195=ORIENTED_EDGE('',*,*,#142,.T.);
#196=ORIENTED_EDGE('',*,*,#143,.T.);
#197=ORIENTED_EDGE('',*,*,#144,.F.);
#198=ORIENTED_EDGE('',*,*,#145,.F.);
#199=ORIENTED_EDGE('',*,*,#143,.F.);
#200=ORIENTED_EDGE('',*,*,#144,.T.);
#201=ORIENTED_EDGE('',*,*,#145,.T.);
#202=ORIENTED_EDGE('',*,*,#146,.T.);
#203=ORIENTED_EDGE('',*,*,#147,.F.);
#204=ORIENTED_EDGE('',*,*,#148,.F.);
#205=ORIENTED_EDGE('',*,*,#146,.F.);
#206=ORIENTED_EDGE('',*,*,#148,.T.);
#207=ORIENTED_EDGE('',*,*,#149,.T.);
#208=ORIENTED_EDGE('',*,*,#150,.F.);
#209=ORIENTED_EDGE('',*,*,#151,.F.);
#210=ORIENTED_EDGE('',*,*,#149,.F.);
#211=ORIENTED_EDGE('',*,*,#147,.T.);
#212=ORIENTED_EDGE('',*,*,#152,.F.);
#213=ORIENTED_EDGE('',*,*,#153,.T.);
#214=ORIENTED_EDGE('',*,*,#150,.T.);
#215=ORIENTED_EDGE('',*,*,#151,.T.);
#216=ORIENTED_EDGE('',*,*,#153,.F.);
#217=ORIENTED_EDGE('',*,*,#152,.T.);
#218=ORIENTED_EDGE('',*,*,#154,.T.);
#219=ORIENTED_EDGE('',*,*,#155,.F.);
#220=ORIENTED_EDGE('',*,*,#156,.F.);
#221=ORIENTED_EDGE('',*,*,#154,.F.);
#222=ORIENTED_EDGE('',*,*,#156,.T.);
#223=ORIENTED_EDGE('',*,*,#157,.T.);
#224=ORIENTED_EDGE('',*,*,#158,.F.);
#225=ORIENTED_EDGE('',*,*,#157,.F.);
#226=ORIENTED_EDGE('',*,*,#155,.T.);
#227=ORIENTED_EDGE('',*,*,#127,.F.);
#228=ORIENTED_EDGE('',*,*,#158,.T.);
#229=CYLINDRICAL_SURFACE('',#249,38.75);
#230=CYLINDRICAL_SURFACE('',#260,36.5);
#231=CYLINDRICAL_SURFACE('',#278,35.);
#232=CYLINDRICAL_SURFACE('',#288,37.25);
#233=ADVANCED_FACE('',(#31),#229,.T.);
#234=ADVANCED_FACE('',(#32),#25,.T.);
#235=ADVANCED_FACE('',(#33),#26,.F.);
#236=ADVANCED_FACE('',(#34),#230,.T.);
#237=ADVANCED_FACE('',(#35),#27,.T.);
#238=ADVANCED_FACE('',(#36),#22,.T.);
#239=ADVANCED_FACE('',(#37),#23,.F.);
#240=ADVANCED_FACE('',(#38),#24,.F.);
#241=ADVANCED_FACE('',(#39),#28,.F.);
#242=ADVANCED_FACE('',(#40),#231,.F.);
#243=ADVANCED_FACE('',(#41),#29,.T.);
#244=ADVANCED_FACE('',(#42),#30,.F.);
#245=ADVANCED_FACE('',(#43),#232,.F.);
#246=ADVANCED_FACE('',(#44,#20),#21,.T.);
#247=CLOSED_SHELL('',(#233,#234,#235,#236,#237,#238,#239,#240,#241,#242,
#243,#244,#245,#246));
#248=AXIS2_PLACEMENT_3D('',#390,#293,#294);
#249=AXIS2_PLACEMENT_3D('',#391,#295,#296);
#250=AXIS2_PLACEMENT_3D('',#394,#297,#298);
#251=AXIS2_PLACEMENT_3D('',#395,#299,#300);
#252=AXIS2_PLACEMENT_3D('',#398,#302,#303);
#253=AXIS2_PLACEMENT_3D('',#399,#304,#305);
#254=AXIS2_PLACEMENT_3D('',#401,#306,#307);
#255=AXIS2_PLACEMENT_3D('',#402,#308,#309);
#256=AXIS2_PLACEMENT_3D('',#403,#310,#311);
#257=AXIS2_PLACEMENT_3D('',#405,#312,#313);
#258=AXIS2_PLACEMENT_3D('',#407,#314,#315);
#259=AXIS2_PLACEMENT_3D('',#408,#316,#317);
#260=AXIS2_PLACEMENT_3D('',#409,#318,#319);
#261=AXIS2_PLACEMENT_3D('',#412,#320,#321);
#262=AXIS2_PLACEMENT_3D('',#413,#322,#323);
#263=AXIS2_PLACEMENT_3D('',#415,#325,#326);
#264=AXIS2_PLACEMENT_3D('',#418,#327,#328);
#265=AXIS2_PLACEMENT_3D('',#419,#329,#330);
#266=AXIS2_PLACEMENT_3D('',#420,#331,#332);
#267=AXIS2_PLACEMENT_3D('',#421,#333,#334);
#268=AXIS2_PLACEMENT_3D('',#423,#335,#336);
#269=AXIS2_PLACEMENT_3D('',#425,#338,#339);
#270=AXIS2_PLACEMENT_3D('',#428,#341,#342);
#271=AXIS2_PLACEMENT_3D('',#429,#343,#344);
#272=AXIS2_PLACEMENT_3D('',#433,#346,#347);
#273=AXIS2_PLACEMENT_3D('',#434,#348,#349);
#274=AXIS2_PLACEMENT_3D('',#435,#350,#351);
#275=AXIS2_PLACEMENT_3D('',#437,#352,#353);
#276=AXIS2_PLACEMENT_3D('',#439,#354,#355);
#277=AXIS2_PLACEMENT_3D('',#440,#356,#357);
#278=AXIS2_PLACEMENT_3D('',#441,#358,#359);
#279=AXIS2_PLACEMENT_3D('',#445,#361,#362);
#280=AXIS2_PLACEMENT_3D('',#446,#363,#364);
#281=AXIS2_PLACEMENT_3D('',#447,#365,#366);
#282=AXIS2_PLACEMENT_3D('',#449,#367,#368);
#283=AXIS2_PLACEMENT_3D('',#450,#369,#370);
#284=AXIS2_PLACEMENT_3D('',#451,#371,#372);
#285=AXIS2_PLACEMENT_3D('',#453,#373,#374);
#286=AXIS2_PLACEMENT_3D('',#455,#375,#376);
#287=AXIS2_PLACEMENT_3D('',#456,#377,#378);
#288=AXIS2_PLACEMENT_3D('',#457,#379,#380);
#289=AXIS2_PLACEMENT_3D('',#460,#382,#383);
#290=AXIS2_PLACEMENT_3D('',#461,#384,#385);
#291=AXIS2_PLACEMENT_3D('',#462,#386,#387);
#292=AXIS2_PLACEMENT_3D('',#463,#388,#389);
#293=DIRECTION('axis',(0.,0.,1.));
#294=DIRECTION('refdir',(1.,0.,0.));
#295=DIRECTION('center_axis',(-3.13120527623095E-15,-6.12323399573677E-17,
-1.));
#296=DIRECTION('ref_axis',(-1.,1.9413876805027E-31,3.17052668876344E-15));
#297=DIRECTION('center_axis',(-3.13120527623095E-15,-6.12323399573677E-17,
-1.));
#298=DIRECTION('ref_axis',(1.,-1.91731025950477E-31,-3.13120527623095E-15));
#299=DIRECTION('center_axis',(-3.13120527623095E-15,-6.12323399573677E-17,
-1.));
#300=DIRECTION('ref_axis',(1.,-1.91731025950477E-31,-3.13120527623095E-15));
#301=DIRECTION('',(3.13120527623095E-15,6.12323399573677E-17,1.));
#302=DIRECTION('center_axis',(-3.13120527623095E-15,-6.12323399573677E-17,
-1.));
#303=DIRECTION('ref_axis',(1.,-1.91731025950477E-31,-3.13120527623095E-15));
#304=DIRECTION('center_axis',(-3.13120527623095E-15,-6.12323399573677E-17,
-1.));
#305=DIRECTION('ref_axis',(0.,1.,0.));
#306=DIRECTION('center_axis',(-3.13120527623095E-15,-6.12323399573677E-17,
-1.));
#307=DIRECTION('ref_axis',(1.,-1.91731025950477E-31,-3.13120527623095E-15));
#308=DIRECTION('center_axis',(-1.,1.91731025950477E-31,3.13120527623095E-15));
#309=DIRECTION('ref_axis',(0.,-1.,6.12323399573677E-17));
#310=DIRECTION('center_axis',(-3.13120527623095E-15,-6.12323399573677E-17,
-1.));
#311=DIRECTION('ref_axis',(0.,1.,-6.76707367390575E-17));
#312=DIRECTION('center_axis',(-1.,1.91731025950477E-31,3.13120527623095E-15));
#313=DIRECTION('ref_axis',(0.,-1.,6.12323399573677E-17));
#314=DIRECTION('center_axis',(-3.13120527623095E-15,-6.12323399573677E-17,
-1.));
#315=DIRECTION('ref_axis',(1.,-1.91731025950477E-31,-3.13120527623095E-15));
#316=DIRECTION('center_axis',(-3.13120527623095E-15,-6.12323399573677E-17,
-1.));
#317=DIRECTION('ref_axis',(1.,-1.91731025950477E-31,-3.13120527623095E-15));
#318=DIRECTION('center_axis',(-3.13120527623095E-15,-6.12323399573677E-17,
-1.));
#319=DIRECTION('ref_axis',(-1.,1.9413876805027E-31,3.17052668876344E-15));
#320=DIRECTION('center_axis',(-3.13120527623095E-15,-6.12323399573677E-17,
-1.));
#321=DIRECTION('ref_axis',(1.,-1.91731025950477E-31,-3.13120527623095E-15));
#322=DIRECTION('center_axis',(-3.13120527623095E-15,-6.12323399573677E-17,
-1.));
#323=DIRECTION('ref_axis',(1.,-1.91731025950477E-31,-3.13120527623095E-15));
#324=DIRECTION('',(3.13120527623095E-15,6.12323399573677E-17,1.));
#325=DIRECTION('center_axis',(-3.13120527623095E-15,-6.12323399573677E-17,
-1.));
#326=DIRECTION('ref_axis',(0.,1.,0.));
#327=DIRECTION('center_axis',(-3.13120527623095E-15,-6.12323399573677E-17,
-1.));
#328=DIRECTION('ref_axis',(1.,-1.91731025950477E-31,-3.13120527623095E-15));
#329=DIRECTION('center_axis',(-1.,1.91731025950477E-31,3.13120527623095E-15));
#330=DIRECTION('ref_axis',(0.,-1.,6.12323399573677E-17));
#331=DIRECTION('center_axis',(-3.13120527623095E-15,-6.12323399573677E-17,
-1.));
#332=DIRECTION('ref_axis',(1.,-1.91731025950477E-31,-3.13120527623095E-15));
#333=DIRECTION('center_axis',(3.13120527623095E-15,6.12323399573677E-17,
1.));
#334=DIRECTION('ref_axis',(-1.,1.9413876805027E-31,3.17052668876344E-15));
#335=DIRECTION('center_axis',(-3.13120527623095E-15,-6.12323399573677E-17,
-1.));
#336=DIRECTION('ref_axis',(1.,-1.91731025950477E-31,-3.13120527623095E-15));
#337=DIRECTION('',(0.0871557427476657,5.03258322789574E-17,0.996194698091745));
#338=DIRECTION('center_axis',(-3.13120527623095E-15,-6.12323399573677E-17,
-1.));
#339=DIRECTION('ref_axis',(-1.,1.9413876805027E-31,3.17052668876344E-15));
#340=DIRECTION('',(-0.996194698091745,1.27335414903724E-16,0.0871557427476608));
#341=DIRECTION('center_axis',(-3.13120527623095E-15,-6.12323399573677E-17,
-1.));
#342=DIRECTION('ref_axis',(1.,-1.91731025950477E-31,-3.13120527623095E-15));
#343=DIRECTION('center_axis',(3.13120527623095E-15,6.12323399573677E-17,
1.));
#344=DIRECTION('ref_axis',(-1.,1.9413876805027E-31,3.17052668876344E-15));
#345=DIRECTION('',(0.0871557427476657,5.03258322789574E-17,0.996194698091745));
#346=DIRECTION('center_axis',(-3.13120527623095E-15,-6.12323399573677E-17,
-1.));
#347=DIRECTION('ref_axis',(1.,-1.91731025950477E-31,-3.13120527623095E-15));
#348=DIRECTION('center_axis',(-3.13120527623095E-15,-6.12323399573677E-17,
-1.));
#349=DIRECTION('ref_axis',(1.,-1.91731025950477E-31,-3.13120527623095E-15));
#350=DIRECTION('center_axis',(-3.13120527623095E-15,-6.12323399573677E-17,
-1.));
#351=DIRECTION('ref_axis',(0.,1.,0.));
#352=DIRECTION('center_axis',(-1.,1.91731025950477E-31,3.13120527623095E-15));
#353=DIRECTION('ref_axis',(0.,-1.,6.12323399573677E-17));
#354=DIRECTION('center_axis',(-3.13120527623095E-15,-6.12323399573677E-17,
-1.));
#355=DIRECTION('ref_axis',(1.,-1.91731025950477E-31,-3.13120527623095E-15));
#356=DIRECTION('center_axis',(-3.13120527623095E-15,-6.12323399573677E-17,
-1.));
#357=DIRECTION('ref_axis',(1.,-1.91731025950477E-31,-3.13120527623095E-15));
#358=DIRECTION('center_axis',(-3.13120527623095E-15,-6.12323399573677E-17,
-1.));
#359=DIRECTION('ref_axis',(-1.,1.9413876805027E-31,3.17052668876344E-15));
#360=DIRECTION('',(3.13120527623095E-15,6.12323399573677E-17,1.));
#361=DIRECTION('center_axis',(-3.13120527623095E-15,-6.12323399573677E-17,
-1.));
#362=DIRECTION('ref_axis',(1.,-1.91731025950477E-31,-3.13120527623095E-15));
#363=DIRECTION('center_axis',(-3.13120527623095E-15,-6.12323399573677E-17,
-1.));
#364=DIRECTION('ref_axis',(1.,-1.91731025950477E-31,-3.13120527623095E-15));
#365=DIRECTION('center_axis',(-3.13120527623095E-15,-6.12323399573677E-17,
-1.));
#366=DIRECTION('ref_axis',(0.,1.,-6.57909940518603E-17));
#367=DIRECTION('center_axis',(-3.13120527623095E-15,-6.12323399573677E-17,
-1.));
#368=DIRECTION('ref_axis',(1.,-1.91731025950477E-31,-3.13120527623095E-15));
#369=DIRECTION('center_axis',(-1.,1.91731025950477E-31,3.13120527623095E-15));
#370=DIRECTION('ref_axis',(0.,-1.,6.12323399573677E-17));
#371=DIRECTION('center_axis',(-3.13120527623095E-15,-6.12323399573677E-17,
-1.));
#372=DIRECTION('ref_axis',(0.,1.,0.));
#373=DIRECTION('center_axis',(-1.,1.91731025950477E-31,3.13120527623095E-15));
#374=DIRECTION('ref_axis',(0.,-1.,6.12323399573677E-17));
#375=DIRECTION('center_axis',(-3.13120527623095E-15,-6.12323399573677E-17,
-1.));
#376=DIRECTION('ref_axis',(1.,-1.91731025950477E-31,-3.13120527623095E-15));
#377=DIRECTION('center_axis',(-3.13120527623095E-15,-6.12323399573677E-17,
-1.));
#378=DIRECTION('ref_axis',(1.,-1.91731025950477E-31,-3.13120527623095E-15));
#379=DIRECTION('center_axis',(-3.13120527623095E-15,-6.12323399573677E-17,
-1.));
#380=DIRECTION('ref_axis',(-1.,1.9413876805027E-31,3.17052668876344E-15));
#381=DIRECTION('',(3.13120527623095E-15,6.12323399573677E-17,1.));
#382=DIRECTION('center_axis',(-3.13120527623095E-15,-6.12323399573677E-17,
-1.));
#383=DIRECTION('ref_axis',(1.,-1.91731025950477E-31,-3.13120527623095E-15));
#384=DIRECTION('center_axis',(3.13120527623095E-15,6.12323399573677E-17,
1.));
#385=DIRECTION('ref_axis',(0.,-1.,6.12323399573677E-17));
#386=DIRECTION('axis',(0.,0.,1.));
#387=DIRECTION('refdir',(1.,0.,0.));
#388=DIRECTION('',(0.,0.,1.));
#389=DIRECTION('',(1.,0.,0.));
#390=CARTESIAN_POINT('',(0.,0.,0.));
#391=CARTESIAN_POINT('Origin',(112.501252877363,162.34574618494,36.5));
#392=CARTESIAN_POINT('',(112.501252877363,123.59574618494,18.9999999999999));
#393=CARTESIAN_POINT('',(151.251252877363,162.34574618494,18.9999999999999));
#394=CARTESIAN_POINT('Origin',(112.501252877363,162.34574618494,19.));
#395=CARTESIAN_POINT('Origin',(112.501252877363,162.34574618494,19.));
#396=CARTESIAN_POINT('',(151.251252877363,162.34574618494,53.9999999999999));
#397=CARTESIAN_POINT('',(151.251252877363,162.34574618494,36.4999999999999));
#398=CARTESIAN_POINT('Origin',(112.501252877363,162.34574618494,54.));
#399=CARTESIAN_POINT('Origin',(112.501252877363,162.34574618494,19.0000000000001));
#400=CARTESIAN_POINT('',(112.501252877363,124.94574618494,13.4703074226499));
#401=CARTESIAN_POINT('Origin',(112.501252877363,162.34574618494,13.4703074226499));
#402=CARTESIAN_POINT('Origin',(112.501252877363,135.595746184941,19.0000000000001));
#403=CARTESIAN_POINT('Origin',(112.501252877363,162.34574618494,9.78384570441662));
#404=CARTESIAN_POINT('',(112.501252877363,125.84574618494,9.78384570441656));
#405=CARTESIAN_POINT('Origin',(112.501252877363,117.845746184941,9.78384570441662));
#406=CARTESIAN_POINT('',(149.001252877363,162.34574618494,9.78384570441648));
#407=CARTESIAN_POINT('Origin',(112.501252877363,162.34574618494,9.78384570441656));
#408=CARTESIAN_POINT('Origin',(112.501252877363,162.34574618494,9.78384570441656));
#409=CARTESIAN_POINT('Origin',(112.501252877363,162.34574618494,-19.6008236059094));
#410=CARTESIAN_POINT('',(112.501252877363,125.84574618494,-48.9854929162354));
#411=CARTESIAN_POINT('',(149.001252877363,162.34574618494,-48.9854929162355));
#412=CARTESIAN_POINT('Origin',(112.501252877363,162.34574618494,-48.9854929162354));
#413=CARTESIAN_POINT('Origin',(112.501252877363,162.34574618494,-48.9854929162354));
#414=CARTESIAN_POINT('',(149.001252877363,162.34574618494,-19.6008236059095));
#415=CARTESIAN_POINT('Origin',(112.501252877363,162.34574618494,-48.9854929162357));
#416=CARTESIAN_POINT('',(112.501252877363,125.878091251161,-49.7263167295905));
#417=CARTESIAN_POINT('',(148.968907811143,162.34574618494,-49.7263167295906));
#418=CARTESIAN_POINT('Origin',(112.501252877363,162.34574618494,-49.7263167295905));
#419=CARTESIAN_POINT('Origin',(112.501252877363,134.345746184934,-48.9854929162357));
#420=CARTESIAN_POINT('Origin',(112.501252877363,162.34574618494,-49.7263167295905));
#421=CARTESIAN_POINT('Origin',(112.501252877363,162.34574618494,-51.8631583647953));
#422=CARTESIAN_POINT('',(148.595008973482,162.34574618494,-54.0000000000001));
#423=CARTESIAN_POINT('Origin',(112.501252877363,162.34574618494,-54.));
#424=CARTESIAN_POINT('',(148.781958392312,162.34574618494,-51.8631583647954));
#425=CARTESIAN_POINT('Origin',(112.501252877363,162.34574618494,-53.9346331929393));
#426=CARTESIAN_POINT('',(147.100716926344,162.34574618494,-53.8692663858786));
#427=CARTESIAN_POINT('',(147.847862949913,162.34574618494,-53.9346331929394));
#428=CARTESIAN_POINT('Origin',(112.501252877363,162.34574618494,-53.8692663858785));
#429=CARTESIAN_POINT('Origin',(112.501252877363,162.34574618494,-51.7324247506738));
#430=CARTESIAN_POINT('',(147.474615764005,162.34574618494,-49.5955831154692));
#431=CARTESIAN_POINT('',(147.287666345175,162.34574618494,-51.7324247506739));
#432=CARTESIAN_POINT('',(112.501252877363,127.372383298298,-49.5955831154691));
#433=CARTESIAN_POINT('Origin',(112.501252877363,162.34574618494,-49.5955831154691));
#434=CARTESIAN_POINT('Origin',(112.501252877363,162.34574618494,-49.5955831154691));
#435=CARTESIAN_POINT('Origin',(112.501252877363,162.34574618494,-48.9854929162358));
#436=CARTESIAN_POINT('',(112.501252877363,127.34574618494,-48.9854929162354));
#437=CARTESIAN_POINT('Origin',(112.501252877363,134.345746184934,-48.9854929162358));
#438=CARTESIAN_POINT('',(147.501252877363,162.34574618494,-48.9854929162356));
#439=CARTESIAN_POINT('Origin',(112.501252877363,162.34574618494,-48.9854929162354));
#440=CARTESIAN_POINT('Origin',(112.501252877363,162.34574618494,-48.9854929162354));
#441=CARTESIAN_POINT('Origin',(112.501252877363,162.34574618494,-19.6008236059094));
#442=CARTESIAN_POINT('',(147.501252877363,162.34574618494,9.78384570441645));
#443=CARTESIAN_POINT('',(147.501252877363,162.34574618494,-19.6008236059095));
#444=CARTESIAN_POINT('',(112.501252877363,127.34574618494,9.78384570441659));
#445=CARTESIAN_POINT('Origin',(112.501252877363,162.34574618494,9.78384570441656));
#446=CARTESIAN_POINT('Origin',(112.501252877363,162.34574618494,9.78384570441656));
#447=CARTESIAN_POINT('Origin',(112.501252877363,162.34574618494,9.78384570441648));
#448=CARTESIAN_POINT('',(112.501252877363,126.27699618494,14.1615189948187));
#449=CARTESIAN_POINT('Origin',(112.501252877363,162.34574618494,14.1615189948187));
#450=CARTESIAN_POINT('Origin',(112.501252877363,117.84574618494,9.78384570441648));
#451=CARTESIAN_POINT('Origin',(112.501252877363,162.34574618494,18.9999999999999));
#452=CARTESIAN_POINT('',(112.501252877363,125.09574618494,18.9999999999999));
#453=CARTESIAN_POINT('Origin',(112.501252877363,135.59574618494,18.9999999999999));
#454=CARTESIAN_POINT('',(149.751252877363,162.34574618494,18.9999999999999));
#455=CARTESIAN_POINT('Origin',(112.501252877363,162.34574618494,19.));
#456=CARTESIAN_POINT('Origin',(112.501252877363,162.34574618494,19.));
#457=CARTESIAN_POINT('Origin',(112.501252877363,162.34574618494,36.5));
#458=CARTESIAN_POINT('',(149.751252877363,162.34574618494,53.9999999999999));
#459=CARTESIAN_POINT('',(149.751252877363,162.34574618494,36.4999999999999));
#460=CARTESIAN_POINT('Origin',(112.501252877363,162.34574618494,54.));
#461=CARTESIAN_POINT('Origin',(73.7512528773634,162.34574618494,54.0000000000001));
#462=CARTESIAN_POINT('',(0.,0.,0.));
#463=CARTESIAN_POINT('',(0.,0.,0.));
#464=UNCERTAINTY_MEASURE_WITH_UNIT(LENGTH_MEASURE(0.001),#470,
'DISTANCE_ACCURACY_VALUE',
'Maximum model space distance between geometric entities at asserted c
onnectivities');
#465=UNCERTAINTY_MEASURE_WITH_UNIT(LENGTH_MEASURE(0.001),#470,
'DISTANCE_ACCURACY_VALUE',
'Maximum model space distance between geometric entities at asserted c
onnectivities');
#466=UNCERTAINTY_MEASURE_WITH_UNIT(LENGTH_MEASURE(0.001),#470,
'DISTANCE_ACCURACY_VALUE',
'Maximum model space distance between geometric entities at asserted c
onnectivities');
#467=(
GEOMETRIC_REPRESENTATION_CONTEXT(3)
GLOBAL_UNCERTAINTY_ASSIGNED_CONTEXT((#464))
GLOBAL_UNIT_ASSIGNED_CONTEXT((#470,#471,#472))
REPRESENTATION_CONTEXT('','3D')
);
#468=(
GEOMETRIC_REPRESENTATION_CONTEXT(3)
GLOBAL_UNCERTAINTY_ASSIGNED_CONTEXT((#465))
GLOBAL_UNIT_ASSIGNED_CONTEXT((#470,#471,#472))
REPRESENTATION_CONTEXT('','3D')
);
#469=(
GEOMETRIC_REPRESENTATION_CONTEXT(3)
GLOBAL_UNCERTAINTY_ASSIGNED_CONTEXT((#466))
GLOBAL_UNIT_ASSIGNED_CONTEXT((#470,#471,#472))
REPRESENTATION_CONTEXT('','3D')
);
#470=(
LENGTH_UNIT()
NAMED_UNIT(*)
SI_UNIT(.CENTI.,.METRE.)
);
#471=(
NAMED_UNIT(*)
PLANE_ANGLE_UNIT()
SI_UNIT($,.RADIAN.)
);
#472=(
NAMED_UNIT(*)
SI_UNIT($,.STERADIAN.)
SOLID_ANGLE_UNIT()
);
#473=SHAPE_DEFINITION_REPRESENTATION(#475,#478);
#474=SHAPE_DEFINITION_REPRESENTATION(#476,#479);
#475=PRODUCT_DEFINITION_SHAPE('',$,#481);
#476=PRODUCT_DEFINITION_SHAPE('',$,#482);
#477=PRODUCT_DEFINITION_SHAPE($,$,#15);
#478=SHAPE_REPRESENTATION('',(#248,#292),#467);
#479=SHAPE_REPRESENTATION('',(#291),#468);
#480=PRODUCT_DEFINITION_CONTEXT('part definition',#488,'design');
#481=PRODUCT_DEFINITION('Product','Product',#483,#480);
#482=PRODUCT_DEFINITION('*S0','*S0',#484,#480);
#483=PRODUCT_DEFINITION_FORMATION('',$,#490);
#484=PRODUCT_DEFINITION_FORMATION('',$,#491);
#485=PRODUCT_RELATED_PRODUCT_CATEGORY('Product','Product',(#490));
#486=PRODUCT_RELATED_PRODUCT_CATEGORY('*S0','*S0',(#491));
#487=APPLICATION_PROTOCOL_DEFINITION('international standard',
'automotive_design',2009,#488);
#488=APPLICATION_CONTEXT(
'Core Data for Automotive Mechanical Design Process');
#489=PRODUCT_CONTEXT('part definition',#488,'mechanical');
#490=PRODUCT('Product','Product',$,(#489));
#491=PRODUCT('*S0','*S0',$,(#489));
#492=PRESENTATION_STYLE_ASSIGNMENT((#493));
#493=SURFACE_STYLE_USAGE(.BOTH.,#494);
#494=SURFACE_SIDE_STYLE('',(#495));
#495=SURFACE_STYLE_FILL_AREA(#496);
#496=FILL_AREA_STYLE('',(#497));
#497=FILL_AREA_STYLE_COLOUR('',#498);
#498=COLOUR_RGB('',0.866666666666667,0.866666666666667,0.866666666666667);
ENDSEC;
END-ISO-10303-21;
