ISO-10303-21;
HEADER;
/* Generated by software containing ST-Developer
 * from STEP Tools, Inc. (www.steptools.com) 
 */

FILE_DESCRIPTION(
/* description */ (''),
/* implementation_level */ '2;1');

FILE_NAME(
/* name */ '21919.125X_3D.stp',
/* time_stamp */ '2024-12-12T08:47:34+01:00',
/* author */ ('CAD'),
/* organization */ (''),
/* preprocessor_version */ 'ST-DEVELOPER v20',
/* originating_system */ 'AutoCAD Mechanical',
/* authorisation */ '');

FILE_SCHEMA (('AUTOMOTIVE_DESIGN { 1 0 10303 214 3 1 1 }'));
ENDSEC;

DATA;
#10=MECHANICAL_DESIGN_GEOMETRIC_PRESENTATION_REPRESENTATION('',(#18),#362);
#11=PRESENTATION_LAYER_ASSIGNMENT('3','SEMPERIT',(#19));
#12=SHAPE_REPRESENTATION_RELATIONSHIP('SRR','None',#371,#13);
#13=ADVANCED_BREP_SHAPE_REPRESENTATION('',(#19),#360);
#14=ITEM_DEFINED_TRANSFORMATION($,$,#210,#237);
#15=(
REPRESENTATION_RELATIONSHIP($,$,#372,#371)
REPRESENTATION_RELATIONSHIP_WITH_TRANSFORMATION(#14)
SHAPE_REPRESENTATION_RELATIONSHIP()
);
#16=CONTEXT_DEPENDENT_SHAPE_REPRESENTATION(#15,#370);
#17=NEXT_ASSEMBLY_USAGE_OCCURRENCE('9EF','9EF','9EF',#374,#375,'9EF');
#18=STYLED_ITEM('',(#385),#19);
#19=MANIFOLD_SOLID_BREP('D10',#208);
#20=FACE_BOUND('',#55,.T.);
#21=FACE_BOUND('',#56,.T.);
#22=FACE_BOUND('',#57,.T.);
#23=FACE_BOUND('',#58,.T.);
#24=FACE_BOUND('',#59,.T.);
#25=FACE_BOUND('',#60,.T.);
#26=FACE_BOUND('',#61,.T.);
#27=FACE_BOUND('',#63,.T.);
#28=FACE_BOUND('',#64,.T.);
#29=FACE_BOUND('',#65,.T.);
#30=FACE_BOUND('',#66,.T.);
#31=FACE_BOUND('',#67,.T.);
#32=FACE_BOUND('',#68,.T.);
#33=FACE_BOUND('',#69,.T.);
#34=PLANE('',#235);
#35=PLANE('',#236);
#36=FACE_OUTER_BOUND('',#46,.T.);
#37=FACE_OUTER_BOUND('',#47,.T.);
#38=FACE_OUTER_BOUND('',#48,.T.);
#39=FACE_OUTER_BOUND('',#49,.T.);
#40=FACE_OUTER_BOUND('',#50,.T.);
#41=FACE_OUTER_BOUND('',#51,.T.);
#42=FACE_OUTER_BOUND('',#52,.T.);
#43=FACE_OUTER_BOUND('',#53,.T.);
#44=FACE_OUTER_BOUND('',#54,.T.);
#45=FACE_OUTER_BOUND('',#62,.T.);
#46=EDGE_LOOP('',(#142,#143,#144,#145));
#47=EDGE_LOOP('',(#146,#147,#148,#149));
#48=EDGE_LOOP('',(#150,#151,#152,#153));
#49=EDGE_LOOP('',(#154,#155,#156,#157));
#50=EDGE_LOOP('',(#158,#159,#160,#161));
#51=EDGE_LOOP('',(#162,#163,#164,#165));
#52=EDGE_LOOP('',(#166,#167,#168,#169));
#53=EDGE_LOOP('',(#170,#171,#172,#173));
#54=EDGE_LOOP('',(#174));
#55=EDGE_LOOP('',(#175));
#56=EDGE_LOOP('',(#176));
#57=EDGE_LOOP('',(#177));
#58=EDGE_LOOP('',(#178));
#59=EDGE_LOOP('',(#179));
#60=EDGE_LOOP('',(#180));
#61=EDGE_LOOP('',(#181));
#62=EDGE_LOOP('',(#182));
#63=EDGE_LOOP('',(#183));
#64=EDGE_LOOP('',(#184));
#65=EDGE_LOOP('',(#185));
#66=EDGE_LOOP('',(#186));
#67=EDGE_LOOP('',(#187));
#68=EDGE_LOOP('',(#188));
#69=EDGE_LOOP('',(#189));
#70=LINE('',#310,#78);
#71=LINE('',#316,#79);
#72=LINE('',#322,#80);
#73=LINE('',#328,#81);
#74=LINE('',#334,#82);
#75=LINE('',#340,#83);
#76=LINE('',#346,#84);
#77=LINE('',#352,#85);
#78=VECTOR('',#246,8.);
#79=VECTOR('',#253,8.);
#80=VECTOR('',#260,8.);
#81=VECTOR('',#267,80.);
#82=VECTOR('',#274,8.);
#83=VECTOR('',#281,8.);
#84=VECTOR('',#288,8.);
#85=VECTOR('',#295,150.);
#86=CIRCLE('',#212,8.);
#87=CIRCLE('',#213,8.);
#88=CIRCLE('',#215,8.);
#89=CIRCLE('',#216,8.);
#90=CIRCLE('',#218,8.);
#91=CIRCLE('',#219,8.);
#92=CIRCLE('',#221,80.);
#93=CIRCLE('',#222,80.);
#94=CIRCLE('',#224,8.);
#95=CIRCLE('',#225,8.);
#96=CIRCLE('',#227,8.);
#97=CIRCLE('',#228,8.);
#98=CIRCLE('',#230,8.);
#99=CIRCLE('',#231,8.);
#100=CIRCLE('',#233,150.);
#101=CIRCLE('',#234,150.);
#102=VERTEX_POINT('',#307);
#103=VERTEX_POINT('',#309);
#104=VERTEX_POINT('',#313);
#105=VERTEX_POINT('',#315);
#106=VERTEX_POINT('',#319);
#107=VERTEX_POINT('',#321);
#108=VERTEX_POINT('',#325);
#109=VERTEX_POINT('',#327);
#110=VERTEX_POINT('',#331);
#111=VERTEX_POINT('',#333);
#112=VERTEX_POINT('',#337);
#113=VERTEX_POINT('',#339);
#114=VERTEX_POINT('',#343);
#115=VERTEX_POINT('',#345);
#116=VERTEX_POINT('',#349);
#117=VERTEX_POINT('',#351);
#118=EDGE_CURVE('',#102,#102,#86,.T.);
#119=EDGE_CURVE('',#102,#103,#70,.T.);
#120=EDGE_CURVE('',#103,#103,#87,.T.);
#121=EDGE_CURVE('',#104,#104,#88,.T.);
#122=EDGE_CURVE('',#104,#105,#71,.T.);
#123=EDGE_CURVE('',#105,#105,#89,.T.);
#124=EDGE_CURVE('',#106,#106,#90,.T.);
#125=EDGE_CURVE('',#106,#107,#72,.T.);
#126=EDGE_CURVE('',#107,#107,#91,.T.);
#127=EDGE_CURVE('',#108,#108,#92,.T.);
#128=EDGE_CURVE('',#108,#109,#73,.T.);
#129=EDGE_CURVE('',#109,#109,#93,.T.);
#130=EDGE_CURVE('',#110,#110,#94,.T.);
#131=EDGE_CURVE('',#110,#111,#74,.T.);
#132=EDGE_CURVE('',#111,#111,#95,.T.);
#133=EDGE_CURVE('',#112,#112,#96,.T.);
#134=EDGE_CURVE('',#112,#113,#75,.T.);
#135=EDGE_CURVE('',#113,#113,#97,.T.);
#136=EDGE_CURVE('',#114,#114,#98,.T.);
#137=EDGE_CURVE('',#114,#115,#76,.T.);
#138=EDGE_CURVE('',#115,#115,#99,.T.);
#139=EDGE_CURVE('',#116,#116,#100,.T.);
#140=EDGE_CURVE('',#116,#117,#77,.T.);
#141=EDGE_CURVE('',#117,#117,#101,.T.);
#142=ORIENTED_EDGE('',*,*,#118,.F.);
#143=ORIENTED_EDGE('',*,*,#119,.T.);
#144=ORIENTED_EDGE('',*,*,#120,.T.);
#145=ORIENTED_EDGE('',*,*,#119,.F.);
#146=ORIENTED_EDGE('',*,*,#121,.F.);
#147=ORIENTED_EDGE('',*,*,#122,.T.);
#148=ORIENTED_EDGE('',*,*,#123,.T.);
#149=ORIENTED_EDGE('',*,*,#122,.F.);
#150=ORIENTED_EDGE('',*,*,#124,.F.);
#151=ORIENTED_EDGE('',*,*,#125,.T.);
#152=ORIENTED_EDGE('',*,*,#126,.T.);
#153=ORIENTED_EDGE('',*,*,#125,.F.);
#154=ORIENTED_EDGE('',*,*,#127,.F.);
#155=ORIENTED_EDGE('',*,*,#128,.T.);
#156=ORIENTED_EDGE('',*,*,#129,.T.);
#157=ORIENTED_EDGE('',*,*,#128,.F.);
#158=ORIENTED_EDGE('',*,*,#130,.F.);
#159=ORIENTED_EDGE('',*,*,#131,.T.);
#160=ORIENTED_EDGE('',*,*,#132,.T.);
#161=ORIENTED_EDGE('',*,*,#131,.F.);
#162=ORIENTED_EDGE('',*,*,#133,.F.);
#163=ORIENTED_EDGE('',*,*,#134,.T.);
#164=ORIENTED_EDGE('',*,*,#135,.T.);
#165=ORIENTED_EDGE('',*,*,#134,.F.);
#166=ORIENTED_EDGE('',*,*,#136,.F.);
#167=ORIENTED_EDGE('',*,*,#137,.T.);
#168=ORIENTED_EDGE('',*,*,#138,.T.);
#169=ORIENTED_EDGE('',*,*,#137,.F.);
#170=ORIENTED_EDGE('',*,*,#139,.F.);
#171=ORIENTED_EDGE('',*,*,#140,.T.);
#172=ORIENTED_EDGE('',*,*,#141,.T.);
#173=ORIENTED_EDGE('',*,*,#140,.F.);
#174=ORIENTED_EDGE('',*,*,#139,.T.);
#175=ORIENTED_EDGE('',*,*,#136,.T.);
#176=ORIENTED_EDGE('',*,*,#133,.T.);
#177=ORIENTED_EDGE('',*,*,#130,.T.);
#178=ORIENTED_EDGE('',*,*,#127,.T.);
#179=ORIENTED_EDGE('',*,*,#124,.T.);
#180=ORIENTED_EDGE('',*,*,#121,.T.);
#181=ORIENTED_EDGE('',*,*,#118,.T.);
#182=ORIENTED_EDGE('',*,*,#141,.F.);
#183=ORIENTED_EDGE('',*,*,#138,.F.);
#184=ORIENTED_EDGE('',*,*,#135,.F.);
#185=ORIENTED_EDGE('',*,*,#132,.F.);
#186=ORIENTED_EDGE('',*,*,#129,.F.);
#187=ORIENTED_EDGE('',*,*,#126,.F.);
#188=ORIENTED_EDGE('',*,*,#123,.F.);
#189=ORIENTED_EDGE('',*,*,#120,.F.);
#190=CYLINDRICAL_SURFACE('',#211,8.);
#191=CYLINDRICAL_SURFACE('',#214,8.);
#192=CYLINDRICAL_SURFACE('',#217,8.);
#193=CYLINDRICAL_SURFACE('',#220,80.);
#194=CYLINDRICAL_SURFACE('',#223,8.);
#195=CYLINDRICAL_SURFACE('',#226,8.);
#196=CYLINDRICAL_SURFACE('',#229,8.);
#197=CYLINDRICAL_SURFACE('',#232,150.);
#198=ADVANCED_FACE('',(#36),#190,.F.);
#199=ADVANCED_FACE('',(#37),#191,.F.);
#200=ADVANCED_FACE('',(#38),#192,.F.);
#201=ADVANCED_FACE('',(#39),#193,.F.);
#202=ADVANCED_FACE('',(#40),#194,.F.);
#203=ADVANCED_FACE('',(#41),#195,.F.);
#204=ADVANCED_FACE('',(#42),#196,.F.);
#205=ADVANCED_FACE('',(#43),#197,.T.);
#206=ADVANCED_FACE('',(#44,#20,#21,#22,#23,#24,#25,#26),#34,.T.);
#207=ADVANCED_FACE('',(#45,#27,#28,#29,#30,#31,#32,#33),#35,.F.);
#208=CLOSED_SHELL('',(#198,#199,#200,#201,#202,#203,#204,#205,#206,#207));
#209=AXIS2_PLACEMENT_3D('',#304,#238,#239);
#210=AXIS2_PLACEMENT_3D('',#305,#240,#241);
#211=AXIS2_PLACEMENT_3D('',#306,#242,#243);
#212=AXIS2_PLACEMENT_3D('',#308,#244,#245);
#213=AXIS2_PLACEMENT_3D('',#311,#247,#248);
#214=AXIS2_PLACEMENT_3D('',#312,#249,#250);
#215=AXIS2_PLACEMENT_3D('',#314,#251,#252);
#216=AXIS2_PLACEMENT_3D('',#317,#254,#255);
#217=AXIS2_PLACEMENT_3D('',#318,#256,#257);
#218=AXIS2_PLACEMENT_3D('',#320,#258,#259);
#219=AXIS2_PLACEMENT_3D('',#323,#261,#262);
#220=AXIS2_PLACEMENT_3D('',#324,#263,#264);
#221=AXIS2_PLACEMENT_3D('',#326,#265,#266);
#222=AXIS2_PLACEMENT_3D('',#329,#268,#269);
#223=AXIS2_PLACEMENT_3D('',#330,#270,#271);
#224=AXIS2_PLACEMENT_3D('',#332,#272,#273);
#225=AXIS2_PLACEMENT_3D('',#335,#275,#276);
#226=AXIS2_PLACEMENT_3D('',#336,#277,#278);
#227=AXIS2_PLACEMENT_3D('',#338,#279,#280);
#228=AXIS2_PLACEMENT_3D('',#341,#282,#283);
#229=AXIS2_PLACEMENT_3D('',#342,#284,#285);
#230=AXIS2_PLACEMENT_3D('',#344,#286,#287);
#231=AXIS2_PLACEMENT_3D('',#347,#289,#290);
#232=AXIS2_PLACEMENT_3D('',#348,#291,#292);
#233=AXIS2_PLACEMENT_3D('',#350,#293,#294);
#234=AXIS2_PLACEMENT_3D('',#353,#296,#297);
#235=AXIS2_PLACEMENT_3D('',#354,#298,#299);
#236=AXIS2_PLACEMENT_3D('',#355,#300,#301);
#237=AXIS2_PLACEMENT_3D('',#356,#302,#303);
#238=DIRECTION('axis',(0.,0.,1.));
#239=DIRECTION('refdir',(1.,0.,0.));
#240=DIRECTION('axis',(0.,0.,1.));
#241=DIRECTION('refdir',(1.,0.,0.));
#242=DIRECTION('center_axis',(0.,0.,1.));
#243=DIRECTION('ref_axis',(0.,-1.,0.));
#244=DIRECTION('center_axis',(0.,0.,-1.));
#245=DIRECTION('ref_axis',(0.,-1.,0.));
#246=DIRECTION('',(0.,0.,-1.));
#247=DIRECTION('center_axis',(0.,0.,-1.));
#248=DIRECTION('ref_axis',(0.,-1.,0.));
#249=DIRECTION('center_axis',(0.,0.,1.));
#250=DIRECTION('ref_axis',(0.,1.,0.));
#251=DIRECTION('center_axis',(0.,0.,-1.));
#252=DIRECTION('ref_axis',(0.,1.,0.));
#253=DIRECTION('',(0.,0.,-1.));
#254=DIRECTION('center_axis',(0.,0.,-1.));
#255=DIRECTION('ref_axis',(0.,1.,0.));
#256=DIRECTION('center_axis',(0.,0.,1.));
#257=DIRECTION('ref_axis',(0.,1.,0.));
#258=DIRECTION('center_axis',(0.,0.,-1.));
#259=DIRECTION('ref_axis',(0.,1.,0.));
#260=DIRECTION('',(0.,0.,-1.));
#261=DIRECTION('center_axis',(0.,0.,-1.));
#262=DIRECTION('ref_axis',(0.,1.,0.));
#263=DIRECTION('center_axis',(0.,0.,1.));
#264=DIRECTION('ref_axis',(0.,-1.,0.));
#265=DIRECTION('center_axis',(0.,0.,-1.));
#266=DIRECTION('ref_axis',(0.,-1.,0.));
#267=DIRECTION('',(0.,0.,-1.));
#268=DIRECTION('center_axis',(0.,0.,-1.));
#269=DIRECTION('ref_axis',(0.,-1.,0.));
#270=DIRECTION('center_axis',(0.,0.,1.));
#271=DIRECTION('ref_axis',(0.,-1.,0.));
#272=DIRECTION('center_axis',(0.,0.,-1.));
#273=DIRECTION('ref_axis',(0.,-1.,0.));
#274=DIRECTION('',(0.,0.,-1.));
#275=DIRECTION('center_axis',(0.,0.,-1.));
#276=DIRECTION('ref_axis',(0.,-1.,0.));
#277=DIRECTION('center_axis',(0.,0.,1.));
#278=DIRECTION('ref_axis',(0.,-1.,0.));
#279=DIRECTION('center_axis',(0.,0.,-1.));
#280=DIRECTION('ref_axis',(0.,-1.,0.));
#281=DIRECTION('',(0.,0.,-1.));
#282=DIRECTION('center_axis',(0.,0.,-1.));
#283=DIRECTION('ref_axis',(0.,-1.,0.));
#284=DIRECTION('center_axis',(0.,0.,1.));
#285=DIRECTION('ref_axis',(0.,-1.,0.));
#286=DIRECTION('center_axis',(0.,0.,-1.));
#287=DIRECTION('ref_axis',(0.,-1.,0.));
#288=DIRECTION('',(0.,0.,-1.));
#289=DIRECTION('center_axis',(0.,0.,-1.));
#290=DIRECTION('ref_axis',(0.,-1.,0.));
#291=DIRECTION('center_axis',(0.,0.,1.));
#292=DIRECTION('ref_axis',(0.,-1.,0.));
#293=DIRECTION('center_axis',(0.,0.,1.));
#294=DIRECTION('ref_axis',(0.,-1.,0.));
#295=DIRECTION('',(0.,0.,-1.));
#296=DIRECTION('center_axis',(0.,0.,1.));
#297=DIRECTION('ref_axis',(0.,-1.,0.));
#298=DIRECTION('center_axis',(0.,0.,1.));
#299=DIRECTION('ref_axis',(1.,0.,0.));
#300=DIRECTION('center_axis',(0.,0.,1.));
#301=DIRECTION('ref_axis',(1.,0.,0.));
#302=DIRECTION('',(0.,0.,1.));
#303=DIRECTION('',(1.,0.,0.));
#304=CARTESIAN_POINT('',(0.,0.,0.));
#305=CARTESIAN_POINT('',(0.,0.,0.));
#306=CARTESIAN_POINT('Origin',(-430.750410994793,187.54895207037,0.));
#307=CARTESIAN_POINT('',(-430.750410994793,195.54895207037,3.));
#308=CARTESIAN_POINT('Origin',(-430.750410994793,187.54895207037,3.));
#309=CARTESIAN_POINT('',(-430.750410994793,195.54895207037,0.));
#310=CARTESIAN_POINT('',(-430.750410994793,195.54895207037,0.));
#311=CARTESIAN_POINT('Origin',(-430.750410994793,187.54895207037,0.));
#312=CARTESIAN_POINT('Origin',(-374.750410994793,284.543797294227,0.));
#313=CARTESIAN_POINT('',(-374.750410994793,276.543797294227,3.));
#314=CARTESIAN_POINT('Origin',(-374.750410994793,284.543797294227,3.));
#315=CARTESIAN_POINT('',(-374.750410994793,276.543797294227,0.));
#316=CARTESIAN_POINT('',(-374.750410994793,276.543797294227,0.));
#317=CARTESIAN_POINT('Origin',(-374.750410994793,284.543797294227,0.));
#318=CARTESIAN_POINT('Origin',(-262.750410994794,284.543797294227,0.));
#319=CARTESIAN_POINT('',(-262.750410994794,276.543797294227,3.));
#320=CARTESIAN_POINT('Origin',(-262.750410994794,284.543797294227,3.));
#321=CARTESIAN_POINT('',(-262.750410994794,276.543797294227,0.));
#322=CARTESIAN_POINT('',(-262.750410994794,276.543797294227,0.));
#323=CARTESIAN_POINT('Origin',(-262.750410994794,284.543797294227,0.));
#324=CARTESIAN_POINT('Origin',(-318.750410994793,187.54895207037,0.));
#325=CARTESIAN_POINT('',(-318.750410994793,267.54895207037,3.));
#326=CARTESIAN_POINT('Origin',(-318.750410994793,187.54895207037,3.));
#327=CARTESIAN_POINT('',(-318.750410994793,267.54895207037,0.));
#328=CARTESIAN_POINT('',(-318.750410994793,267.54895207037,0.));
#329=CARTESIAN_POINT('Origin',(-318.750410994793,187.54895207037,0.));
#330=CARTESIAN_POINT('Origin',(-206.750410994793,187.54895207037,0.));
#331=CARTESIAN_POINT('',(-206.750410994793,195.54895207037,3.));
#332=CARTESIAN_POINT('Origin',(-206.750410994793,187.54895207037,3.));
#333=CARTESIAN_POINT('',(-206.750410994793,195.54895207037,0.));
#334=CARTESIAN_POINT('',(-206.750410994793,195.54895207037,0.));
#335=CARTESIAN_POINT('Origin',(-206.750410994793,187.54895207037,0.));
#336=CARTESIAN_POINT('Origin',(-262.750410994793,90.5541068465124,0.));
#337=CARTESIAN_POINT('',(-262.750410994793,98.5541068465124,3.));
#338=CARTESIAN_POINT('Origin',(-262.750410994793,90.5541068465124,3.));
#339=CARTESIAN_POINT('',(-262.750410994793,98.5541068465124,0.));
#340=CARTESIAN_POINT('',(-262.750410994793,98.5541068465124,0.));
#341=CARTESIAN_POINT('Origin',(-262.750410994793,90.5541068465124,0.));
#342=CARTESIAN_POINT('Origin',(-374.750410994793,90.5541068465125,0.));
#343=CARTESIAN_POINT('',(-374.750410994793,98.5541068465125,3.));
#344=CARTESIAN_POINT('Origin',(-374.750410994793,90.5541068465125,3.));
#345=CARTESIAN_POINT('',(-374.750410994793,98.5541068465125,0.));
#346=CARTESIAN_POINT('',(-374.750410994793,98.5541068465125,0.));
#347=CARTESIAN_POINT('Origin',(-374.750410994793,90.5541068465125,0.));
#348=CARTESIAN_POINT('Origin',(-318.750410994793,187.54895207037,0.));
#349=CARTESIAN_POINT('',(-318.750410994793,337.54895207037,3.));
#350=CARTESIAN_POINT('Origin',(-318.750410994793,187.54895207037,3.));
#351=CARTESIAN_POINT('',(-318.750410994793,337.54895207037,0.));
#352=CARTESIAN_POINT('',(-318.750410994793,337.54895207037,0.));
#353=CARTESIAN_POINT('Origin',(-318.750410994793,187.54895207037,0.));
#354=CARTESIAN_POINT('Origin',(-318.750410994793,187.54895207037,3.));
#355=CARTESIAN_POINT('Origin',(-318.750410994793,187.54895207037,0.));
#356=CARTESIAN_POINT('',(0.,0.,0.));
#357=UNCERTAINTY_MEASURE_WITH_UNIT(LENGTH_MEASURE(0.001),#363,
'DISTANCE_ACCURACY_VALUE',
'Maximum model space distance between geometric entities at asserted c
onnectivities');
#358=UNCERTAINTY_MEASURE_WITH_UNIT(LENGTH_MEASURE(0.001),#363,
'DISTANCE_ACCURACY_VALUE',
'Maximum model space distance between geometric entities at asserted c
onnectivities');
#359=UNCERTAINTY_MEASURE_WITH_UNIT(LENGTH_MEASURE(0.001),#363,
'DISTANCE_ACCURACY_VALUE',
'Maximum model space distance between geometric entities at asserted c
onnectivities');
#360=(
GEOMETRIC_REPRESENTATION_CONTEXT(3)
GLOBAL_UNCERTAINTY_ASSIGNED_CONTEXT((#357))
GLOBAL_UNIT_ASSIGNED_CONTEXT((#363,#364,#365))
REPRESENTATION_CONTEXT('','3D')
);
#361=(
GEOMETRIC_REPRESENTATION_CONTEXT(3)
GLOBAL_UNCERTAINTY_ASSIGNED_CONTEXT((#358))
GLOBAL_UNIT_ASSIGNED_CONTEXT((#363,#364,#365))
REPRESENTATION_CONTEXT('','3D')
);
#362=(
GEOMETRIC_REPRESENTATION_CONTEXT(3)
GLOBAL_UNCERTAINTY_ASSIGNED_CONTEXT((#359))
GLOBAL_UNIT_ASSIGNED_CONTEXT((#363,#364,#365))
REPRESENTATION_CONTEXT('','3D')
);
#363=(
LENGTH_UNIT()
NAMED_UNIT(*)
SI_UNIT(.CENTI.,.METRE.)
);
#364=(
NAMED_UNIT(*)
PLANE_ANGLE_UNIT()
SI_UNIT($,.RADIAN.)
);
#365=(
NAMED_UNIT(*)
SI_UNIT($,.STERADIAN.)
SOLID_ANGLE_UNIT()
);
#366=SHAPE_DEFINITION_REPRESENTATION(#368,#371);
#367=SHAPE_DEFINITION_REPRESENTATION(#369,#372);
#368=PRODUCT_DEFINITION_SHAPE('',$,#374);
#369=PRODUCT_DEFINITION_SHAPE('',$,#375);
#370=PRODUCT_DEFINITION_SHAPE($,$,#17);
#371=SHAPE_REPRESENTATION('',(#209,#237),#360);
#372=SHAPE_REPRESENTATION('',(#210),#361);
#373=PRODUCT_DEFINITION_CONTEXT('part definition',#381,'design');
#374=PRODUCT_DEFINITION('Product','Product',#376,#373);
#375=PRODUCT_DEFINITION('*S0','*S0',#377,#373);
#376=PRODUCT_DEFINITION_FORMATION('',$,#383);
#377=PRODUCT_DEFINITION_FORMATION('',$,#384);
#378=PRODUCT_RELATED_PRODUCT_CATEGORY('Product','Product',(#383));
#379=PRODUCT_RELATED_PRODUCT_CATEGORY('*S0','*S0',(#384));
#380=APPLICATION_PROTOCOL_DEFINITION('international standard',
'automotive_design',2009,#381);
#381=APPLICATION_CONTEXT(
'Core Data for Automotive Mechanical Design Process');
#382=PRODUCT_CONTEXT('part definition',#381,'mechanical');
#383=PRODUCT('Product','Product',$,(#382));
#384=PRODUCT('*S0','*S0',$,(#382));
#385=PRESENTATION_STYLE_ASSIGNMENT((#386));
#386=SURFACE_STYLE_USAGE(.BOTH.,#387);
#387=SURFACE_SIDE_STYLE('',(#388));
#388=SURFACE_STYLE_FILL_AREA(#389);
#389=FILL_AREA_STYLE('',(#390));
#390=FILL_AREA_STYLE_COLOUR('',#391);
#391=COLOUR_RGB('',0.329411764705882,0.329411764705882,0.329411764705882);
ENDSEC;
END-ISO-10303-21;
