ISO-10303-21;
HEADER;
/* Generated by software containing ST-Developer
 * from STEP Tools, Inc. (www.steptools.com) 
 */

FILE_DESCRIPTION(
/* description */ (''),
/* implementation_level */ '2;1');

FILE_NAME(
/* name */ '21805.125X_3D.stp',
/* time_stamp */ '2024-12-12T08:45:11+01:00',
/* author */ ('CAD'),
/* organization */ (''),
/* preprocessor_version */ 'ST-DEVELOPER v20',
/* originating_system */ 'AutoCAD Mechanical',
/* authorisation */ '');

FILE_SCHEMA (('AUTOMOTIVE_DESIGN { 1 0 10303 214 3 1 1 }'));
ENDSEC;

DATA;
#10=MECHANICAL_DESIGN_GEOMETRIC_PRESENTATION_REPRESENTATION('',(#18),#580);
#11=PRESENTATION_LAYER_ASSIGNMENT('3','FLANSCH',(#19));
#12=ITEM_DEFINED_TRANSFORMATION($,$,#376,#377);
#13=(
REPRESENTATION_RELATIONSHIP($,$,#590,#589)
REPRESENTATION_RELATIONSHIP_WITH_TRANSFORMATION(#12)
SHAPE_REPRESENTATION_RELATIONSHIP()
);
#14=CONTEXT_DEPENDENT_SHAPE_REPRESENTATION(#13,#588);
#15=NEXT_ASSEMBLY_USAGE_OCCURRENCE('EFC','EFC','EFC',#592,#593,'EFC');
#16=SHAPE_REPRESENTATION_RELATIONSHIP('SRR','None',#589,#17);
#17=ADVANCED_BREP_SHAPE_REPRESENTATION('',(#19),#578);
#18=STYLED_ITEM('',(#603),#19);
#19=MANIFOLD_SOLID_BREP('D95',#330);
#20=FACE_BOUND('',#69,.T.);
#21=FACE_BOUND('',#70,.T.);
#22=FACE_BOUND('',#71,.T.);
#23=FACE_BOUND('',#72,.T.);
#24=FACE_BOUND('',#73,.T.);
#25=FACE_BOUND('',#74,.T.);
#26=FACE_BOUND('',#75,.T.);
#27=FACE_BOUND('',#76,.T.);
#28=FACE_BOUND('',#77,.T.);
#29=FACE_BOUND('',#80,.T.);
#30=FACE_BOUND('',#81,.T.);
#31=FACE_BOUND('',#82,.T.);
#32=FACE_BOUND('',#83,.T.);
#33=FACE_BOUND('',#84,.T.);
#34=FACE_BOUND('',#85,.T.);
#35=FACE_BOUND('',#86,.T.);
#36=FACE_BOUND('',#87,.T.);
#37=FACE_BOUND('',#88,.T.);
#38=PLANE('',#339);
#39=PLANE('',#351);
#40=CYLINDRICAL_SURFACE('',#336,94.);
#41=CYLINDRICAL_SURFACE('',#364,160.);
#42=CYLINDRICAL_SURFACE('',#368,7.);
#43=CYLINDRICAL_SURFACE('',#369,7.);
#44=CYLINDRICAL_SURFACE('',#370,7.);
#45=CYLINDRICAL_SURFACE('',#371,7.);
#46=CYLINDRICAL_SURFACE('',#372,7.);
#47=CYLINDRICAL_SURFACE('',#373,7.);
#48=CYLINDRICAL_SURFACE('',#374,7.);
#49=CYLINDRICAL_SURFACE('',#375,7.);
#50=FACE_OUTER_BOUND('',#66,.T.);
#51=FACE_OUTER_BOUND('',#67,.T.);
#52=FACE_OUTER_BOUND('',#68,.T.);
#53=FACE_OUTER_BOUND('',#78,.T.);
#54=FACE_OUTER_BOUND('',#79,.T.);
#55=FACE_OUTER_BOUND('',#89,.T.);
#56=FACE_OUTER_BOUND('',#90,.T.);
#57=FACE_OUTER_BOUND('',#91,.T.);
#58=FACE_OUTER_BOUND('',#92,.T.);
#59=FACE_OUTER_BOUND('',#93,.T.);
#60=FACE_OUTER_BOUND('',#94,.T.);
#61=FACE_OUTER_BOUND('',#95,.T.);
#62=FACE_OUTER_BOUND('',#96,.T.);
#63=FACE_OUTER_BOUND('',#97,.T.);
#64=FACE_OUTER_BOUND('',#98,.T.);
#65=FACE_OUTER_BOUND('',#99,.T.);
#66=EDGE_LOOP('',(#226,#227,#228,#229,#230));
#67=EDGE_LOOP('',(#231,#232,#233,#234,#235,#236));
#68=EDGE_LOOP('',(#237));
#69=EDGE_LOOP('',(#238));
#70=EDGE_LOOP('',(#239));
#71=EDGE_LOOP('',(#240));
#72=EDGE_LOOP('',(#241));
#73=EDGE_LOOP('',(#242));
#74=EDGE_LOOP('',(#243));
#75=EDGE_LOOP('',(#244));
#76=EDGE_LOOP('',(#245));
#77=EDGE_LOOP('',(#246));
#78=EDGE_LOOP('',(#247,#248,#249,#250,#251));
#79=EDGE_LOOP('',(#252));
#80=EDGE_LOOP('',(#253));
#81=EDGE_LOOP('',(#254));
#82=EDGE_LOOP('',(#255));
#83=EDGE_LOOP('',(#256));
#84=EDGE_LOOP('',(#257));
#85=EDGE_LOOP('',(#258));
#86=EDGE_LOOP('',(#259));
#87=EDGE_LOOP('',(#260));
#88=EDGE_LOOP('',(#261));
#89=EDGE_LOOP('',(#262,#263,#264,#265,#266));
#90=EDGE_LOOP('',(#267,#268,#269,#270,#271,#272));
#91=EDGE_LOOP('',(#273,#274,#275,#276,#277));
#92=EDGE_LOOP('',(#278,#279,#280,#281));
#93=EDGE_LOOP('',(#282,#283,#284,#285));
#94=EDGE_LOOP('',(#286,#287,#288,#289));
#95=EDGE_LOOP('',(#290,#291,#292,#293));
#96=EDGE_LOOP('',(#294,#295,#296,#297));
#97=EDGE_LOOP('',(#298,#299,#300,#301));
#98=EDGE_LOOP('',(#302,#303,#304,#305));
#99=EDGE_LOOP('',(#306,#307,#308,#309));
#100=LINE('',#491,#114);
#101=LINE('',#497,#115);
#102=LINE('',#523,#116);
#103=LINE('',#545,#117);
#104=LINE('',#554,#118);
#105=LINE('',#556,#119);
#106=LINE('',#558,#120);
#107=LINE('',#560,#121);
#108=LINE('',#562,#122);
#109=LINE('',#564,#123);
#110=LINE('',#566,#124);
#111=LINE('',#568,#125);
#112=LINE('',#570,#126);
#113=LINE('',#572,#127);
#114=VECTOR('',#384,94.5);
#115=VECTOR('',#391,94.);
#116=VECTOR('',#420,94.5);
#117=VECTOR('',#443,159.5);
#118=VECTOR('',#454,160.);
#119=VECTOR('',#457,159.5);
#120=VECTOR('',#460,7.);
#121=VECTOR('',#463,7.);
#122=VECTOR('',#466,7.);
#123=VECTOR('',#469,7.);
#124=VECTOR('',#472,7.);
#125=VECTOR('',#475,7.);
#126=VECTOR('',#478,7.);
#127=VECTOR('',#481,7.);
#128=CIRCLE('',#333,95.);
#129=CIRCLE('',#334,94.);
#130=CIRCLE('',#335,94.);
#131=CIRCLE('',#337,94.);
#132=CIRCLE('',#338,94.);
#133=CIRCLE('',#340,159.);
#134=CIRCLE('',#341,7.);
#135=CIRCLE('',#342,7.);
#136=CIRCLE('',#343,7.);
#137=CIRCLE('',#344,7.);
#138=CIRCLE('',#345,7.);
#139=CIRCLE('',#346,7.);
#140=CIRCLE('',#347,7.);
#141=CIRCLE('',#348,7.);
#142=CIRCLE('',#350,95.);
#143=CIRCLE('',#352,159.);
#144=CIRCLE('',#353,7.);
#145=CIRCLE('',#354,7.);
#146=CIRCLE('',#355,7.);
#147=CIRCLE('',#356,7.);
#148=CIRCLE('',#357,7.);
#149=CIRCLE('',#358,7.);
#150=CIRCLE('',#359,7.);
#151=CIRCLE('',#360,7.);
#152=CIRCLE('',#362,160.);
#153=CIRCLE('',#363,160.);
#154=CIRCLE('',#365,160.);
#155=CIRCLE('',#366,160.);
#156=VERTEX_POINT('',#488);
#157=VERTEX_POINT('',#490);
#158=VERTEX_POINT('',#492);
#159=VERTEX_POINT('',#496);
#160=VERTEX_POINT('',#498);
#161=VERTEX_POINT('',#502);
#162=VERTEX_POINT('',#504);
#163=VERTEX_POINT('',#506);
#164=VERTEX_POINT('',#508);
#165=VERTEX_POINT('',#510);
#166=VERTEX_POINT('',#512);
#167=VERTEX_POINT('',#514);
#168=VERTEX_POINT('',#516);
#169=VERTEX_POINT('',#518);
#170=VERTEX_POINT('',#521);
#171=VERTEX_POINT('',#525);
#172=VERTEX_POINT('',#527);
#173=VERTEX_POINT('',#529);
#174=VERTEX_POINT('',#531);
#175=VERTEX_POINT('',#533);
#176=VERTEX_POINT('',#535);
#177=VERTEX_POINT('',#537);
#178=VERTEX_POINT('',#539);
#179=VERTEX_POINT('',#541);
#180=VERTEX_POINT('',#544);
#181=VERTEX_POINT('',#546);
#182=VERTEX_POINT('',#550);
#183=VERTEX_POINT('',#551);
#184=EDGE_CURVE('',#156,#156,#128,.T.);
#185=EDGE_CURVE('',#156,#157,#100,.T.);
#186=EDGE_CURVE('',#157,#158,#129,.T.);
#187=EDGE_CURVE('',#158,#157,#130,.T.);
#188=EDGE_CURVE('',#158,#159,#101,.T.);
#189=EDGE_CURVE('',#160,#159,#131,.T.);
#190=EDGE_CURVE('',#159,#160,#132,.T.);
#191=EDGE_CURVE('',#161,#161,#133,.T.);
#192=EDGE_CURVE('',#162,#162,#134,.T.);
#193=EDGE_CURVE('',#163,#163,#135,.T.);
#194=EDGE_CURVE('',#164,#164,#136,.T.);
#195=EDGE_CURVE('',#165,#165,#137,.T.);
#196=EDGE_CURVE('',#166,#166,#138,.T.);
#197=EDGE_CURVE('',#167,#167,#139,.T.);
#198=EDGE_CURVE('',#168,#168,#140,.T.);
#199=EDGE_CURVE('',#169,#169,#141,.T.);
#200=EDGE_CURVE('',#170,#170,#142,.T.);
#201=EDGE_CURVE('',#170,#160,#102,.T.);
#202=EDGE_CURVE('',#171,#171,#143,.T.);
#203=EDGE_CURVE('',#172,#172,#144,.T.);
#204=EDGE_CURVE('',#173,#173,#145,.T.);
#205=EDGE_CURVE('',#174,#174,#146,.T.);
#206=EDGE_CURVE('',#175,#175,#147,.T.);
#207=EDGE_CURVE('',#176,#176,#148,.T.);
#208=EDGE_CURVE('',#177,#177,#149,.T.);
#209=EDGE_CURVE('',#178,#178,#150,.T.);
#210=EDGE_CURVE('',#179,#179,#151,.T.);
#211=EDGE_CURVE('',#161,#180,#103,.T.);
#212=EDGE_CURVE('',#180,#181,#152,.T.);
#213=EDGE_CURVE('',#181,#180,#153,.T.);
#214=EDGE_CURVE('',#182,#183,#154,.T.);
#215=EDGE_CURVE('',#183,#182,#155,.T.);
#216=EDGE_CURVE('',#183,#181,#104,.T.);
#217=EDGE_CURVE('',#171,#182,#105,.T.);
#218=EDGE_CURVE('',#162,#172,#106,.T.);
#219=EDGE_CURVE('',#163,#173,#107,.T.);
#220=EDGE_CURVE('',#164,#174,#108,.T.);
#221=EDGE_CURVE('',#165,#175,#109,.T.);
#222=EDGE_CURVE('',#166,#176,#110,.T.);
#223=EDGE_CURVE('',#167,#177,#111,.T.);
#224=EDGE_CURVE('',#168,#178,#112,.T.);
#225=EDGE_CURVE('',#169,#179,#113,.T.);
#226=ORIENTED_EDGE('',*,*,#184,.T.);
#227=ORIENTED_EDGE('',*,*,#185,.T.);
#228=ORIENTED_EDGE('',*,*,#186,.T.);
#229=ORIENTED_EDGE('',*,*,#187,.T.);
#230=ORIENTED_EDGE('',*,*,#185,.F.);
#231=ORIENTED_EDGE('',*,*,#186,.F.);
#232=ORIENTED_EDGE('',*,*,#187,.F.);
#233=ORIENTED_EDGE('',*,*,#188,.T.);
#234=ORIENTED_EDGE('',*,*,#189,.F.);
#235=ORIENTED_EDGE('',*,*,#190,.F.);
#236=ORIENTED_EDGE('',*,*,#188,.F.);
#237=ORIENTED_EDGE('',*,*,#191,.F.);
#238=ORIENTED_EDGE('',*,*,#192,.T.);
#239=ORIENTED_EDGE('',*,*,#193,.T.);
#240=ORIENTED_EDGE('',*,*,#194,.T.);
#241=ORIENTED_EDGE('',*,*,#195,.T.);
#242=ORIENTED_EDGE('',*,*,#196,.T.);
#243=ORIENTED_EDGE('',*,*,#197,.T.);
#244=ORIENTED_EDGE('',*,*,#198,.T.);
#245=ORIENTED_EDGE('',*,*,#199,.T.);
#246=ORIENTED_EDGE('',*,*,#184,.F.);
#247=ORIENTED_EDGE('',*,*,#200,.T.);
#248=ORIENTED_EDGE('',*,*,#201,.T.);
#249=ORIENTED_EDGE('',*,*,#189,.T.);
#250=ORIENTED_EDGE('',*,*,#190,.T.);
#251=ORIENTED_EDGE('',*,*,#201,.F.);
#252=ORIENTED_EDGE('',*,*,#202,.F.);
#253=ORIENTED_EDGE('',*,*,#203,.T.);
#254=ORIENTED_EDGE('',*,*,#204,.T.);
#255=ORIENTED_EDGE('',*,*,#205,.T.);
#256=ORIENTED_EDGE('',*,*,#206,.T.);
#257=ORIENTED_EDGE('',*,*,#207,.T.);
#258=ORIENTED_EDGE('',*,*,#208,.T.);
#259=ORIENTED_EDGE('',*,*,#209,.T.);
#260=ORIENTED_EDGE('',*,*,#210,.T.);
#261=ORIENTED_EDGE('',*,*,#200,.F.);
#262=ORIENTED_EDGE('',*,*,#191,.T.);
#263=ORIENTED_EDGE('',*,*,#211,.T.);
#264=ORIENTED_EDGE('',*,*,#212,.T.);
#265=ORIENTED_EDGE('',*,*,#213,.T.);
#266=ORIENTED_EDGE('',*,*,#211,.F.);
#267=ORIENTED_EDGE('',*,*,#214,.F.);
#268=ORIENTED_EDGE('',*,*,#215,.F.);
#269=ORIENTED_EDGE('',*,*,#216,.T.);
#270=ORIENTED_EDGE('',*,*,#212,.F.);
#271=ORIENTED_EDGE('',*,*,#213,.F.);
#272=ORIENTED_EDGE('',*,*,#216,.F.);
#273=ORIENTED_EDGE('',*,*,#202,.T.);
#274=ORIENTED_EDGE('',*,*,#217,.T.);
#275=ORIENTED_EDGE('',*,*,#214,.T.);
#276=ORIENTED_EDGE('',*,*,#215,.T.);
#277=ORIENTED_EDGE('',*,*,#217,.F.);
#278=ORIENTED_EDGE('',*,*,#192,.F.);
#279=ORIENTED_EDGE('',*,*,#218,.T.);
#280=ORIENTED_EDGE('',*,*,#203,.F.);
#281=ORIENTED_EDGE('',*,*,#218,.F.);
#282=ORIENTED_EDGE('',*,*,#193,.F.);
#283=ORIENTED_EDGE('',*,*,#219,.T.);
#284=ORIENTED_EDGE('',*,*,#204,.F.);
#285=ORIENTED_EDGE('',*,*,#219,.F.);
#286=ORIENTED_EDGE('',*,*,#194,.F.);
#287=ORIENTED_EDGE('',*,*,#220,.T.);
#288=ORIENTED_EDGE('',*,*,#205,.F.);
#289=ORIENTED_EDGE('',*,*,#220,.F.);
#290=ORIENTED_EDGE('',*,*,#195,.F.);
#291=ORIENTED_EDGE('',*,*,#221,.T.);
#292=ORIENTED_EDGE('',*,*,#206,.F.);
#293=ORIENTED_EDGE('',*,*,#221,.F.);
#294=ORIENTED_EDGE('',*,*,#196,.F.);
#295=ORIENTED_EDGE('',*,*,#222,.T.);
#296=ORIENTED_EDGE('',*,*,#207,.F.);
#297=ORIENTED_EDGE('',*,*,#222,.F.);
#298=ORIENTED_EDGE('',*,*,#197,.F.);
#299=ORIENTED_EDGE('',*,*,#223,.T.);
#300=ORIENTED_EDGE('',*,*,#208,.F.);
#301=ORIENTED_EDGE('',*,*,#223,.F.);
#302=ORIENTED_EDGE('',*,*,#198,.F.);
#303=ORIENTED_EDGE('',*,*,#224,.T.);
#304=ORIENTED_EDGE('',*,*,#209,.F.);
#305=ORIENTED_EDGE('',*,*,#224,.F.);
#306=ORIENTED_EDGE('',*,*,#199,.F.);
#307=ORIENTED_EDGE('',*,*,#225,.T.);
#308=ORIENTED_EDGE('',*,*,#210,.F.);
#309=ORIENTED_EDGE('',*,*,#225,.F.);
#310=CONICAL_SURFACE('',#332,94.5,0.785398163397448);
#311=CONICAL_SURFACE('',#349,94.5,0.785398163397448);
#312=CONICAL_SURFACE('',#361,159.5,0.785398163397448);
#313=CONICAL_SURFACE('',#367,159.5,0.785398163397448);
#314=ADVANCED_FACE('',(#50),#310,.F.);
#315=ADVANCED_FACE('',(#51),#40,.F.);
#316=ADVANCED_FACE('',(#52,#20,#21,#22,#23,#24,#25,#26,#27,#28),#38,.T.);
#317=ADVANCED_FACE('',(#53),#311,.F.);
#318=ADVANCED_FACE('',(#54,#29,#30,#31,#32,#33,#34,#35,#36,#37),#39,.T.);
#319=ADVANCED_FACE('',(#55),#312,.T.);
#320=ADVANCED_FACE('',(#56),#41,.T.);
#321=ADVANCED_FACE('',(#57),#313,.T.);
#322=ADVANCED_FACE('',(#58),#42,.F.);
#323=ADVANCED_FACE('',(#59),#43,.F.);
#324=ADVANCED_FACE('',(#60),#44,.F.);
#325=ADVANCED_FACE('',(#61),#45,.F.);
#326=ADVANCED_FACE('',(#62),#46,.F.);
#327=ADVANCED_FACE('',(#63),#47,.F.);
#328=ADVANCED_FACE('',(#64),#48,.F.);
#329=ADVANCED_FACE('',(#65),#49,.F.);
#330=CLOSED_SHELL('',(#314,#315,#316,#317,#318,#319,#320,#321,#322,#323,
#324,#325,#326,#327,#328,#329));
#331=AXIS2_PLACEMENT_3D('',#486,#378,#379);
#332=AXIS2_PLACEMENT_3D('',#487,#380,#381);
#333=AXIS2_PLACEMENT_3D('',#489,#382,#383);
#334=AXIS2_PLACEMENT_3D('',#493,#385,#386);
#335=AXIS2_PLACEMENT_3D('',#494,#387,#388);
#336=AXIS2_PLACEMENT_3D('',#495,#389,#390);
#337=AXIS2_PLACEMENT_3D('',#499,#392,#393);
#338=AXIS2_PLACEMENT_3D('',#500,#394,#395);
#339=AXIS2_PLACEMENT_3D('',#501,#396,#397);
#340=AXIS2_PLACEMENT_3D('',#503,#398,#399);
#341=AXIS2_PLACEMENT_3D('',#505,#400,#401);
#342=AXIS2_PLACEMENT_3D('',#507,#402,#403);
#343=AXIS2_PLACEMENT_3D('',#509,#404,#405);
#344=AXIS2_PLACEMENT_3D('',#511,#406,#407);
#345=AXIS2_PLACEMENT_3D('',#513,#408,#409);
#346=AXIS2_PLACEMENT_3D('',#515,#410,#411);
#347=AXIS2_PLACEMENT_3D('',#517,#412,#413);
#348=AXIS2_PLACEMENT_3D('',#519,#414,#415);
#349=AXIS2_PLACEMENT_3D('',#520,#416,#417);
#350=AXIS2_PLACEMENT_3D('',#522,#418,#419);
#351=AXIS2_PLACEMENT_3D('',#524,#421,#422);
#352=AXIS2_PLACEMENT_3D('',#526,#423,#424);
#353=AXIS2_PLACEMENT_3D('',#528,#425,#426);
#354=AXIS2_PLACEMENT_3D('',#530,#427,#428);
#355=AXIS2_PLACEMENT_3D('',#532,#429,#430);
#356=AXIS2_PLACEMENT_3D('',#534,#431,#432);
#357=AXIS2_PLACEMENT_3D('',#536,#433,#434);
#358=AXIS2_PLACEMENT_3D('',#538,#435,#436);
#359=AXIS2_PLACEMENT_3D('',#540,#437,#438);
#360=AXIS2_PLACEMENT_3D('',#542,#439,#440);
#361=AXIS2_PLACEMENT_3D('',#543,#441,#442);
#362=AXIS2_PLACEMENT_3D('',#547,#444,#445);
#363=AXIS2_PLACEMENT_3D('',#548,#446,#447);
#364=AXIS2_PLACEMENT_3D('',#549,#448,#449);
#365=AXIS2_PLACEMENT_3D('',#552,#450,#451);
#366=AXIS2_PLACEMENT_3D('',#553,#452,#453);
#367=AXIS2_PLACEMENT_3D('',#555,#455,#456);
#368=AXIS2_PLACEMENT_3D('',#557,#458,#459);
#369=AXIS2_PLACEMENT_3D('',#559,#461,#462);
#370=AXIS2_PLACEMENT_3D('',#561,#464,#465);
#371=AXIS2_PLACEMENT_3D('',#563,#467,#468);
#372=AXIS2_PLACEMENT_3D('',#565,#470,#471);
#373=AXIS2_PLACEMENT_3D('',#567,#473,#474);
#374=AXIS2_PLACEMENT_3D('',#569,#476,#477);
#375=AXIS2_PLACEMENT_3D('',#571,#479,#480);
#376=AXIS2_PLACEMENT_3D('',#573,#482,#483);
#377=AXIS2_PLACEMENT_3D('',#574,#484,#485);
#378=DIRECTION('axis',(0.,0.,1.));
#379=DIRECTION('refdir',(1.,0.,0.));
#380=DIRECTION('center_axis',(0.,0.,-1.));
#381=DIRECTION('ref_axis',(-1.,0.,0.));
#382=DIRECTION('center_axis',(0.,0.,-1.));
#383=DIRECTION('ref_axis',(-1.,0.,0.));
#384=DIRECTION('',(-0.707106781186548,8.65956056235493E-17,0.707106781186548));
#385=DIRECTION('center_axis',(0.,0.,1.));
#386=DIRECTION('ref_axis',(-1.,0.,0.));
#387=DIRECTION('center_axis',(0.,0.,1.));
#388=DIRECTION('ref_axis',(-1.,0.,0.));
#389=DIRECTION('center_axis',(0.,0.,1.));
#390=DIRECTION('ref_axis',(1.,0.,0.));
#391=DIRECTION('',(0.,0.,1.));
#392=DIRECTION('center_axis',(0.,0.,-1.));
#393=DIRECTION('ref_axis',(-1.,0.,0.));
#394=DIRECTION('center_axis',(0.,0.,-1.));
#395=DIRECTION('ref_axis',(-1.,0.,0.));
#396=DIRECTION('center_axis',(0.,0.,-1.));
#397=DIRECTION('ref_axis',(-1.,0.,0.));
#398=DIRECTION('center_axis',(0.,0.,1.));
#399=DIRECTION('ref_axis',(-1.,0.,0.));
#400=DIRECTION('center_axis',(0.,0.,1.));
#401=DIRECTION('ref_axis',(0.707106781186548,0.707106781186547,0.));
#402=DIRECTION('center_axis',(0.,0.,1.));
#403=DIRECTION('ref_axis',(-0.707106781186548,0.707106781186548,0.));
#404=DIRECTION('center_axis',(0.,0.,1.));
#405=DIRECTION('ref_axis',(-0.707106781186547,-0.707106781186548,0.));
#406=DIRECTION('center_axis',(0.,0.,1.));
#407=DIRECTION('ref_axis',(0.707106781186547,-0.707106781186548,0.));
#408=DIRECTION('center_axis',(0.,0.,1.));
#409=DIRECTION('ref_axis',(-1.26882631385732E-16,-1.,0.));
#410=DIRECTION('center_axis',(0.,0.,1.));
#411=DIRECTION('ref_axis',(-1.,-1.26882631385732E-16,0.));
#412=DIRECTION('center_axis',(0.,0.,1.));
#413=DIRECTION('ref_axis',(0.,1.,0.));
#414=DIRECTION('center_axis',(0.,0.,1.));
#415=DIRECTION('ref_axis',(1.,6.34413156928661E-17,0.));
#416=DIRECTION('center_axis',(0.,0.,1.));
#417=DIRECTION('ref_axis',(-1.,0.,0.));
#418=DIRECTION('center_axis',(0.,0.,1.));
#419=DIRECTION('ref_axis',(-1.,0.,0.));
#420=DIRECTION('',(-0.707106781186548,-8.65956056235493E-17,-0.707106781186548));
#421=DIRECTION('center_axis',(0.,0.,1.));
#422=DIRECTION('ref_axis',(1.,0.,0.));
#423=DIRECTION('center_axis',(0.,0.,-1.));
#424=DIRECTION('ref_axis',(-1.,0.,0.));
#425=DIRECTION('center_axis',(0.,0.,-1.));
#426=DIRECTION('ref_axis',(0.707106781186548,0.707106781186547,0.));
#427=DIRECTION('center_axis',(0.,0.,-1.));
#428=DIRECTION('ref_axis',(-0.707106781186548,0.707106781186548,0.));
#429=DIRECTION('center_axis',(0.,0.,-1.));
#430=DIRECTION('ref_axis',(-0.707106781186547,-0.707106781186548,0.));
#431=DIRECTION('center_axis',(0.,0.,-1.));
#432=DIRECTION('ref_axis',(0.707106781186547,-0.707106781186548,0.));
#433=DIRECTION('center_axis',(0.,0.,-1.));
#434=DIRECTION('ref_axis',(-1.26882631385732E-16,-1.,0.));
#435=DIRECTION('center_axis',(0.,0.,-1.));
#436=DIRECTION('ref_axis',(-1.,-1.26882631385732E-16,0.));
#437=DIRECTION('center_axis',(0.,0.,-1.));
#438=DIRECTION('ref_axis',(0.,1.,0.));
#439=DIRECTION('center_axis',(0.,0.,-1.));
#440=DIRECTION('ref_axis',(1.,6.34413156928661E-17,0.));
#441=DIRECTION('center_axis',(0.,0.,1.));
#442=DIRECTION('ref_axis',(-1.,0.,0.));
#443=DIRECTION('',(0.707106781186548,-8.65956056235493E-17,0.707106781186548));
#444=DIRECTION('center_axis',(0.,0.,-1.));
#445=DIRECTION('ref_axis',(-1.,0.,0.));
#446=DIRECTION('center_axis',(0.,0.,-1.));
#447=DIRECTION('ref_axis',(-1.,0.,0.));
#448=DIRECTION('center_axis',(0.,0.,1.));
#449=DIRECTION('ref_axis',(1.,0.,0.));
#450=DIRECTION('center_axis',(0.,0.,1.));
#451=DIRECTION('ref_axis',(-1.,0.,0.));
#452=DIRECTION('center_axis',(0.,0.,1.));
#453=DIRECTION('ref_axis',(-1.,0.,0.));
#454=DIRECTION('',(0.,0.,-1.));
#455=DIRECTION('center_axis',(0.,0.,-1.));
#456=DIRECTION('ref_axis',(-1.,0.,0.));
#457=DIRECTION('',(0.707106781186548,8.65956056235493E-17,-0.707106781186548));
#458=DIRECTION('center_axis',(0.,0.,1.));
#459=DIRECTION('ref_axis',(0.707106781186548,0.707106781186547,0.));
#460=DIRECTION('',(0.,0.,1.));
#461=DIRECTION('center_axis',(0.,0.,1.));
#462=DIRECTION('ref_axis',(-0.707106781186548,0.707106781186548,0.));
#463=DIRECTION('',(0.,0.,1.));
#464=DIRECTION('center_axis',(0.,0.,1.));
#465=DIRECTION('ref_axis',(-0.707106781186547,-0.707106781186548,0.));
#466=DIRECTION('',(0.,0.,1.));
#467=DIRECTION('center_axis',(0.,0.,1.));
#468=DIRECTION('ref_axis',(0.707106781186547,-0.707106781186548,0.));
#469=DIRECTION('',(0.,0.,1.));
#470=DIRECTION('center_axis',(0.,0.,1.));
#471=DIRECTION('ref_axis',(-1.26882631385732E-16,-1.,0.));
#472=DIRECTION('',(0.,0.,1.));
#473=DIRECTION('center_axis',(0.,0.,1.));
#474=DIRECTION('ref_axis',(-1.,-1.26882631385732E-16,0.));
#475=DIRECTION('',(0.,0.,1.));
#476=DIRECTION('center_axis',(0.,0.,1.));
#477=DIRECTION('ref_axis',(0.,1.,0.));
#478=DIRECTION('',(0.,0.,1.));
#479=DIRECTION('center_axis',(0.,0.,1.));
#480=DIRECTION('ref_axis',(1.,6.34413156928661E-17,0.));
#481=DIRECTION('',(0.,0.,1.));
#482=DIRECTION('axis',(0.,0.,1.));
#483=DIRECTION('refdir',(1.,0.,0.));
#484=DIRECTION('',(0.,0.,1.));
#485=DIRECTION('',(1.,0.,0.));
#486=CARTESIAN_POINT('',(0.,0.,0.));
#487=CARTESIAN_POINT('Origin',(-22.8753914472478,-80.0312009062976,0.5));
#488=CARTESIAN_POINT('',(72.1246085527522,-80.0312009062976,0.));
#489=CARTESIAN_POINT('Origin',(-22.8753914472478,-80.0312009062976,0.));
#490=CARTESIAN_POINT('',(71.1246085527522,-80.0312009062975,1.));
#491=CARTESIAN_POINT('',(71.6246085527522,-80.0312009062976,0.5));
#492=CARTESIAN_POINT('',(-116.875391447248,-80.0312009062976,1.));
#493=CARTESIAN_POINT('Origin',(-22.8753914472478,-80.0312009062976,1.));
#494=CARTESIAN_POINT('Origin',(-22.8753914472478,-80.0312009062976,1.));
#495=CARTESIAN_POINT('Origin',(-22.8753914472478,-80.0312009062976,3.));
#496=CARTESIAN_POINT('',(-116.875391447248,-80.0312009062976,5.));
#497=CARTESIAN_POINT('',(-116.875391447248,-80.0312009062976,3.));
#498=CARTESIAN_POINT('',(71.1246085527522,-80.0312009062976,5.));
#499=CARTESIAN_POINT('Origin',(-22.8753914472478,-80.0312009062976,5.));
#500=CARTESIAN_POINT('Origin',(-22.8753914472478,-80.0312009062976,5.));
#501=CARTESIAN_POINT('Origin',(-22.8753914472478,-80.0312009062976,0.));
#502=CARTESIAN_POINT('',(136.124608552752,-80.0312009062975,0.));
#503=CARTESIAN_POINT('Origin',(-22.8753914472478,-80.0312009062976,0.));
#504=CARTESIAN_POINT('',(-117.627700126245,-174.783509585295,-1.77635683940025E-15));
#505=CARTESIAN_POINT('Origin',(-112.677952657939,-169.833762116989,-1.77635683940025E-15));
#506=CARTESIAN_POINT('',(71.8769172317496,-174.783509585295,-1.77635683940025E-15));
#507=CARTESIAN_POINT('Origin',(66.9271697634438,-169.833762116989,-1.77635683940025E-15));
#508=CARTESIAN_POINT('',(71.8769172317495,14.7211077726999,-1.77635683940025E-15));
#509=CARTESIAN_POINT('Origin',(66.9271697634437,9.77136030439407,-1.77635683940025E-15));
#510=CARTESIAN_POINT('',(-117.627700126245,14.7211077726999,-8.88178419700125E-16));
#511=CARTESIAN_POINT('Origin',(-112.677952657939,9.77136030439407,-8.88178419700125E-16));
#512=CARTESIAN_POINT('',(-22.8753914472478,53.9687990937024,-1.77635683940025E-15));
#513=CARTESIAN_POINT('Origin',(-22.8753914472478,46.9687990937024,-1.77635683940025E-15));
#514=CARTESIAN_POINT('',(111.124608552752,-80.0312009062975,-1.77635683940025E-15));
#515=CARTESIAN_POINT('Origin',(104.124608552752,-80.0312009062975,-1.77635683940025E-15));
#516=CARTESIAN_POINT('',(-22.8753914472478,-214.031200906298,-1.77635683940025E-15));
#517=CARTESIAN_POINT('Origin',(-22.8753914472478,-207.031200906298,-1.77635683940025E-15));
#518=CARTESIAN_POINT('',(-156.875391447248,-80.0312009062975,-1.77635683940025E-15));
#519=CARTESIAN_POINT('Origin',(-149.875391447248,-80.0312009062975,-1.77635683940025E-15));
#520=CARTESIAN_POINT('Origin',(-22.8753914472478,-80.0312009062976,5.5));
#521=CARTESIAN_POINT('',(72.1246085527522,-80.0312009062975,6.));
#522=CARTESIAN_POINT('Origin',(-22.8753914472478,-80.0312009062976,6.));
#523=CARTESIAN_POINT('',(71.6246085527522,-80.0312009062975,5.5));
#524=CARTESIAN_POINT('Origin',(-22.8753914472478,-80.0312009062976,6.));
#525=CARTESIAN_POINT('',(136.124608552752,-80.0312009062976,6.));
#526=CARTESIAN_POINT('Origin',(-22.8753914472478,-80.0312009062976,6.));
#527=CARTESIAN_POINT('',(-117.627700126245,-174.783509585295,6.));
#528=CARTESIAN_POINT('Origin',(-112.677952657939,-169.833762116989,6.));
#529=CARTESIAN_POINT('',(71.8769172317496,-174.783509585295,6.));
#530=CARTESIAN_POINT('Origin',(66.9271697634438,-169.833762116989,6.));
#531=CARTESIAN_POINT('',(71.8769172317495,14.7211077726999,6.));
#532=CARTESIAN_POINT('Origin',(66.9271697634437,9.77136030439407,6.));
#533=CARTESIAN_POINT('',(-117.627700126245,14.7211077726999,6.));
#534=CARTESIAN_POINT('Origin',(-112.677952657939,9.77136030439407,6.));
#535=CARTESIAN_POINT('',(-22.8753914472478,53.9687990937024,6.));
#536=CARTESIAN_POINT('Origin',(-22.8753914472478,46.9687990937024,6.));
#537=CARTESIAN_POINT('',(111.124608552752,-80.0312009062975,6.));
#538=CARTESIAN_POINT('Origin',(104.124608552752,-80.0312009062975,6.));
#539=CARTESIAN_POINT('',(-22.8753914472478,-214.031200906298,6.));
#540=CARTESIAN_POINT('Origin',(-22.8753914472478,-207.031200906298,6.));
#541=CARTESIAN_POINT('',(-156.875391447248,-80.0312009062975,6.));
#542=CARTESIAN_POINT('Origin',(-149.875391447248,-80.0312009062975,6.));
#543=CARTESIAN_POINT('Origin',(-22.8753914472478,-80.0312009062976,0.5));
#544=CARTESIAN_POINT('',(137.124608552752,-80.0312009062976,1.));
#545=CARTESIAN_POINT('',(136.624608552752,-80.0312009062976,0.5));
#546=CARTESIAN_POINT('',(-182.875391447248,-80.0312009062976,1.));
#547=CARTESIAN_POINT('Origin',(-22.8753914472478,-80.0312009062976,1.));
#548=CARTESIAN_POINT('Origin',(-22.8753914472478,-80.0312009062976,1.));
#549=CARTESIAN_POINT('Origin',(-22.8753914472478,-80.0312009062976,3.));
#550=CARTESIAN_POINT('',(137.124608552752,-80.0312009062975,5.));
#551=CARTESIAN_POINT('',(-182.875391447248,-80.0312009062976,5.));
#552=CARTESIAN_POINT('Origin',(-22.8753914472478,-80.0312009062976,5.));
#553=CARTESIAN_POINT('Origin',(-22.8753914472478,-80.0312009062976,5.));
#554=CARTESIAN_POINT('',(-182.875391447248,-80.0312009062976,3.));
#555=CARTESIAN_POINT('Origin',(-22.8753914472478,-80.0312009062976,5.5));
#556=CARTESIAN_POINT('',(136.624608552752,-80.0312009062975,5.5));
#557=CARTESIAN_POINT('Origin',(-112.677952657939,-169.833762116989,2.));
#558=CARTESIAN_POINT('',(-117.627700126245,-174.783509585295,2.));
#559=CARTESIAN_POINT('Origin',(66.9271697634438,-169.833762116989,2.));
#560=CARTESIAN_POINT('',(71.8769172317496,-174.783509585295,2.));
#561=CARTESIAN_POINT('Origin',(66.9271697634437,9.77136030439407,2.));
#562=CARTESIAN_POINT('',(71.8769172317495,14.7211077726999,2.));
#563=CARTESIAN_POINT('Origin',(-112.677952657939,9.77136030439407,2.));
#564=CARTESIAN_POINT('',(-117.627700126245,14.7211077726999,2.));
#565=CARTESIAN_POINT('Origin',(-22.8753914472478,46.9687990937024,2.));
#566=CARTESIAN_POINT('',(-22.8753914472478,53.9687990937024,2.));
#567=CARTESIAN_POINT('Origin',(104.124608552752,-80.0312009062975,2.));
#568=CARTESIAN_POINT('',(111.124608552752,-80.0312009062975,2.));
#569=CARTESIAN_POINT('Origin',(-22.8753914472478,-207.031200906298,2.));
#570=CARTESIAN_POINT('',(-22.8753914472478,-214.031200906298,2.));
#571=CARTESIAN_POINT('Origin',(-149.875391447248,-80.0312009062975,2.));
#572=CARTESIAN_POINT('',(-156.875391447248,-80.0312009062975,2.));
#573=CARTESIAN_POINT('',(0.,0.,0.));
#574=CARTESIAN_POINT('',(0.,0.,0.));
#575=UNCERTAINTY_MEASURE_WITH_UNIT(LENGTH_MEASURE(0.001),#581,
'DISTANCE_ACCURACY_VALUE',
'Maximum model space distance between geometric entities at asserted c
onnectivities');
#576=UNCERTAINTY_MEASURE_WITH_UNIT(LENGTH_MEASURE(0.001),#581,
'DISTANCE_ACCURACY_VALUE',
'Maximum model space distance between geometric entities at asserted c
onnectivities');
#577=UNCERTAINTY_MEASURE_WITH_UNIT(LENGTH_MEASURE(0.001),#581,
'DISTANCE_ACCURACY_VALUE',
'Maximum model space distance between geometric entities at asserted c
onnectivities');
#578=(
GEOMETRIC_REPRESENTATION_CONTEXT(3)
GLOBAL_UNCERTAINTY_ASSIGNED_CONTEXT((#575))
GLOBAL_UNIT_ASSIGNED_CONTEXT((#581,#582,#583))
REPRESENTATION_CONTEXT('','3D')
);
#579=(
GEOMETRIC_REPRESENTATION_CONTEXT(3)
GLOBAL_UNCERTAINTY_ASSIGNED_CONTEXT((#576))
GLOBAL_UNIT_ASSIGNED_CONTEXT((#581,#582,#583))
REPRESENTATION_CONTEXT('','3D')
);
#580=(
GEOMETRIC_REPRESENTATION_CONTEXT(3)
GLOBAL_UNCERTAINTY_ASSIGNED_CONTEXT((#577))
GLOBAL_UNIT_ASSIGNED_CONTEXT((#581,#582,#583))
REPRESENTATION_CONTEXT('','3D')
);
#581=(
LENGTH_UNIT()
NAMED_UNIT(*)
SI_UNIT(.CENTI.,.METRE.)
);
#582=(
NAMED_UNIT(*)
PLANE_ANGLE_UNIT()
SI_UNIT($,.RADIAN.)
);
#583=(
NAMED_UNIT(*)
SI_UNIT($,.STERADIAN.)
SOLID_ANGLE_UNIT()
);
#584=SHAPE_DEFINITION_REPRESENTATION(#586,#589);
#585=SHAPE_DEFINITION_REPRESENTATION(#587,#590);
#586=PRODUCT_DEFINITION_SHAPE('',$,#592);
#587=PRODUCT_DEFINITION_SHAPE('',$,#593);
#588=PRODUCT_DEFINITION_SHAPE($,$,#15);
#589=SHAPE_REPRESENTATION('',(#331,#377),#578);
#590=SHAPE_REPRESENTATION('',(#376),#579);
#591=PRODUCT_DEFINITION_CONTEXT('part definition',#599,'design');
#592=PRODUCT_DEFINITION('Product','Product',#594,#591);
#593=PRODUCT_DEFINITION('*S0','*S0',#595,#591);
#594=PRODUCT_DEFINITION_FORMATION('',$,#601);
#595=PRODUCT_DEFINITION_FORMATION('',$,#602);
#596=PRODUCT_RELATED_PRODUCT_CATEGORY('Product','Product',(#601));
#597=PRODUCT_RELATED_PRODUCT_CATEGORY('*S0','*S0',(#602));
#598=APPLICATION_PROTOCOL_DEFINITION('international standard',
'automotive_design',2009,#599);
#599=APPLICATION_CONTEXT(
'Core Data for Automotive Mechanical Design Process');
#600=PRODUCT_CONTEXT('part definition',#599,'mechanical');
#601=PRODUCT('Product','Product',$,(#600));
#602=PRODUCT('*S0','*S0',$,(#600));
#603=PRESENTATION_STYLE_ASSIGNMENT((#604));
#604=SURFACE_STYLE_USAGE(.BOTH.,#605);
#605=SURFACE_SIDE_STYLE('',(#606));
#606=SURFACE_STYLE_FILL_AREA(#607);
#607=FILL_AREA_STYLE('',(#608));
#608=FILL_AREA_STYLE_COLOUR('',#609);
#609=COLOUR_RGB('',0.866666666666667,0.866666666666667,0.866666666666667);
ENDSEC;
END-ISO-10303-21;
