ISO-10303-21;
HEADER;
/* Generated by software containing ST-Developer
 * from STEP Tools, Inc. (www.steptools.com) 
 */

FILE_DESCRIPTION(
/* description */ (''),
/* implementation_level */ '2;1');

FILE_NAME(
/* name */ '19602.HG0X_3D.stp',
/* time_stamp */ '2024-12-12T07:55:03+01:00',
/* author */ ('CAD'),
/* organization */ (''),
/* preprocessor_version */ 'ST-DEVELOPER v20',
/* originating_system */ 'AutoCAD Mechanical',
/* authorisation */ '');

FILE_SCHEMA (('AUTOMOTIVE_DESIGN { 1 0 10303 214 3 1 1 }'));
ENDSEC;

DATA;
#10=MECHANICAL_DESIGN_GEOMETRIC_PRESENTATION_REPRESENTATION('',(#14,#15),
#551);
#11=PRESENTATION_LAYER_ASSIGNMENT('2','ROHR',(#16,#17));
#12=SHAPE_REPRESENTATION_RELATIONSHIP('SRR','None',#557,#13);
#13=ADVANCED_BREP_SHAPE_REPRESENTATION('',(#16,#17),#550);
#14=STYLED_ITEM('',(#566),#16);
#15=STYLED_ITEM('',(#566),#17);
#16=MANIFOLD_SOLID_BREP('C5A',#300);
#17=MANIFOLD_SOLID_BREP('C6E',#301);
#18=FACE_BOUND('',#61,.T.);
#19=FACE_BOUND('',#64,.T.);
#20=PLANE('',#326);
#21=PLANE('',#329);
#22=CONICAL_SURFACE('',#311,113.914097178868,0.489311766589313);
#23=CONICAL_SURFACE('',#313,120.994315851377,1.0814845602057);
#24=CONICAL_SURFACE('',#315,116.473801174099,0.489311766589321);
#25=CONICAL_SURFACE('',#324,109.068095446808,0.0872664625997187);
#26=CONICAL_SURFACE('',#328,106.16255668237,0.0872664625997237);
#27=CONICAL_SURFACE('',#339,128.65868716838,0.442350400145309);
#28=CONICAL_SURFACE('',#341,120.531928031454,1.13078541866107);
#29=CONICAL_SURFACE('',#343,125.039699100534,0.442350400145313);
#30=TOROIDAL_SURFACE('',#307,119.500000000002,12.9000000000019);
#31=TOROIDAL_SURFACE('',#318,119.5,9.99999999999977);
#32=TOROIDAL_SURFACE('',#335,120.500000000002,15.9999999999981);
#33=TOROIDAL_SURFACE('',#346,120.5,12.0000000000003);
#34=FACE_OUTER_BOUND('',#52,.T.);
#35=FACE_OUTER_BOUND('',#53,.T.);
#36=FACE_OUTER_BOUND('',#54,.T.);
#37=FACE_OUTER_BOUND('',#55,.T.);
#38=FACE_OUTER_BOUND('',#56,.T.);
#39=FACE_OUTER_BOUND('',#57,.T.);
#40=FACE_OUTER_BOUND('',#58,.T.);
#41=FACE_OUTER_BOUND('',#59,.T.);
#42=FACE_OUTER_BOUND('',#60,.T.);
#43=FACE_OUTER_BOUND('',#62,.T.);
#44=FACE_OUTER_BOUND('',#63,.T.);
#45=FACE_OUTER_BOUND('',#65,.T.);
#46=FACE_OUTER_BOUND('',#66,.T.);
#47=FACE_OUTER_BOUND('',#67,.T.);
#48=FACE_OUTER_BOUND('',#68,.T.);
#49=FACE_OUTER_BOUND('',#69,.T.);
#50=FACE_OUTER_BOUND('',#70,.T.);
#51=FACE_OUTER_BOUND('',#71,.T.);
#52=EDGE_LOOP('',(#194,#195,#196,#197,#198));
#53=EDGE_LOOP('',(#199,#200,#201,#202,#203,#204));
#54=EDGE_LOOP('',(#205,#206,#207,#208,#209));
#55=EDGE_LOOP('',(#210,#211,#212,#213));
#56=EDGE_LOOP('',(#214,#215,#216,#217,#218));
#57=EDGE_LOOP('',(#219,#220,#221,#222,#223,#224));
#58=EDGE_LOOP('',(#225,#226,#227,#228,#229));
#59=EDGE_LOOP('',(#230,#231,#232,#233));
#60=EDGE_LOOP('',(#234));
#61=EDGE_LOOP('',(#235));
#62=EDGE_LOOP('',(#236,#237,#238,#239));
#63=EDGE_LOOP('',(#240));
#64=EDGE_LOOP('',(#241));
#65=EDGE_LOOP('',(#242,#243,#244,#245,#246));
#66=EDGE_LOOP('',(#247,#248,#249,#250,#251,#252));
#67=EDGE_LOOP('',(#253,#254,#255,#256,#257));
#68=EDGE_LOOP('',(#258,#259,#260,#261));
#69=EDGE_LOOP('',(#262,#263,#264,#265,#266));
#70=EDGE_LOOP('',(#267,#268,#269,#270,#271,#272));
#71=EDGE_LOOP('',(#273,#274,#275,#276,#277));
#72=LINE('',#466,#84);
#73=LINE('',#478,#85);
#74=LINE('',#483,#86);
#75=LINE('',#488,#87);
#76=LINE('',#499,#88);
#77=LINE('',#503,#89);
#78=LINE('',#508,#90);
#79=LINE('',#518,#91);
#80=LINE('',#529,#92);
#81=LINE('',#532,#93);
#82=LINE('',#536,#94);
#83=LINE('',#547,#95);
#84=VECTOR('',#357,106.6);
#85=VECTOR('',#372,113.914097178868);
#86=VECTOR('',#379,120.994315851377);
#87=VECTOR('',#384,116.473801174099);
#88=VECTOR('',#399,109.5);
#89=VECTOR('',#404,109.068095446808);
#90=VECTOR('',#411,106.16255668237);
#91=VECTOR('',#422,136.5);
#92=VECTOR('',#437,128.65868716838);
#93=VECTOR('',#440,120.531928031454);
#94=VECTOR('',#445,125.039699100534);
#95=VECTOR('',#460,132.5);
#96=CIRCLE('',#304,106.6);
#97=CIRCLE('',#305,106.6);
#98=CIRCLE('',#306,106.6);
#99=CIRCLE('',#308,108.113730503974);
#100=CIRCLE('',#309,108.113730503974);
#101=CIRCLE('',#310,12.9000000000019);
#102=CIRCLE('',#312,119.714463853762);
#103=CIRCLE('',#314,122.274167848993);
#104=CIRCLE('',#316,110.673434499205);
#105=CIRCLE('',#317,110.673434499205);
#106=CIRCLE('',#319,9.99999999999977);
#107=CIRCLE('',#320,109.5);
#108=CIRCLE('',#321,109.5);
#109=CIRCLE('',#323,109.5);
#110=CIRCLE('',#325,108.636190893617);
#111=CIRCLE('',#327,105.725113364741);
#112=CIRCLE('',#330,136.5);
#113=CIRCLE('',#331,132.5);
#114=CIRCLE('',#333,136.5);
#115=CIRCLE('',#334,136.5);
#116=CIRCLE('',#336,134.975952271383);
#117=CIRCLE('',#337,134.975952271383);
#118=CIRCLE('',#338,15.9999999999981);
#119=CIRCLE('',#340,122.341422065377);
#120=CIRCLE('',#342,118.722433997531);
#121=CIRCLE('',#344,131.356964203538);
#122=CIRCLE('',#345,131.356964203538);
#123=CIRCLE('',#347,12.0000000000003);
#124=CIRCLE('',#348,132.5);
#125=CIRCLE('',#349,132.5);
#126=VERTEX_POINT('',#463);
#127=VERTEX_POINT('',#465);
#128=VERTEX_POINT('',#467);
#129=VERTEX_POINT('',#471);
#130=VERTEX_POINT('',#472);
#131=VERTEX_POINT('',#477);
#132=VERTEX_POINT('',#481);
#133=VERTEX_POINT('',#485);
#134=VERTEX_POINT('',#486);
#135=VERTEX_POINT('',#491);
#136=VERTEX_POINT('',#493);
#137=VERTEX_POINT('',#497);
#138=VERTEX_POINT('',#501);
#139=VERTEX_POINT('',#505);
#140=VERTEX_POINT('',#510);
#141=VERTEX_POINT('',#512);
#142=VERTEX_POINT('',#515);
#143=VERTEX_POINT('',#516);
#144=VERTEX_POINT('',#521);
#145=VERTEX_POINT('',#522);
#146=VERTEX_POINT('',#527);
#147=VERTEX_POINT('',#531);
#148=VERTEX_POINT('',#535);
#149=VERTEX_POINT('',#537);
#150=VERTEX_POINT('',#541);
#151=VERTEX_POINT('',#543);
#152=EDGE_CURVE('',#126,#126,#96,.T.);
#153=EDGE_CURVE('',#126,#127,#72,.T.);
#154=EDGE_CURVE('',#128,#127,#97,.T.);
#155=EDGE_CURVE('',#127,#128,#98,.T.);
#156=EDGE_CURVE('',#129,#130,#99,.T.);
#157=EDGE_CURVE('',#130,#129,#100,.T.);
#158=EDGE_CURVE('',#130,#128,#101,.T.);
#159=EDGE_CURVE('',#129,#131,#73,.T.);
#160=EDGE_CURVE('',#131,#131,#102,.T.);
#161=EDGE_CURVE('',#132,#132,#103,.T.);
#162=EDGE_CURVE('',#132,#131,#74,.T.);
#163=EDGE_CURVE('',#133,#134,#104,.T.);
#164=EDGE_CURVE('',#133,#132,#75,.T.);
#165=EDGE_CURVE('',#134,#133,#105,.T.);
#166=EDGE_CURVE('',#134,#135,#106,.T.);
#167=EDGE_CURVE('',#136,#135,#107,.T.);
#168=EDGE_CURVE('',#135,#136,#108,.T.);
#169=EDGE_CURVE('',#137,#137,#109,.T.);
#170=EDGE_CURVE('',#137,#136,#76,.T.);
#171=EDGE_CURVE('',#138,#138,#110,.T.);
#172=EDGE_CURVE('',#138,#137,#77,.T.);
#173=EDGE_CURVE('',#139,#139,#111,.T.);
#174=EDGE_CURVE('',#139,#126,#78,.T.);
#175=EDGE_CURVE('',#140,#140,#112,.T.);
#176=EDGE_CURVE('',#141,#141,#113,.T.);
#177=EDGE_CURVE('',#142,#143,#114,.T.);
#178=EDGE_CURVE('',#142,#140,#79,.T.);
#179=EDGE_CURVE('',#143,#142,#115,.T.);
#180=EDGE_CURVE('',#144,#145,#116,.T.);
#181=EDGE_CURVE('',#145,#144,#117,.T.);
#182=EDGE_CURVE('',#145,#143,#118,.T.);
#183=EDGE_CURVE('',#146,#146,#119,.T.);
#184=EDGE_CURVE('',#146,#144,#80,.T.);
#185=EDGE_CURVE('',#146,#147,#81,.T.);
#186=EDGE_CURVE('',#147,#147,#120,.T.);
#187=EDGE_CURVE('',#147,#148,#82,.T.);
#188=EDGE_CURVE('',#149,#148,#121,.T.);
#189=EDGE_CURVE('',#148,#149,#122,.T.);
#190=EDGE_CURVE('',#149,#150,#123,.T.);
#191=EDGE_CURVE('',#151,#150,#124,.T.);
#192=EDGE_CURVE('',#150,#151,#125,.T.);
#193=EDGE_CURVE('',#151,#141,#83,.T.);
#194=ORIENTED_EDGE('',*,*,#152,.T.);
#195=ORIENTED_EDGE('',*,*,#153,.T.);
#196=ORIENTED_EDGE('',*,*,#154,.F.);
#197=ORIENTED_EDGE('',*,*,#155,.F.);
#198=ORIENTED_EDGE('',*,*,#153,.F.);
#199=ORIENTED_EDGE('',*,*,#156,.F.);
#200=ORIENTED_EDGE('',*,*,#157,.F.);
#201=ORIENTED_EDGE('',*,*,#158,.T.);
#202=ORIENTED_EDGE('',*,*,#154,.T.);
#203=ORIENTED_EDGE('',*,*,#155,.T.);
#204=ORIENTED_EDGE('',*,*,#158,.F.);
#205=ORIENTED_EDGE('',*,*,#156,.T.);
#206=ORIENTED_EDGE('',*,*,#157,.T.);
#207=ORIENTED_EDGE('',*,*,#159,.T.);
#208=ORIENTED_EDGE('',*,*,#160,.F.);
#209=ORIENTED_EDGE('',*,*,#159,.F.);
#210=ORIENTED_EDGE('',*,*,#161,.F.);
#211=ORIENTED_EDGE('',*,*,#162,.T.);
#212=ORIENTED_EDGE('',*,*,#160,.T.);
#213=ORIENTED_EDGE('',*,*,#162,.F.);
#214=ORIENTED_EDGE('',*,*,#163,.F.);
#215=ORIENTED_EDGE('',*,*,#164,.T.);
#216=ORIENTED_EDGE('',*,*,#161,.T.);
#217=ORIENTED_EDGE('',*,*,#164,.F.);
#218=ORIENTED_EDGE('',*,*,#165,.F.);
#219=ORIENTED_EDGE('',*,*,#163,.T.);
#220=ORIENTED_EDGE('',*,*,#166,.T.);
#221=ORIENTED_EDGE('',*,*,#167,.F.);
#222=ORIENTED_EDGE('',*,*,#168,.F.);
#223=ORIENTED_EDGE('',*,*,#166,.F.);
#224=ORIENTED_EDGE('',*,*,#165,.T.);
#225=ORIENTED_EDGE('',*,*,#169,.F.);
#226=ORIENTED_EDGE('',*,*,#170,.T.);
#227=ORIENTED_EDGE('',*,*,#167,.T.);
#228=ORIENTED_EDGE('',*,*,#168,.T.);
#229=ORIENTED_EDGE('',*,*,#170,.F.);
#230=ORIENTED_EDGE('',*,*,#171,.F.);
#231=ORIENTED_EDGE('',*,*,#172,.T.);
#232=ORIENTED_EDGE('',*,*,#169,.T.);
#233=ORIENTED_EDGE('',*,*,#172,.F.);
#234=ORIENTED_EDGE('',*,*,#171,.T.);
#235=ORIENTED_EDGE('',*,*,#173,.F.);
#236=ORIENTED_EDGE('',*,*,#173,.T.);
#237=ORIENTED_EDGE('',*,*,#174,.T.);
#238=ORIENTED_EDGE('',*,*,#152,.F.);
#239=ORIENTED_EDGE('',*,*,#174,.F.);
#240=ORIENTED_EDGE('',*,*,#175,.F.);
#241=ORIENTED_EDGE('',*,*,#176,.T.);
#242=ORIENTED_EDGE('',*,*,#177,.F.);
#243=ORIENTED_EDGE('',*,*,#178,.T.);
#244=ORIENTED_EDGE('',*,*,#175,.T.);
#245=ORIENTED_EDGE('',*,*,#178,.F.);
#246=ORIENTED_EDGE('',*,*,#179,.F.);
#247=ORIENTED_EDGE('',*,*,#180,.F.);
#248=ORIENTED_EDGE('',*,*,#181,.F.);
#249=ORIENTED_EDGE('',*,*,#182,.T.);
#250=ORIENTED_EDGE('',*,*,#179,.T.);
#251=ORIENTED_EDGE('',*,*,#177,.T.);
#252=ORIENTED_EDGE('',*,*,#182,.F.);
#253=ORIENTED_EDGE('',*,*,#183,.F.);
#254=ORIENTED_EDGE('',*,*,#184,.T.);
#255=ORIENTED_EDGE('',*,*,#180,.T.);
#256=ORIENTED_EDGE('',*,*,#181,.T.);
#257=ORIENTED_EDGE('',*,*,#184,.F.);
#258=ORIENTED_EDGE('',*,*,#183,.T.);
#259=ORIENTED_EDGE('',*,*,#185,.T.);
#260=ORIENTED_EDGE('',*,*,#186,.F.);
#261=ORIENTED_EDGE('',*,*,#185,.F.);
#262=ORIENTED_EDGE('',*,*,#186,.T.);
#263=ORIENTED_EDGE('',*,*,#187,.T.);
#264=ORIENTED_EDGE('',*,*,#188,.F.);
#265=ORIENTED_EDGE('',*,*,#189,.F.);
#266=ORIENTED_EDGE('',*,*,#187,.F.);
#267=ORIENTED_EDGE('',*,*,#189,.T.);
#268=ORIENTED_EDGE('',*,*,#190,.T.);
#269=ORIENTED_EDGE('',*,*,#191,.F.);
#270=ORIENTED_EDGE('',*,*,#192,.F.);
#271=ORIENTED_EDGE('',*,*,#190,.F.);
#272=ORIENTED_EDGE('',*,*,#188,.T.);
#273=ORIENTED_EDGE('',*,*,#191,.T.);
#274=ORIENTED_EDGE('',*,*,#192,.T.);
#275=ORIENTED_EDGE('',*,*,#193,.T.);
#276=ORIENTED_EDGE('',*,*,#176,.F.);
#277=ORIENTED_EDGE('',*,*,#193,.F.);
#278=CYLINDRICAL_SURFACE('',#303,106.6);
#279=CYLINDRICAL_SURFACE('',#322,109.5);
#280=CYLINDRICAL_SURFACE('',#332,136.5);
#281=CYLINDRICAL_SURFACE('',#350,132.5);
#282=ADVANCED_FACE('',(#34),#278,.F.);
#283=ADVANCED_FACE('',(#35),#30,.T.);
#284=ADVANCED_FACE('',(#36),#22,.F.);
#285=ADVANCED_FACE('',(#37),#23,.T.);
#286=ADVANCED_FACE('',(#38),#24,.T.);
#287=ADVANCED_FACE('',(#39),#31,.F.);
#288=ADVANCED_FACE('',(#40),#279,.T.);
#289=ADVANCED_FACE('',(#41),#25,.T.);
#290=ADVANCED_FACE('',(#42,#18),#20,.T.);
#291=ADVANCED_FACE('',(#43),#26,.F.);
#292=ADVANCED_FACE('',(#44,#19),#21,.T.);
#293=ADVANCED_FACE('',(#45),#280,.T.);
#294=ADVANCED_FACE('',(#46),#32,.T.);
#295=ADVANCED_FACE('',(#47),#27,.T.);
#296=ADVANCED_FACE('',(#48),#28,.F.);
#297=ADVANCED_FACE('',(#49),#29,.F.);
#298=ADVANCED_FACE('',(#50),#33,.F.);
#299=ADVANCED_FACE('',(#51),#281,.F.);
#300=CLOSED_SHELL('',(#282,#283,#284,#285,#286,#287,#288,#289,#290,#291));
#301=CLOSED_SHELL('',(#292,#293,#294,#295,#296,#297,#298,#299));
#302=AXIS2_PLACEMENT_3D('',#461,#351,#352);
#303=AXIS2_PLACEMENT_3D('',#462,#353,#354);
#304=AXIS2_PLACEMENT_3D('',#464,#355,#356);
#305=AXIS2_PLACEMENT_3D('',#468,#358,#359);
#306=AXIS2_PLACEMENT_3D('',#469,#360,#361);
#307=AXIS2_PLACEMENT_3D('',#470,#362,#363);
#308=AXIS2_PLACEMENT_3D('',#473,#364,#365);
#309=AXIS2_PLACEMENT_3D('',#474,#366,#367);
#310=AXIS2_PLACEMENT_3D('',#475,#368,#369);
#311=AXIS2_PLACEMENT_3D('',#476,#370,#371);
#312=AXIS2_PLACEMENT_3D('',#479,#373,#374);
#313=AXIS2_PLACEMENT_3D('',#480,#375,#376);
#314=AXIS2_PLACEMENT_3D('',#482,#377,#378);
#315=AXIS2_PLACEMENT_3D('',#484,#380,#381);
#316=AXIS2_PLACEMENT_3D('',#487,#382,#383);
#317=AXIS2_PLACEMENT_3D('',#489,#385,#386);
#318=AXIS2_PLACEMENT_3D('',#490,#387,#388);
#319=AXIS2_PLACEMENT_3D('',#492,#389,#390);
#320=AXIS2_PLACEMENT_3D('',#494,#391,#392);
#321=AXIS2_PLACEMENT_3D('',#495,#393,#394);
#322=AXIS2_PLACEMENT_3D('',#496,#395,#396);
#323=AXIS2_PLACEMENT_3D('',#498,#397,#398);
#324=AXIS2_PLACEMENT_3D('',#500,#400,#401);
#325=AXIS2_PLACEMENT_3D('',#502,#402,#403);
#326=AXIS2_PLACEMENT_3D('',#504,#405,#406);
#327=AXIS2_PLACEMENT_3D('',#506,#407,#408);
#328=AXIS2_PLACEMENT_3D('',#507,#409,#410);
#329=AXIS2_PLACEMENT_3D('',#509,#412,#413);
#330=AXIS2_PLACEMENT_3D('',#511,#414,#415);
#331=AXIS2_PLACEMENT_3D('',#513,#416,#417);
#332=AXIS2_PLACEMENT_3D('',#514,#418,#419);
#333=AXIS2_PLACEMENT_3D('',#517,#420,#421);
#334=AXIS2_PLACEMENT_3D('',#519,#423,#424);
#335=AXIS2_PLACEMENT_3D('',#520,#425,#426);
#336=AXIS2_PLACEMENT_3D('',#523,#427,#428);
#337=AXIS2_PLACEMENT_3D('',#524,#429,#430);
#338=AXIS2_PLACEMENT_3D('',#525,#431,#432);
#339=AXIS2_PLACEMENT_3D('',#526,#433,#434);
#340=AXIS2_PLACEMENT_3D('',#528,#435,#436);
#341=AXIS2_PLACEMENT_3D('',#530,#438,#439);
#342=AXIS2_PLACEMENT_3D('',#533,#441,#442);
#343=AXIS2_PLACEMENT_3D('',#534,#443,#444);
#344=AXIS2_PLACEMENT_3D('',#538,#446,#447);
#345=AXIS2_PLACEMENT_3D('',#539,#448,#449);
#346=AXIS2_PLACEMENT_3D('',#540,#450,#451);
#347=AXIS2_PLACEMENT_3D('',#542,#452,#453);
#348=AXIS2_PLACEMENT_3D('',#544,#454,#455);
#349=AXIS2_PLACEMENT_3D('',#545,#456,#457);
#350=AXIS2_PLACEMENT_3D('',#546,#458,#459);
#351=DIRECTION('axis',(0.,0.,1.));
#352=DIRECTION('refdir',(1.,0.,0.));
#353=DIRECTION('center_axis',(-7.33463469171717E-16,-6.12323399573677E-17,
-1.));
#354=DIRECTION('ref_axis',(1.,-4.1004804205346E-32,-6.69659272108418E-16));
#355=DIRECTION('center_axis',(-7.33463469171717E-16,-6.12323399573677E-17,
-1.));
#356=DIRECTION('ref_axis',(1.,-4.49116844906328E-32,-7.33463469171717E-16));
#357=DIRECTION('',(7.33463469171717E-16,6.12323399573677E-17,1.));
#358=DIRECTION('center_axis',(-7.33463469171717E-16,-6.12323399573677E-17,
-1.));
#359=DIRECTION('ref_axis',(1.,-4.49116844906328E-32,-7.33463469171717E-16));
#360=DIRECTION('center_axis',(-7.33463469171717E-16,-6.12323399573677E-17,
-1.));
#361=DIRECTION('ref_axis',(1.,-4.49116844906328E-32,-7.33463469171717E-16));
#362=DIRECTION('center_axis',(-7.33463469171717E-16,-6.12323399573677E-17,
-1.));
#363=DIRECTION('ref_axis',(0.,1.,0.));
#364=DIRECTION('center_axis',(-7.33463469171717E-16,-6.12323399573677E-17,
-1.));
#365=DIRECTION('ref_axis',(1.,-4.49116844906328E-32,-7.33463469171717E-16));
#366=DIRECTION('center_axis',(-7.33463469171717E-16,-6.12323399573677E-17,
-1.));
#367=DIRECTION('ref_axis',(1.,-4.49116844906328E-32,-7.33463469171717E-16));
#368=DIRECTION('center_axis',(-1.,4.49116844906328E-32,7.33463469171717E-16));
#369=DIRECTION('ref_axis',(0.,-1.,6.12323399573677E-17));
#370=DIRECTION('center_axis',(7.33463469171717E-16,6.12323399573677E-17,
1.));
#371=DIRECTION('ref_axis',(1.,-4.1004804205346E-32,-6.69659272108418E-16));
#372=DIRECTION('',(-0.470018525806899,1.11607794257005E-16,0.882656550079536));
#373=DIRECTION('center_axis',(-7.33463469171717E-16,-6.12323399573677E-17,
-1.));
#374=DIRECTION('ref_axis',(1.,-4.49116844906328E-32,-7.33463469171717E-16));
#375=DIRECTION('center_axis',(-7.33463469171717E-16,-6.12323399573677E-17,
-1.));
#376=DIRECTION('ref_axis',(1.,-4.1004804205346E-32,-6.69659272108418E-16));
#377=DIRECTION('center_axis',(-7.33463469171717E-16,-6.12323399573677E-17,
-1.));
#378=DIRECTION('ref_axis',(1.,-4.49116844906328E-32,-7.33463469171717E-16));
#379=DIRECTION('',(0.88265655007959,-7.93139177216788E-17,0.470018525806799));
#380=DIRECTION('center_axis',(7.33463469171717E-16,6.12323399573677E-17,
1.));
#381=DIRECTION('ref_axis',(1.,-4.1004804205346E-32,-6.69659272108418E-16));
#382=DIRECTION('center_axis',(-7.33463469171717E-16,-6.12323399573677E-17,
-1.));
#383=DIRECTION('ref_axis',(1.,-4.49116844906328E-32,-7.33463469171717E-16));
#384=DIRECTION('',(-0.470018525806906,1.11607794257006E-16,0.882656550079533));
#385=DIRECTION('center_axis',(-7.33463469171717E-16,-6.12323399573677E-17,
-1.));
#386=DIRECTION('ref_axis',(1.,-4.49116844906328E-32,-7.33463469171717E-16));
#387=DIRECTION('center_axis',(-7.33463469171717E-16,-6.12323399573677E-17,
-1.));
#388=DIRECTION('ref_axis',(0.,1.,0.));
#389=DIRECTION('center_axis',(-1.,4.49116844906328E-32,7.33463469171717E-16));
#390=DIRECTION('ref_axis',(0.,-1.,6.12323399573677E-17));
#391=DIRECTION('center_axis',(-7.33463469171717E-16,-6.12323399573677E-17,
-1.));
#392=DIRECTION('ref_axis',(1.,-4.49116844906328E-32,-7.33463469171717E-16));
#393=DIRECTION('center_axis',(-7.33463469171717E-16,-6.12323399573677E-17,
-1.));
#394=DIRECTION('ref_axis',(1.,-4.49116844906328E-32,-7.33463469171717E-16));
#395=DIRECTION('center_axis',(-7.33463469171717E-16,-6.12323399573677E-17,
-1.));
#396=DIRECTION('ref_axis',(1.,-4.1004804205346E-32,-6.69659272108418E-16));
#397=DIRECTION('center_axis',(-7.33463469171717E-16,-6.12323399573677E-17,
-1.));
#398=DIRECTION('ref_axis',(1.,-4.49116844906328E-32,-7.33463469171717E-16));
#399=DIRECTION('',(7.33463469171717E-16,6.12323399573677E-17,1.));
#400=DIRECTION('center_axis',(7.33463469171717E-16,6.12323399573677E-17,
1.));
#401=DIRECTION('ref_axis',(1.,-4.1004804205346E-32,-6.69659272108418E-16));
#402=DIRECTION('center_axis',(-7.33463469171717E-16,-6.12323399573677E-17,
-1.));
#403=DIRECTION('ref_axis',(1.,-4.49116844906328E-32,-7.33463469171717E-16));
#404=DIRECTION('',(-0.0871557427476597,7.16728325556042E-17,0.996194698091745));
#405=DIRECTION('center_axis',(-7.33463469171717E-16,-6.12323399573677E-17,
-1.));
#406=DIRECTION('ref_axis',(0.,1.,-6.12323399573677E-17));
#407=DIRECTION('center_axis',(-7.33463469171717E-16,-6.12323399573677E-17,
-1.));
#408=DIRECTION('ref_axis',(1.,-4.49116844906328E-32,-7.33463469171717E-16));
#409=DIRECTION('center_axis',(7.33463469171717E-16,6.12323399573677E-17,
1.));
#410=DIRECTION('ref_axis',(1.,-4.1004804205346E-32,-6.69659272108418E-16));
#411=DIRECTION('',(-0.0871557427476646,7.16728325556048E-17,0.996194698091745));
#412=DIRECTION('center_axis',(0.,6.12323399573677E-17,1.));
#413=DIRECTION('ref_axis',(0.,-1.,6.12323399573677E-17));
#414=DIRECTION('center_axis',(0.,-6.12323399573677E-17,-1.));
#415=DIRECTION('ref_axis',(1.,0.,0.));
#416=DIRECTION('center_axis',(0.,-6.12323399573677E-17,-1.));
#417=DIRECTION('ref_axis',(1.,0.,0.));
#418=DIRECTION('center_axis',(0.,-6.12323399573677E-17,-1.));
#419=DIRECTION('ref_axis',(1.,0.,0.));
#420=DIRECTION('center_axis',(0.,-6.12323399573677E-17,-1.));
#421=DIRECTION('ref_axis',(1.,0.,0.));
#422=DIRECTION('',(0.,6.12323399573677E-17,1.));
#423=DIRECTION('center_axis',(0.,-6.12323399573677E-17,-1.));
#424=DIRECTION('ref_axis',(1.,0.,0.));
#425=DIRECTION('center_axis',(0.,-6.12323399573677E-17,-1.));
#426=DIRECTION('ref_axis',(0.,1.,0.));
#427=DIRECTION('center_axis',(0.,-6.12323399573677E-17,-1.));
#428=DIRECTION('ref_axis',(1.,0.,0.));
#429=DIRECTION('center_axis',(0.,-6.12323399573677E-17,-1.));
#430=DIRECTION('ref_axis',(1.,0.,0.));
#431=DIRECTION('center_axis',(-1.,0.,0.));
#432=DIRECTION('ref_axis',(0.,-1.,6.12323399573677E-17));
#433=DIRECTION('center_axis',(0.,6.12323399573677E-17,1.));
#434=DIRECTION('ref_axis',(1.,0.,0.));
#435=DIRECTION('center_axis',(0.,-6.12323399573677E-17,-1.));
#436=DIRECTION('ref_axis',(1.,0.,0.));
#437=DIRECTION('',(-0.428064815023374,1.07761427583776E-16,0.90374803686592));
#438=DIRECTION('center_axis',(0.,-6.12323399573677E-17,-1.));
#439=DIRECTION('ref_axis',(1.,0.,0.));
#440=DIRECTION('',(0.904747016961448,-8.47176794000822E-17,0.425949334192885));
#441=DIRECTION('center_axis',(0.,-6.12323399573677E-17,-1.));
#442=DIRECTION('ref_axis',(1.,0.,0.));
#443=DIRECTION('center_axis',(0.,6.12323399573677E-17,1.));
#444=DIRECTION('ref_axis',(1.,0.,0.));
#445=DIRECTION('',(-0.428064815023377,1.07761427583776E-16,0.903748036865919));
#446=DIRECTION('center_axis',(0.,-6.12323399573677E-17,-1.));
#447=DIRECTION('ref_axis',(1.,0.,0.));
#448=DIRECTION('center_axis',(0.,-6.12323399573677E-17,-1.));
#449=DIRECTION('ref_axis',(1.,0.,0.));
#450=DIRECTION('center_axis',(0.,-6.12323399573677E-17,-1.));
#451=DIRECTION('ref_axis',(0.,1.,0.));
#452=DIRECTION('center_axis',(-1.,0.,0.));
#453=DIRECTION('ref_axis',(0.,-1.,6.12323399573677E-17));
#454=DIRECTION('center_axis',(0.,-6.12323399573677E-17,-1.));
#455=DIRECTION('ref_axis',(1.,0.,0.));
#456=DIRECTION('center_axis',(0.,-6.12323399573677E-17,-1.));
#457=DIRECTION('ref_axis',(1.,0.,0.));
#458=DIRECTION('center_axis',(0.,-6.12323399573677E-17,-1.));
#459=DIRECTION('ref_axis',(1.,0.,0.));
#460=DIRECTION('',(0.,6.12323399573677E-17,1.));
#461=CARTESIAN_POINT('',(0.,0.,0.));
#462=CARTESIAN_POINT('Origin',(1.13686837721616E-13,5.117583855323E-15,
83.5764868513282));
#463=CARTESIAN_POINT('',(-106.6,1.36670582784842E-14,9.9999999999954));
#464=CARTESIAN_POINT('Origin',(0.,6.12323399573398E-16,9.99999999999545));
#465=CARTESIAN_POINT('',(-106.6,2.26775791899834E-14,157.152973702661));
#466=CARTESIAN_POINT('',(-106.6,1.81723187342338E-14,83.5764868513282));
#467=CARTESIAN_POINT('',(1.13686837721616E-13,-106.6,157.152973702661));
#468=CARTESIAN_POINT('Origin',(1.13686837721616E-13,9.62284431107259E-15,
157.152973702661));
#469=CARTESIAN_POINT('Origin',(1.13686837721616E-13,9.62284431107259E-15,
157.152973702661));
#470=CARTESIAN_POINT('Origin',(1.13686837721616E-13,9.62284431107256E-15,
157.15297370266));
#471=CARTESIAN_POINT('',(-108.113730503974,2.3234224022274E-14,163.21621268557));
#472=CARTESIAN_POINT('',(1.13686837721616E-13,-108.113730503974,163.21621268557));
#473=CARTESIAN_POINT('Origin',(1.13686837721616E-13,9.99411062171684E-15,
163.21621268557));
#474=CARTESIAN_POINT('Origin',(1.13686837721616E-13,9.99411062171684E-15,
163.21621268557));
#475=CARTESIAN_POINT('Origin',(1.13686837721616E-13,-119.500000000002,157.15297370266));
#476=CARTESIAN_POINT('Origin',(1.13686837721616E-13,1.06610910298579E-14,
174.108829374814));
#477=CARTESIAN_POINT('',(-119.714463853762,2.59888649350141E-14,185.001446064058));
#478=CARTESIAN_POINT('',(-113.914097178868,2.4611544478644E-14,174.108829374814));
#479=CARTESIAN_POINT('Origin',(1.13686837721616E-13,1.1328071437999E-14,
185.001446064058));
#480=CARTESIAN_POINT('Origin',(1.13686837721616E-13,1.12863399534692E-14,
184.319919201638));
#481=CARTESIAN_POINT('',(-122.274167848993,2.6218875296407E-14,183.638392339218));
#482=CARTESIAN_POINT('Origin',(1.13686837721616E-13,1.12446084689394E-14,
183.638392339218));
#483=CARTESIAN_POINT('',(-120.994315851377,2.61038701157105E-14,184.319919201638));
#484=CARTESIAN_POINT('Origin',(1.13686837721616E-13,1.05776280607984E-14,
172.745775649974));
#485=CARTESIAN_POINT('',(-110.673434499205,2.34642343836668E-14,161.85315896073));
#486=CARTESIAN_POINT('',(1.13686837721616E-13,-110.673434499205,161.85315896073));
#487=CARTESIAN_POINT('Origin',(1.13686837721616E-13,9.91064765265728E-15,
161.85315896073));
#488=CARTESIAN_POINT('',(-116.473801174099,2.48415548400369E-14,172.745775649974));
#489=CARTESIAN_POINT('Origin',(1.13686837721616E-13,9.91064765265728E-15,
161.85315896073));
#490=CARTESIAN_POINT('Origin',(1.13686837721616E-13,9.6228443110726E-15,
157.152973702661));
#491=CARTESIAN_POINT('',(1.13686837721616E-13,-109.5,157.152973702661));
#492=CARTESIAN_POINT('Origin',(1.13686837721616E-13,-119.5,157.152973702661));
#493=CARTESIAN_POINT('',(-109.5,2.30327267617361E-14,157.152973702661));
#494=CARTESIAN_POINT('Origin',(1.13686837721616E-13,9.62284431107259E-15,
157.152973702661));
#495=CARTESIAN_POINT('Origin',(1.13686837721616E-13,9.62284431107259E-15,
157.152973702661));
#496=CARTESIAN_POINT('Origin',(1.13686837721616E-13,5.11370733585941E-15,
83.5131784841111));
#497=CARTESIAN_POINT('',(-109.5,1.40144528113097E-14,9.87338326556113));
#498=CARTESIAN_POINT('Origin',(0.,6.04570360646228E-16,9.87338326556119));
#499=CARTESIAN_POINT('',(-109.5,1.85235897865229E-14,83.5131784841111));
#500=CARTESIAN_POINT('Origin',(0.,3.02285180323112E-16,4.93669163278059));
#501=CARTESIAN_POINT('',(-108.636190893617,1.33040963449428E-14,5.6843418860808E-14));
#502=CARTESIAN_POINT('Origin',(0.,0.,0.));
#503=CARTESIAN_POINT('',(-109.068095446808,1.36592745781263E-14,4.93669163278065));
#504=CARTESIAN_POINT('Origin',(105.725113364741,0.,0.));
#505=CARTESIAN_POINT('',(-105.725113364741,1.29475921671621E-14,1.13686837721616E-13));
#506=CARTESIAN_POINT('Origin',(0.,3.15544362088405E-30,5.6843418860808E-14));
#507=CARTESIAN_POINT('Origin',(0.,3.06161699786699E-16,4.99999999999773));
#508=CARTESIAN_POINT('',(-106.16255668237,1.33073252228231E-14,4.99999999999778));
#509=CARTESIAN_POINT('Origin',(136.5,1.83697019872103E-14,300.));
#510=CARTESIAN_POINT('',(-136.5,3.50861307955717E-14,300.));
#511=CARTESIAN_POINT('Origin',(2.27373675443232E-13,1.83697019872103E-14,
300.));
#512=CARTESIAN_POINT('',(-132.5,3.45962720759128E-14,300.));
#513=CARTESIAN_POINT('Origin',(2.27373675443232E-13,1.83697019872103E-14,
300.));
#514=CARTESIAN_POINT('Origin',(2.27373675443232E-13,1.58363492222208E-14,
258.627209628878));
#515=CARTESIAN_POINT('',(-136.5,3.00194252655928E-14,217.254419257756));
#516=CARTESIAN_POINT('',(2.27373675443232E-13,-136.5,217.254419257756));
#517=CARTESIAN_POINT('Origin',(2.27373675443232E-13,1.33029964572314E-14,
217.254419257756));
#518=CARTESIAN_POINT('',(-136.5,3.25527780305822E-14,258.627209628878));
#519=CARTESIAN_POINT('Origin',(2.27373675443232E-13,1.33029964572314E-14,
217.254419257756));
#520=CARTESIAN_POINT('Origin',(2.27373675443232E-13,1.33029964572314E-14,
217.254419257755));
#521=CARTESIAN_POINT('',(-134.975952271383,2.94154732573583E-14,210.439229910669));
#522=CARTESIAN_POINT('',(2.27373675443232E-13,-134.975952271383,210.439229910669));
#523=CARTESIAN_POINT('Origin',(2.27373675443232E-13,1.28856864662568E-14,
210.439229910669));
#524=CARTESIAN_POINT('Origin',(2.27373675443232E-13,1.28856864662568E-14,
210.439229910669));
#525=CARTESIAN_POINT('Origin',(2.27373675443232E-13,-120.500000000002,217.254419257755));
#526=CARTESIAN_POINT('Origin',(2.27373675443232E-13,1.20690142269952E-14,
197.101960098178));
#527=CARTESIAN_POINT('',(-122.341422065377,2.62348450812835E-14,183.764690285688));
#528=CARTESIAN_POINT('Origin',(2.27373675443232E-13,1.12523419877336E-14,
183.764690285688));
#529=CARTESIAN_POINT('',(-128.65868716838,2.78251591693209E-14,197.101960098178));
#530=CARTESIAN_POINT('Origin',(2.27373675443232E-13,1.13045057366054E-14,
184.616588954073));
#531=CARTESIAN_POINT('',(-118.722433997531,2.58959743636832E-14,185.468487622459));
#532=CARTESIAN_POINT('',(-120.531928031454,2.60654097224834E-14,184.616588954073));
#533=CARTESIAN_POINT('Origin',(2.27373675443232E-13,1.13566694854773E-14,
185.468487622459));
#534=CARTESIAN_POINT('Origin',(2.27373675443232E-13,1.21733417247388E-14,
198.80575743495));
#535=CARTESIAN_POINT('',(-131.356964203537,2.9076602539758E-14,212.143027247441));
#536=CARTESIAN_POINT('',(-125.039699100534,2.74862884517206E-14,198.80575743495));
#537=CARTESIAN_POINT('',(2.27373675443232E-13,-131.356964203538,212.143027247441));
#538=CARTESIAN_POINT('Origin',(2.27373675443232E-13,1.29900139640004E-14,
212.143027247441));
#539=CARTESIAN_POINT('Origin',(2.27373675443232E-13,1.29900139640004E-14,
212.143027247441));
#540=CARTESIAN_POINT('Origin',(2.27373675443232E-13,1.33029964572314E-14,
217.254419257756));
#541=CARTESIAN_POINT('',(2.27373675443232E-13,-132.5,217.254419257756));
#542=CARTESIAN_POINT('Origin',(2.27373675443232E-13,-120.5,217.254419257756));
#543=CARTESIAN_POINT('',(-132.5,2.95295665459338E-14,217.254419257756));
#544=CARTESIAN_POINT('Origin',(2.27373675443232E-13,1.33029964572314E-14,
217.254419257756));
#545=CARTESIAN_POINT('Origin',(2.27373675443232E-13,1.33029964572314E-14,
217.254419257756));
#546=CARTESIAN_POINT('Origin',(2.27373675443232E-13,1.58363492222208E-14,
258.627209628878));
#547=CARTESIAN_POINT('',(-132.5,3.20629193109233E-14,258.627209628878));
#548=UNCERTAINTY_MEASURE_WITH_UNIT(LENGTH_MEASURE(0.001),#552,
'DISTANCE_ACCURACY_VALUE',
'Maximum model space distance between geometric entities at asserted c
onnectivities');
#549=UNCERTAINTY_MEASURE_WITH_UNIT(LENGTH_MEASURE(0.001),#552,
'DISTANCE_ACCURACY_VALUE',
'Maximum model space distance between geometric entities at asserted c
onnectivities');
#550=(
GEOMETRIC_REPRESENTATION_CONTEXT(3)
GLOBAL_UNCERTAINTY_ASSIGNED_CONTEXT((#548))
GLOBAL_UNIT_ASSIGNED_CONTEXT((#552,#553,#554))
REPRESENTATION_CONTEXT('','3D')
);
#551=(
GEOMETRIC_REPRESENTATION_CONTEXT(3)
GLOBAL_UNCERTAINTY_ASSIGNED_CONTEXT((#549))
GLOBAL_UNIT_ASSIGNED_CONTEXT((#552,#553,#554))
REPRESENTATION_CONTEXT('','3D')
);
#552=(
LENGTH_UNIT()
NAMED_UNIT(*)
SI_UNIT(.CENTI.,.METRE.)
);
#553=(
NAMED_UNIT(*)
PLANE_ANGLE_UNIT()
SI_UNIT($,.RADIAN.)
);
#554=(
NAMED_UNIT(*)
SI_UNIT($,.STERADIAN.)
SOLID_ANGLE_UNIT()
);
#555=SHAPE_DEFINITION_REPRESENTATION(#556,#557);
#556=PRODUCT_DEFINITION_SHAPE('',$,#559);
#557=SHAPE_REPRESENTATION('',(#302),#550);
#558=PRODUCT_DEFINITION_CONTEXT('part definition',#563,'design');
#559=PRODUCT_DEFINITION('Product','Product',#560,#558);
#560=PRODUCT_DEFINITION_FORMATION('',$,#565);
#561=PRODUCT_RELATED_PRODUCT_CATEGORY('Product','Product',(#565));
#562=APPLICATION_PROTOCOL_DEFINITION('international standard',
'automotive_design',2009,#563);
#563=APPLICATION_CONTEXT(
'Core Data for Automotive Mechanical Design Process');
#564=PRODUCT_CONTEXT('part definition',#563,'mechanical');
#565=PRODUCT('Product','Product',$,(#564));
#566=PRESENTATION_STYLE_ASSIGNMENT((#567));
#567=SURFACE_STYLE_USAGE(.BOTH.,#568);
#568=SURFACE_SIDE_STYLE('',(#569));
#569=SURFACE_STYLE_FILL_AREA(#570);
#570=FILL_AREA_STYLE('',(#571));
#571=FILL_AREA_STYLE_COLOUR('',#572);
#572=COLOUR_RGB('',0.749019607843137,0.749019607843137,0.749019607843137);
ENDSEC;
END-ISO-10303-21;
