ISO-10303-21;
HEADER;
/* Generated by software containing ST-Developer
 * from STEP Tools, Inc. (www.steptools.com) 
 */

FILE_DESCRIPTION(
/* description */ (''),
/* implementation_level */ '2;1');

FILE_NAME(
/* name */ '19140.000X_3D.stp',
/* time_stamp */ '2024-12-12T07:53:07+01:00',
/* author */ ('CAD'),
/* organization */ (''),
/* preprocessor_version */ 'ST-DEVELOPER v20',
/* originating_system */ 'AutoCAD Mechanical',
/* authorisation */ '');

FILE_SCHEMA (('AUTOMOTIVE_DESIGN { 1 0 10303 214 3 1 1 }'));
ENDSEC;

DATA;
#10=MECHANICAL_DESIGN_GEOMETRIC_PRESENTATION_REPRESENTATION('',(#18),#618);
#11=PRESENTATION_LAYER_ASSIGNMENT('0','0',(#19));
#12=SHAPE_REPRESENTATION_RELATIONSHIP('SRR','None',#627,#13);
#13=ADVANCED_BREP_SHAPE_REPRESENTATION('',(#19),#616);
#14=ITEM_DEFINED_TRANSFORMATION($,$,#370,#405);
#15=(
REPRESENTATION_RELATIONSHIP($,$,#628,#627)
REPRESENTATION_RELATIONSHIP_WITH_TRANSFORMATION(#14)
SHAPE_REPRESENTATION_RELATIONSHIP()
);
#16=CONTEXT_DEPENDENT_SHAPE_REPRESENTATION(#15,#626);
#17=NEXT_ASSEMBLY_USAGE_OCCURRENCE('5DDF','5DDF','5DDF',#630,#631,
'5DDF');
#18=STYLED_ITEM('',(#641),#19);
#19=MANIFOLD_SOLID_BREP('33F26',#368);
#20=FACE_BOUND('',#65,.T.);
#21=FACE_BOUND('',#66,.T.);
#22=FACE_BOUND('',#67,.T.);
#23=FACE_BOUND('',#68,.T.);
#24=FACE_BOUND('',#69,.T.);
#25=FACE_BOUND('',#81,.T.);
#26=FACE_BOUND('',#82,.T.);
#27=FACE_BOUND('',#83,.T.);
#28=FACE_BOUND('',#84,.T.);
#29=FACE_BOUND('',#85,.T.);
#30=PLANE('',#386);
#31=PLANE('',#387);
#32=PLANE('',#393);
#33=PLANE('',#396);
#34=PLANE('',#399);
#35=PLANE('',#400);
#36=PLANE('',#401);
#37=PLANE('',#402);
#38=PLANE('',#403);
#39=PLANE('',#404);
#40=FACE_OUTER_BOUND('',#58,.T.);
#41=FACE_OUTER_BOUND('',#59,.T.);
#42=FACE_OUTER_BOUND('',#60,.T.);
#43=FACE_OUTER_BOUND('',#61,.T.);
#44=FACE_OUTER_BOUND('',#62,.T.);
#45=FACE_OUTER_BOUND('',#63,.T.);
#46=FACE_OUTER_BOUND('',#64,.T.);
#47=FACE_OUTER_BOUND('',#70,.T.);
#48=FACE_OUTER_BOUND('',#71,.T.);
#49=FACE_OUTER_BOUND('',#72,.T.);
#50=FACE_OUTER_BOUND('',#73,.T.);
#51=FACE_OUTER_BOUND('',#74,.T.);
#52=FACE_OUTER_BOUND('',#75,.T.);
#53=FACE_OUTER_BOUND('',#76,.T.);
#54=FACE_OUTER_BOUND('',#77,.T.);
#55=FACE_OUTER_BOUND('',#78,.T.);
#56=FACE_OUTER_BOUND('',#79,.T.);
#57=FACE_OUTER_BOUND('',#80,.T.);
#58=EDGE_LOOP('',(#246,#247,#248,#249));
#59=EDGE_LOOP('',(#250,#251,#252,#253));
#60=EDGE_LOOP('',(#254,#255,#256,#257));
#61=EDGE_LOOP('',(#258,#259,#260,#261));
#62=EDGE_LOOP('',(#262,#263,#264,#265));
#63=EDGE_LOOP('',(#266,#267,#268,#269));
#64=EDGE_LOOP('',(#270,#271,#272,#273,#274,#275,#276,#277));
#65=EDGE_LOOP('',(#278));
#66=EDGE_LOOP('',(#279));
#67=EDGE_LOOP('',(#280));
#68=EDGE_LOOP('',(#281));
#69=EDGE_LOOP('',(#282,#283,#284,#285));
#70=EDGE_LOOP('',(#286,#287,#288,#289));
#71=EDGE_LOOP('',(#290,#291,#292,#293));
#72=EDGE_LOOP('',(#294,#295,#296,#297));
#73=EDGE_LOOP('',(#298,#299,#300,#301));
#74=EDGE_LOOP('',(#302,#303,#304,#305));
#75=EDGE_LOOP('',(#306,#307,#308,#309));
#76=EDGE_LOOP('',(#310,#311,#312,#313));
#77=EDGE_LOOP('',(#314,#315,#316,#317));
#78=EDGE_LOOP('',(#318,#319,#320,#321));
#79=EDGE_LOOP('',(#322,#323,#324,#325));
#80=EDGE_LOOP('',(#326,#327,#328,#329,#330,#331,#332,#333));
#81=EDGE_LOOP('',(#334));
#82=EDGE_LOOP('',(#335));
#83=EDGE_LOOP('',(#336));
#84=EDGE_LOOP('',(#337));
#85=EDGE_LOOP('',(#338,#339,#340,#341));
#86=LINE('',#518,#118);
#87=LINE('',#524,#119);
#88=LINE('',#530,#120);
#89=LINE('',#536,#121);
#90=LINE('',#543,#122);
#91=LINE('',#546,#123);
#92=LINE('',#549,#124);
#93=LINE('',#551,#125);
#94=LINE('',#552,#126);
#95=LINE('',#555,#127);
#96=LINE('',#559,#128);
#97=LINE('',#563,#129);
#98=LINE('',#567,#130);
#99=LINE('',#569,#131);
#100=LINE('',#571,#132);
#101=LINE('',#572,#133);
#102=LINE('',#576,#134);
#103=LINE('',#579,#135);
#104=LINE('',#580,#136);
#105=LINE('',#584,#137);
#106=LINE('',#587,#138);
#107=LINE('',#588,#139);
#108=LINE('',#592,#140);
#109=LINE('',#595,#141);
#110=LINE('',#597,#142);
#111=LINE('',#598,#143);
#112=LINE('',#601,#144);
#113=LINE('',#602,#145);
#114=LINE('',#605,#146);
#115=LINE('',#606,#147);
#116=LINE('',#608,#148);
#117=LINE('',#610,#149);
#118=VECTOR('',#414,3.25);
#119=VECTOR('',#421,3.25);
#120=VECTOR('',#428,3.25);
#121=VECTOR('',#435,3.25);
#122=VECTOR('',#442,10.);
#123=VECTOR('',#445,10.);
#124=VECTOR('',#448,10.);
#125=VECTOR('',#449,10.);
#126=VECTOR('',#450,10.);
#127=VECTOR('',#453,10.);
#128=VECTOR('',#456,10.);
#129=VECTOR('',#459,10.);
#130=VECTOR('',#462,10.);
#131=VECTOR('',#463,10.);
#132=VECTOR('',#464,10.);
#133=VECTOR('',#465,10.);
#134=VECTOR('',#470,10.);
#135=VECTOR('',#473,10.);
#136=VECTOR('',#474,10.);
#137=VECTOR('',#479,10.);
#138=VECTOR('',#482,10.);
#139=VECTOR('',#483,10.);
#140=VECTOR('',#488,10.);
#141=VECTOR('',#491,10.);
#142=VECTOR('',#492,10.);
#143=VECTOR('',#493,10.);
#144=VECTOR('',#496,10.);
#145=VECTOR('',#497,10.);
#146=VECTOR('',#500,10.);
#147=VECTOR('',#501,10.);
#148=VECTOR('',#504,10.);
#149=VECTOR('',#507,10.);
#150=CIRCLE('',#372,3.25);
#151=CIRCLE('',#373,3.25);
#152=CIRCLE('',#375,3.25);
#153=CIRCLE('',#376,3.25);
#154=CIRCLE('',#378,3.25);
#155=CIRCLE('',#379,3.25);
#156=CIRCLE('',#381,3.25);
#157=CIRCLE('',#382,3.25);
#158=CIRCLE('',#384,8.);
#159=CIRCLE('',#385,8.);
#160=CIRCLE('',#388,8.);
#161=CIRCLE('',#389,8.);
#162=CIRCLE('',#390,8.);
#163=CIRCLE('',#392,8.);
#164=CIRCLE('',#395,8.);
#165=CIRCLE('',#398,8.);
#166=VERTEX_POINT('',#515);
#167=VERTEX_POINT('',#517);
#168=VERTEX_POINT('',#521);
#169=VERTEX_POINT('',#523);
#170=VERTEX_POINT('',#527);
#171=VERTEX_POINT('',#529);
#172=VERTEX_POINT('',#533);
#173=VERTEX_POINT('',#535);
#174=VERTEX_POINT('',#539);
#175=VERTEX_POINT('',#540);
#176=VERTEX_POINT('',#542);
#177=VERTEX_POINT('',#544);
#178=VERTEX_POINT('',#548);
#179=VERTEX_POINT('',#550);
#180=VERTEX_POINT('',#554);
#181=VERTEX_POINT('',#556);
#182=VERTEX_POINT('',#558);
#183=VERTEX_POINT('',#560);
#184=VERTEX_POINT('',#562);
#185=VERTEX_POINT('',#565);
#186=VERTEX_POINT('',#566);
#187=VERTEX_POINT('',#568);
#188=VERTEX_POINT('',#570);
#189=VERTEX_POINT('',#574);
#190=VERTEX_POINT('',#578);
#191=VERTEX_POINT('',#582);
#192=VERTEX_POINT('',#586);
#193=VERTEX_POINT('',#590);
#194=VERTEX_POINT('',#594);
#195=VERTEX_POINT('',#596);
#196=VERTEX_POINT('',#600);
#197=VERTEX_POINT('',#604);
#198=EDGE_CURVE('',#166,#166,#150,.T.);
#199=EDGE_CURVE('',#166,#167,#86,.T.);
#200=EDGE_CURVE('',#167,#167,#151,.T.);
#201=EDGE_CURVE('',#168,#168,#152,.T.);
#202=EDGE_CURVE('',#168,#169,#87,.T.);
#203=EDGE_CURVE('',#169,#169,#153,.T.);
#204=EDGE_CURVE('',#170,#170,#154,.T.);
#205=EDGE_CURVE('',#170,#171,#88,.T.);
#206=EDGE_CURVE('',#171,#171,#155,.T.);
#207=EDGE_CURVE('',#172,#172,#156,.T.);
#208=EDGE_CURVE('',#172,#173,#89,.T.);
#209=EDGE_CURVE('',#173,#173,#157,.T.);
#210=EDGE_CURVE('',#174,#175,#158,.T.);
#211=EDGE_CURVE('',#175,#176,#90,.T.);
#212=EDGE_CURVE('',#176,#177,#159,.T.);
#213=EDGE_CURVE('',#177,#174,#91,.T.);
#214=EDGE_CURVE('',#177,#178,#92,.T.);
#215=EDGE_CURVE('',#179,#178,#93,.T.);
#216=EDGE_CURVE('',#174,#179,#94,.T.);
#217=EDGE_CURVE('',#180,#176,#95,.T.);
#218=EDGE_CURVE('',#181,#180,#160,.T.);
#219=EDGE_CURVE('',#182,#181,#96,.T.);
#220=EDGE_CURVE('',#183,#182,#161,.T.);
#221=EDGE_CURVE('',#184,#183,#97,.T.);
#222=EDGE_CURVE('',#178,#184,#162,.T.);
#223=EDGE_CURVE('',#185,#186,#98,.T.);
#224=EDGE_CURVE('',#187,#185,#99,.T.);
#225=EDGE_CURVE('',#188,#187,#100,.T.);
#226=EDGE_CURVE('',#186,#188,#101,.T.);
#227=EDGE_CURVE('',#189,#179,#163,.T.);
#228=EDGE_CURVE('',#184,#189,#102,.T.);
#229=EDGE_CURVE('',#190,#183,#103,.T.);
#230=EDGE_CURVE('',#189,#190,#104,.T.);
#231=EDGE_CURVE('',#191,#190,#164,.T.);
#232=EDGE_CURVE('',#182,#191,#105,.T.);
#233=EDGE_CURVE('',#192,#181,#106,.T.);
#234=EDGE_CURVE('',#191,#192,#107,.T.);
#235=EDGE_CURVE('',#193,#192,#165,.T.);
#236=EDGE_CURVE('',#180,#193,#108,.T.);
#237=EDGE_CURVE('',#185,#194,#109,.T.);
#238=EDGE_CURVE('',#195,#194,#110,.T.);
#239=EDGE_CURVE('',#187,#195,#111,.T.);
#240=EDGE_CURVE('',#196,#195,#112,.T.);
#241=EDGE_CURVE('',#188,#196,#113,.T.);
#242=EDGE_CURVE('',#197,#196,#114,.T.);
#243=EDGE_CURVE('',#186,#197,#115,.T.);
#244=EDGE_CURVE('',#194,#197,#116,.T.);
#245=EDGE_CURVE('',#193,#175,#117,.T.);
#246=ORIENTED_EDGE('',*,*,#198,.F.);
#247=ORIENTED_EDGE('',*,*,#199,.T.);
#248=ORIENTED_EDGE('',*,*,#200,.F.);
#249=ORIENTED_EDGE('',*,*,#199,.F.);
#250=ORIENTED_EDGE('',*,*,#201,.F.);
#251=ORIENTED_EDGE('',*,*,#202,.T.);
#252=ORIENTED_EDGE('',*,*,#203,.F.);
#253=ORIENTED_EDGE('',*,*,#202,.F.);
#254=ORIENTED_EDGE('',*,*,#204,.F.);
#255=ORIENTED_EDGE('',*,*,#205,.T.);
#256=ORIENTED_EDGE('',*,*,#206,.F.);
#257=ORIENTED_EDGE('',*,*,#205,.F.);
#258=ORIENTED_EDGE('',*,*,#207,.F.);
#259=ORIENTED_EDGE('',*,*,#208,.T.);
#260=ORIENTED_EDGE('',*,*,#209,.F.);
#261=ORIENTED_EDGE('',*,*,#208,.F.);
#262=ORIENTED_EDGE('',*,*,#210,.T.);
#263=ORIENTED_EDGE('',*,*,#211,.T.);
#264=ORIENTED_EDGE('',*,*,#212,.T.);
#265=ORIENTED_EDGE('',*,*,#213,.T.);
#266=ORIENTED_EDGE('',*,*,#213,.F.);
#267=ORIENTED_EDGE('',*,*,#214,.T.);
#268=ORIENTED_EDGE('',*,*,#215,.F.);
#269=ORIENTED_EDGE('',*,*,#216,.F.);
#270=ORIENTED_EDGE('',*,*,#212,.F.);
#271=ORIENTED_EDGE('',*,*,#217,.F.);
#272=ORIENTED_EDGE('',*,*,#218,.F.);
#273=ORIENTED_EDGE('',*,*,#219,.F.);
#274=ORIENTED_EDGE('',*,*,#220,.F.);
#275=ORIENTED_EDGE('',*,*,#221,.F.);
#276=ORIENTED_EDGE('',*,*,#222,.F.);
#277=ORIENTED_EDGE('',*,*,#214,.F.);
#278=ORIENTED_EDGE('',*,*,#200,.T.);
#279=ORIENTED_EDGE('',*,*,#203,.T.);
#280=ORIENTED_EDGE('',*,*,#206,.T.);
#281=ORIENTED_EDGE('',*,*,#209,.T.);
#282=ORIENTED_EDGE('',*,*,#223,.F.);
#283=ORIENTED_EDGE('',*,*,#224,.F.);
#284=ORIENTED_EDGE('',*,*,#225,.F.);
#285=ORIENTED_EDGE('',*,*,#226,.F.);
#286=ORIENTED_EDGE('',*,*,#227,.T.);
#287=ORIENTED_EDGE('',*,*,#215,.T.);
#288=ORIENTED_EDGE('',*,*,#222,.T.);
#289=ORIENTED_EDGE('',*,*,#228,.T.);
#290=ORIENTED_EDGE('',*,*,#228,.F.);
#291=ORIENTED_EDGE('',*,*,#221,.T.);
#292=ORIENTED_EDGE('',*,*,#229,.F.);
#293=ORIENTED_EDGE('',*,*,#230,.F.);
#294=ORIENTED_EDGE('',*,*,#231,.T.);
#295=ORIENTED_EDGE('',*,*,#229,.T.);
#296=ORIENTED_EDGE('',*,*,#220,.T.);
#297=ORIENTED_EDGE('',*,*,#232,.T.);
#298=ORIENTED_EDGE('',*,*,#232,.F.);
#299=ORIENTED_EDGE('',*,*,#219,.T.);
#300=ORIENTED_EDGE('',*,*,#233,.F.);
#301=ORIENTED_EDGE('',*,*,#234,.F.);
#302=ORIENTED_EDGE('',*,*,#235,.T.);
#303=ORIENTED_EDGE('',*,*,#233,.T.);
#304=ORIENTED_EDGE('',*,*,#218,.T.);
#305=ORIENTED_EDGE('',*,*,#236,.T.);
#306=ORIENTED_EDGE('',*,*,#224,.T.);
#307=ORIENTED_EDGE('',*,*,#237,.T.);
#308=ORIENTED_EDGE('',*,*,#238,.F.);
#309=ORIENTED_EDGE('',*,*,#239,.F.);
#310=ORIENTED_EDGE('',*,*,#225,.T.);
#311=ORIENTED_EDGE('',*,*,#239,.T.);
#312=ORIENTED_EDGE('',*,*,#240,.F.);
#313=ORIENTED_EDGE('',*,*,#241,.F.);
#314=ORIENTED_EDGE('',*,*,#226,.T.);
#315=ORIENTED_EDGE('',*,*,#241,.T.);
#316=ORIENTED_EDGE('',*,*,#242,.F.);
#317=ORIENTED_EDGE('',*,*,#243,.F.);
#318=ORIENTED_EDGE('',*,*,#223,.T.);
#319=ORIENTED_EDGE('',*,*,#243,.T.);
#320=ORIENTED_EDGE('',*,*,#244,.F.);
#321=ORIENTED_EDGE('',*,*,#237,.F.);
#322=ORIENTED_EDGE('',*,*,#211,.F.);
#323=ORIENTED_EDGE('',*,*,#245,.F.);
#324=ORIENTED_EDGE('',*,*,#236,.F.);
#325=ORIENTED_EDGE('',*,*,#217,.T.);
#326=ORIENTED_EDGE('',*,*,#210,.F.);
#327=ORIENTED_EDGE('',*,*,#216,.T.);
#328=ORIENTED_EDGE('',*,*,#227,.F.);
#329=ORIENTED_EDGE('',*,*,#230,.T.);
#330=ORIENTED_EDGE('',*,*,#231,.F.);
#331=ORIENTED_EDGE('',*,*,#234,.T.);
#332=ORIENTED_EDGE('',*,*,#235,.F.);
#333=ORIENTED_EDGE('',*,*,#245,.T.);
#334=ORIENTED_EDGE('',*,*,#198,.T.);
#335=ORIENTED_EDGE('',*,*,#201,.T.);
#336=ORIENTED_EDGE('',*,*,#204,.T.);
#337=ORIENTED_EDGE('',*,*,#207,.T.);
#338=ORIENTED_EDGE('',*,*,#244,.T.);
#339=ORIENTED_EDGE('',*,*,#242,.T.);
#340=ORIENTED_EDGE('',*,*,#240,.T.);
#341=ORIENTED_EDGE('',*,*,#238,.T.);
#342=CYLINDRICAL_SURFACE('',#371,3.25);
#343=CYLINDRICAL_SURFACE('',#374,3.25);
#344=CYLINDRICAL_SURFACE('',#377,3.25);
#345=CYLINDRICAL_SURFACE('',#380,3.25);
#346=CYLINDRICAL_SURFACE('',#383,8.);
#347=CYLINDRICAL_SURFACE('',#391,8.);
#348=CYLINDRICAL_SURFACE('',#394,8.);
#349=CYLINDRICAL_SURFACE('',#397,8.);
#350=ADVANCED_FACE('',(#40),#342,.F.);
#351=ADVANCED_FACE('',(#41),#343,.F.);
#352=ADVANCED_FACE('',(#42),#344,.F.);
#353=ADVANCED_FACE('',(#43),#345,.F.);
#354=ADVANCED_FACE('',(#44),#346,.T.);
#355=ADVANCED_FACE('',(#45),#30,.T.);
#356=ADVANCED_FACE('',(#46,#20,#21,#22,#23,#24),#31,.F.);
#357=ADVANCED_FACE('',(#47),#347,.T.);
#358=ADVANCED_FACE('',(#48),#32,.T.);
#359=ADVANCED_FACE('',(#49),#348,.T.);
#360=ADVANCED_FACE('',(#50),#33,.T.);
#361=ADVANCED_FACE('',(#51),#349,.T.);
#362=ADVANCED_FACE('',(#52),#34,.T.);
#363=ADVANCED_FACE('',(#53),#35,.T.);
#364=ADVANCED_FACE('',(#54),#36,.T.);
#365=ADVANCED_FACE('',(#55),#37,.T.);
#366=ADVANCED_FACE('',(#56),#38,.T.);
#367=ADVANCED_FACE('',(#57,#25,#26,#27,#28,#29),#39,.T.);
#368=CLOSED_SHELL('',(#350,#351,#352,#353,#354,#355,#356,#357,#358,#359,
#360,#361,#362,#363,#364,#365,#366,#367));
#369=AXIS2_PLACEMENT_3D('',#512,#406,#407);
#370=AXIS2_PLACEMENT_3D('',#513,#408,#409);
#371=AXIS2_PLACEMENT_3D('',#514,#410,#411);
#372=AXIS2_PLACEMENT_3D('',#516,#412,#413);
#373=AXIS2_PLACEMENT_3D('',#519,#415,#416);
#374=AXIS2_PLACEMENT_3D('',#520,#417,#418);
#375=AXIS2_PLACEMENT_3D('',#522,#419,#420);
#376=AXIS2_PLACEMENT_3D('',#525,#422,#423);
#377=AXIS2_PLACEMENT_3D('',#526,#424,#425);
#378=AXIS2_PLACEMENT_3D('',#528,#426,#427);
#379=AXIS2_PLACEMENT_3D('',#531,#429,#430);
#380=AXIS2_PLACEMENT_3D('',#532,#431,#432);
#381=AXIS2_PLACEMENT_3D('',#534,#433,#434);
#382=AXIS2_PLACEMENT_3D('',#537,#436,#437);
#383=AXIS2_PLACEMENT_3D('',#538,#438,#439);
#384=AXIS2_PLACEMENT_3D('',#541,#440,#441);
#385=AXIS2_PLACEMENT_3D('',#545,#443,#444);
#386=AXIS2_PLACEMENT_3D('',#547,#446,#447);
#387=AXIS2_PLACEMENT_3D('',#553,#451,#452);
#388=AXIS2_PLACEMENT_3D('',#557,#454,#455);
#389=AXIS2_PLACEMENT_3D('',#561,#457,#458);
#390=AXIS2_PLACEMENT_3D('',#564,#460,#461);
#391=AXIS2_PLACEMENT_3D('',#573,#466,#467);
#392=AXIS2_PLACEMENT_3D('',#575,#468,#469);
#393=AXIS2_PLACEMENT_3D('',#577,#471,#472);
#394=AXIS2_PLACEMENT_3D('',#581,#475,#476);
#395=AXIS2_PLACEMENT_3D('',#583,#477,#478);
#396=AXIS2_PLACEMENT_3D('',#585,#480,#481);
#397=AXIS2_PLACEMENT_3D('',#589,#484,#485);
#398=AXIS2_PLACEMENT_3D('',#591,#486,#487);
#399=AXIS2_PLACEMENT_3D('',#593,#489,#490);
#400=AXIS2_PLACEMENT_3D('',#599,#494,#495);
#401=AXIS2_PLACEMENT_3D('',#603,#498,#499);
#402=AXIS2_PLACEMENT_3D('',#607,#502,#503);
#403=AXIS2_PLACEMENT_3D('',#609,#505,#506);
#404=AXIS2_PLACEMENT_3D('',#611,#508,#509);
#405=AXIS2_PLACEMENT_3D('',#612,#510,#511);
#406=DIRECTION('axis',(0.,0.,1.));
#407=DIRECTION('refdir',(1.,0.,0.));
#408=DIRECTION('axis',(0.,0.,1.));
#409=DIRECTION('refdir',(1.,0.,0.));
#410=DIRECTION('center_axis',(0.,0.,1.));
#411=DIRECTION('ref_axis',(-1.,0.,0.));
#412=DIRECTION('center_axis',(0.,0.,-1.));
#413=DIRECTION('ref_axis',(-1.,0.,0.));
#414=DIRECTION('',(0.,0.,-1.));
#415=DIRECTION('center_axis',(0.,0.,1.));
#416=DIRECTION('ref_axis',(-1.,0.,0.));
#417=DIRECTION('center_axis',(0.,0.,-1.));
#418=DIRECTION('ref_axis',(1.,0.,0.));
#419=DIRECTION('center_axis',(0.,0.,-1.));
#420=DIRECTION('ref_axis',(1.,0.,0.));
#421=DIRECTION('',(0.,0.,-1.));
#422=DIRECTION('center_axis',(0.,0.,1.));
#423=DIRECTION('ref_axis',(1.,0.,0.));
#424=DIRECTION('center_axis',(0.,0.,-1.));
#425=DIRECTION('ref_axis',(-1.,0.,0.));
#426=DIRECTION('center_axis',(0.,0.,-1.));
#427=DIRECTION('ref_axis',(-1.,0.,0.));
#428=DIRECTION('',(0.,0.,-1.));
#429=DIRECTION('center_axis',(0.,0.,1.));
#430=DIRECTION('ref_axis',(-1.,0.,0.));
#431=DIRECTION('center_axis',(0.,0.,1.));
#432=DIRECTION('ref_axis',(1.,0.,0.));
#433=DIRECTION('center_axis',(0.,0.,-1.));
#434=DIRECTION('ref_axis',(1.,0.,0.));
#435=DIRECTION('',(0.,0.,-1.));
#436=DIRECTION('center_axis',(0.,0.,1.));
#437=DIRECTION('ref_axis',(1.,0.,0.));
#438=DIRECTION('center_axis',(0.,0.,1.));
#439=DIRECTION('ref_axis',(-0.707106781186546,0.707106781186549,0.));
#440=DIRECTION('center_axis',(0.,0.,-1.));
#441=DIRECTION('ref_axis',(-0.707106781186546,0.707106781186549,0.));
#442=DIRECTION('',(0.,0.,-1.));
#443=DIRECTION('center_axis',(0.,0.,1.));
#444=DIRECTION('ref_axis',(-0.707106781186546,0.707106781186549,0.));
#445=DIRECTION('',(0.,0.,1.));
#446=DIRECTION('center_axis',(-1.,0.,0.));
#447=DIRECTION('ref_axis',(0.,-1.,0.));
#448=DIRECTION('',(0.,-1.,0.));
#449=DIRECTION('',(0.,0.,-1.));
#450=DIRECTION('',(0.,-1.,0.));
#451=DIRECTION('center_axis',(0.,0.,1.));
#452=DIRECTION('ref_axis',(1.,0.,0.));
#453=DIRECTION('',(-1.,0.,0.));
#454=DIRECTION('center_axis',(0.,0.,1.));
#455=DIRECTION('ref_axis',(0.707106781186546,0.707106781186549,0.));
#456=DIRECTION('',(0.,1.,0.));
#457=DIRECTION('center_axis',(0.,0.,1.));
#458=DIRECTION('ref_axis',(0.707106781186546,-0.707106781186549,0.));
#459=DIRECTION('',(1.,0.,0.));
#460=DIRECTION('center_axis',(0.,0.,1.));
#461=DIRECTION('ref_axis',(-0.707106781186546,-0.707106781186549,0.));
#462=DIRECTION('',(0.,1.,0.));
#463=DIRECTION('',(-1.,0.,0.));
#464=DIRECTION('',(0.,-1.,0.));
#465=DIRECTION('',(1.,0.,0.));
#466=DIRECTION('center_axis',(0.,0.,1.));
#467=DIRECTION('ref_axis',(-0.707106781186546,-0.707106781186549,0.));
#468=DIRECTION('center_axis',(0.,0.,-1.));
#469=DIRECTION('ref_axis',(-0.707106781186546,-0.707106781186549,0.));
#470=DIRECTION('',(0.,0.,1.));
#471=DIRECTION('center_axis',(0.,-1.,0.));
#472=DIRECTION('ref_axis',(1.,0.,0.));
#473=DIRECTION('',(0.,0.,-1.));
#474=DIRECTION('',(1.,0.,0.));
#475=DIRECTION('center_axis',(0.,0.,1.));
#476=DIRECTION('ref_axis',(0.707106781186546,-0.707106781186549,0.));
#477=DIRECTION('center_axis',(0.,0.,-1.));
#478=DIRECTION('ref_axis',(0.707106781186546,-0.707106781186549,0.));
#479=DIRECTION('',(0.,0.,1.));
#480=DIRECTION('center_axis',(1.,0.,0.));
#481=DIRECTION('ref_axis',(0.,1.,0.));
#482=DIRECTION('',(0.,0.,-1.));
#483=DIRECTION('',(0.,1.,0.));
#484=DIRECTION('center_axis',(0.,0.,1.));
#485=DIRECTION('ref_axis',(0.707106781186546,0.707106781186549,0.));
#486=DIRECTION('center_axis',(0.,0.,-1.));
#487=DIRECTION('ref_axis',(0.707106781186546,0.707106781186549,0.));
#488=DIRECTION('',(0.,0.,1.));
#489=DIRECTION('center_axis',(0.,1.,0.));
#490=DIRECTION('ref_axis',(-1.,0.,0.));
#491=DIRECTION('',(0.,0.,1.));
#492=DIRECTION('',(-1.,0.,0.));
#493=DIRECTION('',(0.,0.,1.));
#494=DIRECTION('center_axis',(-1.,0.,0.));
#495=DIRECTION('ref_axis',(0.,-1.,0.));
#496=DIRECTION('',(0.,-1.,0.));
#497=DIRECTION('',(0.,0.,1.));
#498=DIRECTION('center_axis',(0.,-1.,0.));
#499=DIRECTION('ref_axis',(1.,0.,0.));
#500=DIRECTION('',(1.,0.,0.));
#501=DIRECTION('',(0.,0.,1.));
#502=DIRECTION('center_axis',(1.,0.,0.));
#503=DIRECTION('ref_axis',(0.,1.,0.));
#504=DIRECTION('',(0.,1.,0.));
#505=DIRECTION('center_axis',(0.,1.,0.));
#506=DIRECTION('ref_axis',(-1.,0.,0.));
#507=DIRECTION('',(-1.,0.,0.));
#508=DIRECTION('center_axis',(0.,0.,1.));
#509=DIRECTION('ref_axis',(1.,0.,0.));
#510=DIRECTION('',(0.,0.,1.));
#511=DIRECTION('',(1.,0.,0.));
#512=CARTESIAN_POINT('',(0.,0.,0.));
#513=CARTESIAN_POINT('',(0.,0.,0.));
#514=CARTESIAN_POINT('Origin',(155.,-79.,-430.117425826948));
#515=CARTESIAN_POINT('',(158.25,-79.,0.));
#516=CARTESIAN_POINT('Origin',(155.,-79.,1.4210854715202E-14));
#517=CARTESIAN_POINT('',(158.25,-79.,-1.));
#518=CARTESIAN_POINT('',(158.25,-79.,-430.117425826948));
#519=CARTESIAN_POINT('Origin',(155.,-79.,-1.));
#520=CARTESIAN_POINT('Origin',(-155.,-79.,-430.117425826948));
#521=CARTESIAN_POINT('',(-158.25,-79.,0.));
#522=CARTESIAN_POINT('Origin',(-155.,-79.,1.4210854715202E-14));
#523=CARTESIAN_POINT('',(-158.25,-79.,-1.));
#524=CARTESIAN_POINT('',(-158.25,-79.,-430.117425826948));
#525=CARTESIAN_POINT('Origin',(-155.,-79.,-1.));
#526=CARTESIAN_POINT('Origin',(155.,131.,-430.117425826948));
#527=CARTESIAN_POINT('',(158.25,131.,0.));
#528=CARTESIAN_POINT('Origin',(155.,131.,1.4210854715202E-14));
#529=CARTESIAN_POINT('',(158.25,131.,-1.));
#530=CARTESIAN_POINT('',(158.25,131.,-430.117425826948));
#531=CARTESIAN_POINT('Origin',(155.,131.,-1.));
#532=CARTESIAN_POINT('Origin',(-155.,131.,-430.117425826948));
#533=CARTESIAN_POINT('',(-158.25,131.,0.));
#534=CARTESIAN_POINT('Origin',(-155.,131.,1.4210854715202E-14));
#535=CARTESIAN_POINT('',(-158.25,131.,-1.));
#536=CARTESIAN_POINT('',(-158.25,131.,-430.117425826948));
#537=CARTESIAN_POINT('Origin',(-155.,131.,-1.));
#538=CARTESIAN_POINT('Origin',(-167.,143.,-1.));
#539=CARTESIAN_POINT('',(-175.,143.,0.));
#540=CARTESIAN_POINT('',(-167.,151.,0.));
#541=CARTESIAN_POINT('Origin',(-167.,143.,0.));
#542=CARTESIAN_POINT('',(-167.,151.,-1.));
#543=CARTESIAN_POINT('',(-167.,151.,-1.));
#544=CARTESIAN_POINT('',(-175.,143.,-1.));
#545=CARTESIAN_POINT('Origin',(-167.,143.,-1.));
#546=CARTESIAN_POINT('',(-175.,143.,-1.));
#547=CARTESIAN_POINT('Origin',(-175.,151.,-1.));
#548=CARTESIAN_POINT('',(-175.,-91.,-1.));
#549=CARTESIAN_POINT('',(-175.,151.,-1.));
#550=CARTESIAN_POINT('',(-175.,-91.,0.));
#551=CARTESIAN_POINT('',(-175.,-91.,-1.));
#552=CARTESIAN_POINT('',(-175.,151.,0.));
#553=CARTESIAN_POINT('Origin',(0.,26.,-1.));
#554=CARTESIAN_POINT('',(167.,151.,-1.));
#555=CARTESIAN_POINT('',(175.,151.,-1.));
#556=CARTESIAN_POINT('',(175.,143.,-1.));
#557=CARTESIAN_POINT('Origin',(167.,143.,-1.));
#558=CARTESIAN_POINT('',(175.,-91.,-1.));
#559=CARTESIAN_POINT('',(175.,-99.,-1.));
#560=CARTESIAN_POINT('',(167.,-99.,-1.));
#561=CARTESIAN_POINT('Origin',(167.,-91.,-1.));
#562=CARTESIAN_POINT('',(-167.,-99.,-1.));
#563=CARTESIAN_POINT('',(-175.,-99.,-1.));
#564=CARTESIAN_POINT('Origin',(-167.,-91.,-1.));
#565=CARTESIAN_POINT('',(-76.,0.,-1.));
#566=CARTESIAN_POINT('',(-76.,52.,-1.));
#567=CARTESIAN_POINT('',(-76.,0.,-1.));
#568=CARTESIAN_POINT('',(76.,0.,-1.));
#569=CARTESIAN_POINT('',(76.,0.,-1.));
#570=CARTESIAN_POINT('',(76.,52.,-1.));
#571=CARTESIAN_POINT('',(76.,52.,-1.));
#572=CARTESIAN_POINT('',(-76.,52.,-1.));
#573=CARTESIAN_POINT('Origin',(-167.,-91.,-1.));
#574=CARTESIAN_POINT('',(-167.,-99.,0.));
#575=CARTESIAN_POINT('Origin',(-167.,-91.,0.));
#576=CARTESIAN_POINT('',(-167.,-99.,-1.));
#577=CARTESIAN_POINT('Origin',(-175.,-99.,-1.));
#578=CARTESIAN_POINT('',(167.,-99.,0.));
#579=CARTESIAN_POINT('',(167.,-99.,-1.));
#580=CARTESIAN_POINT('',(-175.,-99.,0.));
#581=CARTESIAN_POINT('Origin',(167.,-91.,-1.));
#582=CARTESIAN_POINT('',(175.,-91.,0.));
#583=CARTESIAN_POINT('Origin',(167.,-91.,0.));
#584=CARTESIAN_POINT('',(175.,-91.,-1.));
#585=CARTESIAN_POINT('Origin',(175.,-99.,-1.));
#586=CARTESIAN_POINT('',(175.,143.,0.));
#587=CARTESIAN_POINT('',(175.,143.,-1.));
#588=CARTESIAN_POINT('',(175.,-99.,0.));
#589=CARTESIAN_POINT('Origin',(167.,143.,-1.));
#590=CARTESIAN_POINT('',(167.,151.,0.));
#591=CARTESIAN_POINT('Origin',(167.,143.,0.));
#592=CARTESIAN_POINT('',(167.,151.,-1.));
#593=CARTESIAN_POINT('Origin',(76.,0.,-1.));
#594=CARTESIAN_POINT('',(-76.,3.5527136788005E-15,0.));
#595=CARTESIAN_POINT('',(-76.,0.,-1.));
#596=CARTESIAN_POINT('',(76.,3.5527136788005E-15,0.));
#597=CARTESIAN_POINT('',(76.,0.,0.));
#598=CARTESIAN_POINT('',(76.,0.,-1.));
#599=CARTESIAN_POINT('Origin',(76.,52.,-1.));
#600=CARTESIAN_POINT('',(76.,52.,0.));
#601=CARTESIAN_POINT('',(76.,52.,0.));
#602=CARTESIAN_POINT('',(76.,52.,-1.));
#603=CARTESIAN_POINT('Origin',(-76.,52.,-1.));
#604=CARTESIAN_POINT('',(-76.,52.,0.));
#605=CARTESIAN_POINT('',(-76.,52.,0.));
#606=CARTESIAN_POINT('',(-76.,52.,-1.));
#607=CARTESIAN_POINT('Origin',(-76.,0.,-1.));
#608=CARTESIAN_POINT('',(-76.,0.,0.));
#609=CARTESIAN_POINT('Origin',(175.,151.,-1.));
#610=CARTESIAN_POINT('',(175.,151.,0.));
#611=CARTESIAN_POINT('Origin',(0.,26.,0.));
#612=CARTESIAN_POINT('',(0.,0.,0.));
#613=UNCERTAINTY_MEASURE_WITH_UNIT(LENGTH_MEASURE(0.001),#619,
'DISTANCE_ACCURACY_VALUE',
'Maximum model space distance between geometric entities at asserted c
onnectivities');
#614=UNCERTAINTY_MEASURE_WITH_UNIT(LENGTH_MEASURE(0.001),#619,
'DISTANCE_ACCURACY_VALUE',
'Maximum model space distance between geometric entities at asserted c
onnectivities');
#615=UNCERTAINTY_MEASURE_WITH_UNIT(LENGTH_MEASURE(0.001),#619,
'DISTANCE_ACCURACY_VALUE',
'Maximum model space distance between geometric entities at asserted c
onnectivities');
#616=(
GEOMETRIC_REPRESENTATION_CONTEXT(3)
GLOBAL_UNCERTAINTY_ASSIGNED_CONTEXT((#613))
GLOBAL_UNIT_ASSIGNED_CONTEXT((#619,#620,#621))
REPRESENTATION_CONTEXT('','3D')
);
#617=(
GEOMETRIC_REPRESENTATION_CONTEXT(3)
GLOBAL_UNCERTAINTY_ASSIGNED_CONTEXT((#614))
GLOBAL_UNIT_ASSIGNED_CONTEXT((#619,#620,#621))
REPRESENTATION_CONTEXT('','3D')
);
#618=(
GEOMETRIC_REPRESENTATION_CONTEXT(3)
GLOBAL_UNCERTAINTY_ASSIGNED_CONTEXT((#615))
GLOBAL_UNIT_ASSIGNED_CONTEXT((#619,#620,#621))
REPRESENTATION_CONTEXT('','3D')
);
#619=(
LENGTH_UNIT()
NAMED_UNIT(*)
SI_UNIT(.CENTI.,.METRE.)
);
#620=(
NAMED_UNIT(*)
PLANE_ANGLE_UNIT()
SI_UNIT($,.RADIAN.)
);
#621=(
NAMED_UNIT(*)
SI_UNIT($,.STERADIAN.)
SOLID_ANGLE_UNIT()
);
#622=SHAPE_DEFINITION_REPRESENTATION(#624,#627);
#623=SHAPE_DEFINITION_REPRESENTATION(#625,#628);
#624=PRODUCT_DEFINITION_SHAPE('',$,#630);
#625=PRODUCT_DEFINITION_SHAPE('',$,#631);
#626=PRODUCT_DEFINITION_SHAPE($,$,#17);
#627=SHAPE_REPRESENTATION('',(#369,#405),#616);
#628=SHAPE_REPRESENTATION('',(#370),#617);
#629=PRODUCT_DEFINITION_CONTEXT('part definition',#637,'design');
#630=PRODUCT_DEFINITION('Product','Product',#632,#629);
#631=PRODUCT_DEFINITION('*S1','*S1',#633,#629);
#632=PRODUCT_DEFINITION_FORMATION('',$,#639);
#633=PRODUCT_DEFINITION_FORMATION('',$,#640);
#634=PRODUCT_RELATED_PRODUCT_CATEGORY('Product','Product',(#639));
#635=PRODUCT_RELATED_PRODUCT_CATEGORY('*S1','*S1',(#640));
#636=APPLICATION_PROTOCOL_DEFINITION('international standard',
'automotive_design',2009,#637);
#637=APPLICATION_CONTEXT(
'Core Data for Automotive Mechanical Design Process');
#638=PRODUCT_CONTEXT('part definition',#637,'mechanical');
#639=PRODUCT('Product','Product',$,(#638));
#640=PRODUCT('*S1','*S1',$,(#638));
#641=PRESENTATION_STYLE_ASSIGNMENT((#642));
#642=SURFACE_STYLE_USAGE(.BOTH.,#643);
#643=SURFACE_SIDE_STYLE('',(#644));
#644=SURFACE_STYLE_FILL_AREA(#645);
#645=FILL_AREA_STYLE('',(#646));
#646=FILL_AREA_STYLE_COLOUR('',#647);
#647=COLOUR_RGB('',1.,1.,1.);
ENDSEC;
END-ISO-10303-21;
