ISO-10303-21;
HEADER;
/* Generated by software containing ST-Developer
 * from STEP Tools, Inc. (www.steptools.com) 
 */

FILE_DESCRIPTION(
/* description */ (''),
/* implementation_level */ '2;1');

FILE_NAME(
/* name */ '16715.100X_3D.stp',
/* time_stamp */ '2024-12-12T07:37:31+01:00',
/* author */ ('CAD'),
/* organization */ (''),
/* preprocessor_version */ 'ST-DEVELOPER v20',
/* originating_system */ 'AutoCAD Mechanical',
/* authorisation */ '');

FILE_SCHEMA (('AUTOMOTIVE_DESIGN { 1 0 10303 214 3 1 1 }'));
ENDSEC;

DATA;
#10=MECHANICAL_DESIGN_GEOMETRIC_PRESENTATION_REPRESENTATION('',(#18),#128);
#11=PRESENTATION_LAYER_ASSIGNMENT('4','DICHTUNG',(#19));
#12=SHAPE_REPRESENTATION_RELATIONSHIP('SRR','None',#137,#13);
#13=ADVANCED_BREP_SHAPE_REPRESENTATION('',(#19),#126);
#14=ITEM_DEFINED_TRANSFORMATION($,$,#72,#81);
#15=(
REPRESENTATION_RELATIONSHIP($,$,#138,#137)
REPRESENTATION_RELATIONSHIP_WITH_TRANSFORMATION(#14)
SHAPE_REPRESENTATION_RELATIONSHIP()
);
#16=CONTEXT_DEPENDENT_SHAPE_REPRESENTATION(#15,#136);
#17=NEXT_ASSEMBLY_USAGE_OCCURRENCE('2999','2999','2999',#140,#141,
'2999');
#18=STYLED_ITEM('',(#151),#19);
#19=MANIFOLD_SOLID_BREP('3F2D',#70);
#20=FACE_BOUND('',#30,.T.);
#21=FACE_BOUND('',#33,.T.);
#22=PLANE('',#76);
#23=PLANE('',#80);
#24=FACE_OUTER_BOUND('',#28,.T.);
#25=FACE_OUTER_BOUND('',#29,.T.);
#26=FACE_OUTER_BOUND('',#31,.T.);
#27=FACE_OUTER_BOUND('',#32,.T.);
#28=EDGE_LOOP('',(#52,#53,#54,#55));
#29=EDGE_LOOP('',(#56));
#30=EDGE_LOOP('',(#57));
#31=EDGE_LOOP('',(#58,#59,#60,#61));
#32=EDGE_LOOP('',(#62));
#33=EDGE_LOOP('',(#63));
#34=LINE('',#112,#36);
#35=LINE('',#120,#37);
#36=VECTOR('',#90,49.25);
#37=VECTOR('',#101,57.5);
#38=CIRCLE('',#74,50.);
#39=CIRCLE('',#75,48.5);
#40=CIRCLE('',#77,60.);
#41=CIRCLE('',#79,55.);
#42=VERTEX_POINT('',#109);
#43=VERTEX_POINT('',#111);
#44=VERTEX_POINT('',#115);
#45=VERTEX_POINT('',#118);
#46=EDGE_CURVE('',#42,#42,#38,.T.);
#47=EDGE_CURVE('',#42,#43,#34,.T.);
#48=EDGE_CURVE('',#43,#43,#39,.T.);
#49=EDGE_CURVE('',#44,#44,#40,.T.);
#50=EDGE_CURVE('',#45,#45,#41,.T.);
#51=EDGE_CURVE('',#45,#44,#35,.T.);
#52=ORIENTED_EDGE('',*,*,#46,.T.);
#53=ORIENTED_EDGE('',*,*,#47,.T.);
#54=ORIENTED_EDGE('',*,*,#48,.F.);
#55=ORIENTED_EDGE('',*,*,#47,.F.);
#56=ORIENTED_EDGE('',*,*,#49,.F.);
#57=ORIENTED_EDGE('',*,*,#48,.T.);
#58=ORIENTED_EDGE('',*,*,#50,.F.);
#59=ORIENTED_EDGE('',*,*,#51,.T.);
#60=ORIENTED_EDGE('',*,*,#49,.T.);
#61=ORIENTED_EDGE('',*,*,#51,.F.);
#62=ORIENTED_EDGE('',*,*,#50,.T.);
#63=ORIENTED_EDGE('',*,*,#46,.F.);
#64=CONICAL_SURFACE('',#73,49.25,0.0516780844824298);
#65=CONICAL_SURFACE('',#78,57.5,0.170735211475283);
#66=ADVANCED_FACE('',(#24),#64,.F.);
#67=ADVANCED_FACE('',(#25,#20),#22,.T.);
#68=ADVANCED_FACE('',(#26),#65,.T.);
#69=ADVANCED_FACE('',(#27,#21),#23,.T.);
#70=CLOSED_SHELL('',(#66,#67,#68,#69));
#71=AXIS2_PLACEMENT_3D('',#106,#82,#83);
#72=AXIS2_PLACEMENT_3D('',#107,#84,#85);
#73=AXIS2_PLACEMENT_3D('',#108,#86,#87);
#74=AXIS2_PLACEMENT_3D('',#110,#88,#89);
#75=AXIS2_PLACEMENT_3D('',#113,#91,#92);
#76=AXIS2_PLACEMENT_3D('',#114,#93,#94);
#77=AXIS2_PLACEMENT_3D('',#116,#95,#96);
#78=AXIS2_PLACEMENT_3D('',#117,#97,#98);
#79=AXIS2_PLACEMENT_3D('',#119,#99,#100);
#80=AXIS2_PLACEMENT_3D('',#121,#102,#103);
#81=AXIS2_PLACEMENT_3D('',#122,#104,#105);
#82=DIRECTION('axis',(0.,0.,1.));
#83=DIRECTION('refdir',(1.,0.,0.));
#84=DIRECTION('axis',(0.,0.,1.));
#85=DIRECTION('refdir',(1.,0.,0.));
#86=DIRECTION('center_axis',(0.,-6.12323399573677E-17,-1.));
#87=DIRECTION('ref_axis',(-1.,0.,0.));
#88=DIRECTION('center_axis',(0.,-6.12323399573677E-17,-1.));
#89=DIRECTION('ref_axis',(1.,0.,0.));
#90=DIRECTION('',(-0.0516550854280398,6.74765173644079E-17,0.998664984942108));
#91=DIRECTION('center_axis',(0.,-6.12323399573677E-17,-1.));
#92=DIRECTION('ref_axis',(1.,0.,0.));
#93=DIRECTION('center_axis',(0.,6.12323399573677E-17,1.));
#94=DIRECTION('ref_axis',(0.,-1.,6.12323399573677E-17));
#95=DIRECTION('center_axis',(0.,-6.12323399573677E-17,-1.));
#96=DIRECTION('ref_axis',(1.,0.,0.));
#97=DIRECTION('center_axis',(0.,6.12323399573677E-17,1.));
#98=DIRECTION('ref_axis',(-1.,0.,0.));
#99=DIRECTION('center_axis',(0.,-6.12323399573677E-17,-1.));
#100=DIRECTION('ref_axis',(1.,0.,0.));
#101=DIRECTION('',(0.169906916507646,3.95344326762763E-17,0.985460115744348));
#102=DIRECTION('center_axis',(0.,-6.12323399573677E-17,-1.));
#103=DIRECTION('ref_axis',(0.,1.,-6.12323399573677E-17));
#104=DIRECTION('',(0.,0.,1.));
#105=DIRECTION('',(1.,0.,0.));
#106=CARTESIAN_POINT('',(0.,0.,0.));
#107=CARTESIAN_POINT('',(0.,0.,0.));
#108=CARTESIAN_POINT('Origin',(-27.9713169179102,244.535203399217,-2.5));
#109=CARTESIAN_POINT('',(22.0286830820898,244.535203399217,-17.));
#110=CARTESIAN_POINT('Origin',(-27.9713169179102,244.535203399217,-17.));
#111=CARTESIAN_POINT('',(20.5286830820898,244.535203399217,12.));
#112=CARTESIAN_POINT('',(21.2786830820898,244.535203399217,-2.5));
#113=CARTESIAN_POINT('Origin',(-27.9713169179102,244.535203399217,12.));
#114=CARTESIAN_POINT('Origin',(-87.9713169179102,244.535203399217,12.));
#115=CARTESIAN_POINT('',(32.0286830820898,244.535203399217,12.));
#116=CARTESIAN_POINT('Origin',(-27.9713169179102,244.535203399217,12.));
#117=CARTESIAN_POINT('Origin',(-27.9713169179102,244.535203399217,-2.5));
#118=CARTESIAN_POINT('',(27.0286830820898,244.535203399217,-17.));
#119=CARTESIAN_POINT('Origin',(-27.9713169179102,244.535203399217,-17.));
#120=CARTESIAN_POINT('',(29.5286830820898,244.535203399217,-2.5));
#121=CARTESIAN_POINT('Origin',(-77.9713169179102,244.535203399217,-17.));
#122=CARTESIAN_POINT('',(0.,0.,0.));
#123=UNCERTAINTY_MEASURE_WITH_UNIT(LENGTH_MEASURE(0.001),#129,
'DISTANCE_ACCURACY_VALUE',
'Maximum model space distance between geometric entities at asserted c
onnectivities');
#124=UNCERTAINTY_MEASURE_WITH_UNIT(LENGTH_MEASURE(0.001),#129,
'DISTANCE_ACCURACY_VALUE',
'Maximum model space distance between geometric entities at asserted c
onnectivities');
#125=UNCERTAINTY_MEASURE_WITH_UNIT(LENGTH_MEASURE(0.001),#129,
'DISTANCE_ACCURACY_VALUE',
'Maximum model space distance between geometric entities at asserted c
onnectivities');
#126=(
GEOMETRIC_REPRESENTATION_CONTEXT(3)
GLOBAL_UNCERTAINTY_ASSIGNED_CONTEXT((#123))
GLOBAL_UNIT_ASSIGNED_CONTEXT((#129,#130,#131))
REPRESENTATION_CONTEXT('','3D')
);
#127=(
GEOMETRIC_REPRESENTATION_CONTEXT(3)
GLOBAL_UNCERTAINTY_ASSIGNED_CONTEXT((#124))
GLOBAL_UNIT_ASSIGNED_CONTEXT((#129,#130,#131))
REPRESENTATION_CONTEXT('','3D')
);
#128=(
GEOMETRIC_REPRESENTATION_CONTEXT(3)
GLOBAL_UNCERTAINTY_ASSIGNED_CONTEXT((#125))
GLOBAL_UNIT_ASSIGNED_CONTEXT((#129,#130,#131))
REPRESENTATION_CONTEXT('','3D')
);
#129=(
LENGTH_UNIT()
NAMED_UNIT(*)
SI_UNIT(.CENTI.,.METRE.)
);
#130=(
NAMED_UNIT(*)
PLANE_ANGLE_UNIT()
SI_UNIT($,.RADIAN.)
);
#131=(
NAMED_UNIT(*)
SI_UNIT($,.STERADIAN.)
SOLID_ANGLE_UNIT()
);
#132=SHAPE_DEFINITION_REPRESENTATION(#134,#137);
#133=SHAPE_DEFINITION_REPRESENTATION(#135,#138);
#134=PRODUCT_DEFINITION_SHAPE('',$,#140);
#135=PRODUCT_DEFINITION_SHAPE('',$,#141);
#136=PRODUCT_DEFINITION_SHAPE($,$,#17);
#137=SHAPE_REPRESENTATION('',(#71,#81),#126);
#138=SHAPE_REPRESENTATION('',(#72),#127);
#139=PRODUCT_DEFINITION_CONTEXT('part definition',#147,'design');
#140=PRODUCT_DEFINITION('Product','Product',#142,#139);
#141=PRODUCT_DEFINITION('*S0','*S0',#143,#139);
#142=PRODUCT_DEFINITION_FORMATION('',$,#149);
#143=PRODUCT_DEFINITION_FORMATION('',$,#150);
#144=PRODUCT_RELATED_PRODUCT_CATEGORY('Product','Product',(#149));
#145=PRODUCT_RELATED_PRODUCT_CATEGORY('*S0','*S0',(#150));
#146=APPLICATION_PROTOCOL_DEFINITION('international standard',
'automotive_design',2009,#147);
#147=APPLICATION_CONTEXT(
'Core Data for Automotive Mechanical Design Process');
#148=PRODUCT_CONTEXT('part definition',#147,'mechanical');
#149=PRODUCT('Product','Product',$,(#148));
#150=PRODUCT('*S0','*S0',$,(#148));
#151=PRESENTATION_STYLE_ASSIGNMENT((#152));
#152=SURFACE_STYLE_USAGE(.BOTH.,#153);
#153=SURFACE_SIDE_STYLE('',(#154));
#154=SURFACE_STYLE_FILL_AREA(#155);
#155=FILL_AREA_STYLE('',(#156));
#156=FILL_AREA_STYLE_COLOUR('',#157);
#157=COLOUR_RGB('',0.329411764705882,0.329411764705882,0.329411764705882);
ENDSEC;
END-ISO-10303-21;
