ISO-10303-21;
HEADER;
/* Generated by software containing ST-Developer
 * from STEP Tools, Inc. (www.steptools.com) 
 */

FILE_DESCRIPTION(
/* description */ (''),
/* implementation_level */ '2;1');

FILE_NAME(
/* name */ '15197.070X_3D.stp',
/* time_stamp */ '2024-12-11T14:54:57+01:00',
/* author */ ('CAD'),
/* organization */ (''),
/* preprocessor_version */ 'ST-DEVELOPER v20',
/* originating_system */ 'AutoCAD Mechanical',
/* authorisation */ '');

FILE_SCHEMA (('AUTOMOTIVE_DESIGN { 1 0 10303 214 3 1 1 }'));
ENDSEC;

DATA;
#10=MECHANICAL_DESIGN_GEOMETRIC_PRESENTATION_REPRESENTATION('',(#18),#183);
#11=PRESENTATION_LAYER_ASSIGNMENT('4','Material (Edelstahl)',(#19));
#12=SHAPE_REPRESENTATION_RELATIONSHIP('SRR','None',#192,#13);
#13=ADVANCED_BREP_SHAPE_REPRESENTATION('',(#19),#181);
#14=ITEM_DEFINED_TRANSFORMATION($,$,#103,#116);
#15=(
REPRESENTATION_RELATIONSHIP($,$,#193,#192)
REPRESENTATION_RELATIONSHIP_WITH_TRANSFORMATION(#14)
SHAPE_REPRESENTATION_RELATIONSHIP()
);
#16=CONTEXT_DEPENDENT_SHAPE_REPRESENTATION(#15,#191);
#17=NEXT_ASSEMBLY_USAGE_OCCURRENCE('30AA','30AA','30AA',#195,#196,
'30AA');
#18=STYLED_ITEM('',(#206),#19);
#19=MANIFOLD_SOLID_BREP('DE4B',#101);
#20=CYLINDRICAL_SURFACE('',#114,35.3);
#21=CYLINDRICAL_SURFACE('',#115,36.5);
#22=LINE('',#163,#27);
#23=LINE('',#167,#28);
#24=LINE('',#171,#29);
#25=LINE('',#174,#30);
#26=LINE('',#176,#31);
#27=VECTOR('',#131,36.1937896776592);
#28=VECTOR('',#136,35.2898625364635);
#29=VECTOR('',#141,34.9960728588042);
#30=VECTOR('',#146,35.3);
#31=VECTOR('',#149,36.5);
#32=CIRCLE('',#108,35.8875793553185);
#33=CIRCLE('',#109,36.5);
#34=CIRCLE('',#111,34.6921457176085);
#35=CIRCLE('',#113,35.3);
#36=CONICAL_SURFACE('',#107,36.1937896776592,0.0872664625997411);
#37=CONICAL_SURFACE('',#110,35.2898625364635,1.48352986419514);
#38=CONICAL_SURFACE('',#112,34.9960728588042,0.087266462599744);
#39=FACE_BOUND('',#47,.T.);
#40=FACE_OUTER_BOUND('',#46,.T.);
#41=FACE_OUTER_BOUND('',#48,.T.);
#42=FACE_OUTER_BOUND('',#49,.T.);
#43=FACE_OUTER_BOUND('',#50,.T.);
#44=FACE_OUTER_BOUND('',#51,.T.);
#45=FACE_OUTER_BOUND('',#52,.T.);
#46=EDGE_LOOP('',(#72));
#47=EDGE_LOOP('',(#73));
#48=EDGE_LOOP('',(#74,#75,#76,#77));
#49=EDGE_LOOP('',(#78,#79,#80,#81));
#50=EDGE_LOOP('',(#82,#83,#84,#85));
#51=EDGE_LOOP('',(#86,#87,#88,#89));
#52=EDGE_LOOP('',(#90,#91,#92,#93));
#53=ELLIPSE('',#105,51.618795026618,36.5);
#54=ELLIPSE('',#106,49.9217387517702,35.3);
#55=VERTEX_POINT('',#155);
#56=VERTEX_POINT('',#157);
#57=VERTEX_POINT('',#160);
#58=VERTEX_POINT('',#162);
#59=VERTEX_POINT('',#166);
#60=VERTEX_POINT('',#170);
#61=EDGE_CURVE('',#55,#55,#53,.T.);
#62=EDGE_CURVE('',#56,#56,#54,.T.);
#63=EDGE_CURVE('',#57,#57,#32,.T.);
#64=EDGE_CURVE('',#57,#58,#22,.T.);
#65=EDGE_CURVE('',#58,#58,#33,.T.);
#66=EDGE_CURVE('',#57,#59,#23,.T.);
#67=EDGE_CURVE('',#59,#59,#34,.T.);
#68=EDGE_CURVE('',#59,#60,#24,.T.);
#69=EDGE_CURVE('',#60,#60,#35,.T.);
#70=EDGE_CURVE('',#60,#56,#25,.T.);
#71=EDGE_CURVE('',#58,#55,#26,.T.);
#72=ORIENTED_EDGE('',*,*,#61,.F.);
#73=ORIENTED_EDGE('',*,*,#62,.F.);
#74=ORIENTED_EDGE('',*,*,#63,.F.);
#75=ORIENTED_EDGE('',*,*,#64,.T.);
#76=ORIENTED_EDGE('',*,*,#65,.T.);
#77=ORIENTED_EDGE('',*,*,#64,.F.);
#78=ORIENTED_EDGE('',*,*,#63,.T.);
#79=ORIENTED_EDGE('',*,*,#66,.T.);
#80=ORIENTED_EDGE('',*,*,#67,.F.);
#81=ORIENTED_EDGE('',*,*,#66,.F.);
#82=ORIENTED_EDGE('',*,*,#67,.T.);
#83=ORIENTED_EDGE('',*,*,#68,.T.);
#84=ORIENTED_EDGE('',*,*,#69,.F.);
#85=ORIENTED_EDGE('',*,*,#68,.F.);
#86=ORIENTED_EDGE('',*,*,#69,.T.);
#87=ORIENTED_EDGE('',*,*,#70,.T.);
#88=ORIENTED_EDGE('',*,*,#62,.T.);
#89=ORIENTED_EDGE('',*,*,#70,.F.);
#90=ORIENTED_EDGE('',*,*,#65,.F.);
#91=ORIENTED_EDGE('',*,*,#71,.T.);
#92=ORIENTED_EDGE('',*,*,#61,.T.);
#93=ORIENTED_EDGE('',*,*,#71,.F.);
#94=PLANE('',#104);
#95=ADVANCED_FACE('',(#40,#39),#94,.F.);
#96=ADVANCED_FACE('',(#41),#36,.T.);
#97=ADVANCED_FACE('',(#42),#37,.F.);
#98=ADVANCED_FACE('',(#43),#38,.F.);
#99=ADVANCED_FACE('',(#44),#20,.F.);
#100=ADVANCED_FACE('',(#45),#21,.T.);
#101=CLOSED_SHELL('',(#95,#96,#97,#98,#99,#100));
#102=AXIS2_PLACEMENT_3D('',#152,#117,#118);
#103=AXIS2_PLACEMENT_3D('',#153,#119,#120);
#104=AXIS2_PLACEMENT_3D('',#154,#121,#122);
#105=AXIS2_PLACEMENT_3D('',#156,#123,#124);
#106=AXIS2_PLACEMENT_3D('',#158,#125,#126);
#107=AXIS2_PLACEMENT_3D('',#159,#127,#128);
#108=AXIS2_PLACEMENT_3D('',#161,#129,#130);
#109=AXIS2_PLACEMENT_3D('',#164,#132,#133);
#110=AXIS2_PLACEMENT_3D('',#165,#134,#135);
#111=AXIS2_PLACEMENT_3D('',#168,#137,#138);
#112=AXIS2_PLACEMENT_3D('',#169,#139,#140);
#113=AXIS2_PLACEMENT_3D('',#172,#142,#143);
#114=AXIS2_PLACEMENT_3D('',#173,#144,#145);
#115=AXIS2_PLACEMENT_3D('',#175,#147,#148);
#116=AXIS2_PLACEMENT_3D('',#177,#150,#151);
#117=DIRECTION('axis',(0.,0.,1.));
#118=DIRECTION('refdir',(1.,0.,0.));
#119=DIRECTION('axis',(0.,0.,1.));
#120=DIRECTION('refdir',(1.,0.,0.));
#121=DIRECTION('center_axis',(0.707106781186548,0.,-0.707106781186548));
#122=DIRECTION('ref_axis',(-0.707106781186548,0.,-0.707106781186548));
#123=DIRECTION('center_axis',(0.707106781186548,0.,-0.707106781186548));
#124=DIRECTION('ref_axis',(0.707106781186548,-1.05791772985411E-15,0.707106781186548));
#125=DIRECTION('center_axis',(-0.707106781186548,0.,0.707106781186548));
#126=DIRECTION('ref_axis',(0.707106781186547,-1.05791772985411E-15,0.707106781186547));
#127=DIRECTION('center_axis',(0.,6.12323399573677E-17,1.));
#128=DIRECTION('ref_axis',(1.,-1.557353941392E-15,9.53604259732614E-32));
#129=DIRECTION('center_axis',(0.,-6.12323399573677E-17,-1.));
#130=DIRECTION('ref_axis',(1.,0.,0.));
#131=DIRECTION('',(-0.0871557427476827,2.07405172038658E-16,0.996194698091743));
#132=DIRECTION('center_axis',(0.,-6.12323399573677E-17,-1.));
#133=DIRECTION('ref_axis',(1.,0.,0.));
#134=DIRECTION('center_axis',(0.,-6.12323399573677E-17,-1.));
#135=DIRECTION('ref_axis',(1.,-1.557353941392E-15,9.53604259732614E-32));
#136=DIRECTION('',(0.996194698091742,-1.66808965423239E-15,0.0871557427476962));
#137=DIRECTION('center_axis',(0.,-6.12323399573677E-17,-1.));
#138=DIRECTION('ref_axis',(1.,0.,0.));
#139=DIRECTION('center_axis',(0.,6.12323399573677E-17,1.));
#140=DIRECTION('ref_axis',(1.,-1.557353941392E-15,9.53604259732614E-32));
#141=DIRECTION('',(-0.0871557427476856,2.07405172038663E-16,0.996194698091743));
#142=DIRECTION('center_axis',(0.,-6.12323399573677E-17,-1.));
#143=DIRECTION('ref_axis',(1.,0.,0.));
#144=DIRECTION('center_axis',(0.,-6.12323399573677E-17,-1.));
#145=DIRECTION('ref_axis',(1.,-1.557353941392E-15,9.53604259732614E-32));
#146=DIRECTION('',(0.,6.12323399573677E-17,1.));
#147=DIRECTION('center_axis',(0.,-6.12323399573677E-17,-1.));
#148=DIRECTION('ref_axis',(1.,-1.557353941392E-15,9.53604259732614E-32));
#149=DIRECTION('',(0.,6.12323399573677E-17,1.));
#150=DIRECTION('',(0.,0.,1.));
#151=DIRECTION('',(1.,0.,0.));
#152=CARTESIAN_POINT('',(0.,0.,0.));
#153=CARTESIAN_POINT('',(0.,0.,0.));
#154=CARTESIAN_POINT('Origin',(36.5,0.,210.104586891297));
#155=CARTESIAN_POINT('',(-36.5,5.6843418860808E-14,137.104586891297));
#156=CARTESIAN_POINT('Origin',(0.,0.,173.604586891297));
#157=CARTESIAN_POINT('',(-35.3,5.6843418860808E-14,138.304586891297));
#158=CARTESIAN_POINT('Origin',(0.,0.,173.604586891297));
#159=CARTESIAN_POINT('Origin',(0.,0.,3.49999999999909));
#160=CARTESIAN_POINT('',(-35.8875793553185,5.6843418860808E-14,0.));
#161=CARTESIAN_POINT('Origin',(0.,0.,0.));
#162=CARTESIAN_POINT('',(-36.5,5.6843418860808E-14,6.99999999999829));
#163=CARTESIAN_POINT('',(-36.1937896776592,5.6843418860808E-14,3.49999999999909));
#164=CARTESIAN_POINT('Origin',(0.,0.,6.99999999999829));
#165=CARTESIAN_POINT('Origin',(0.,0.,0.0522934456486155));
#166=CARTESIAN_POINT('',(-34.6921457176085,5.6843418860808E-14,0.104586891297231));
#167=CARTESIAN_POINT('',(-35.2898625364635,5.6843418860808E-14,0.0522934456486155));
#168=CARTESIAN_POINT('Origin',(0.,0.,0.104586891297231));
#169=CARTESIAN_POINT('Origin',(0.,0.,3.5784900113922));
#170=CARTESIAN_POINT('',(-35.3,5.6843418860808E-14,7.05239313148718));
#171=CARTESIAN_POINT('',(-34.9960728588042,5.6843418860808E-14,3.5784900113922));
#172=CARTESIAN_POINT('Origin',(0.,0.,7.05239313148718));
#173=CARTESIAN_POINT('Origin',(0.,0.,8.52619656574359));
#174=CARTESIAN_POINT('',(-35.3,5.6843418860808E-14,8.52619656574359));
#175=CARTESIAN_POINT('Origin',(0.,0.,8.49999999999909));
#176=CARTESIAN_POINT('',(-36.5,5.6843418860808E-14,8.49999999999909));
#177=CARTESIAN_POINT('',(0.,0.,0.));
#178=UNCERTAINTY_MEASURE_WITH_UNIT(LENGTH_MEASURE(0.001),#184,
'DISTANCE_ACCURACY_VALUE',
'Maximum model space distance between geometric entities at asserted c
onnectivities');
#179=UNCERTAINTY_MEASURE_WITH_UNIT(LENGTH_MEASURE(0.001),#184,
'DISTANCE_ACCURACY_VALUE',
'Maximum model space distance between geometric entities at asserted c
onnectivities');
#180=UNCERTAINTY_MEASURE_WITH_UNIT(LENGTH_MEASURE(0.001),#184,
'DISTANCE_ACCURACY_VALUE',
'Maximum model space distance between geometric entities at asserted c
onnectivities');
#181=(
GEOMETRIC_REPRESENTATION_CONTEXT(3)
GLOBAL_UNCERTAINTY_ASSIGNED_CONTEXT((#178))
GLOBAL_UNIT_ASSIGNED_CONTEXT((#184,#185,#186))
REPRESENTATION_CONTEXT('','3D')
);
#182=(
GEOMETRIC_REPRESENTATION_CONTEXT(3)
GLOBAL_UNCERTAINTY_ASSIGNED_CONTEXT((#179))
GLOBAL_UNIT_ASSIGNED_CONTEXT((#184,#185,#186))
REPRESENTATION_CONTEXT('','3D')
);
#183=(
GEOMETRIC_REPRESENTATION_CONTEXT(3)
GLOBAL_UNCERTAINTY_ASSIGNED_CONTEXT((#180))
GLOBAL_UNIT_ASSIGNED_CONTEXT((#184,#185,#186))
REPRESENTATION_CONTEXT('','3D')
);
#184=(
LENGTH_UNIT()
NAMED_UNIT(*)
SI_UNIT(.CENTI.,.METRE.)
);
#185=(
NAMED_UNIT(*)
PLANE_ANGLE_UNIT()
SI_UNIT($,.RADIAN.)
);
#186=(
NAMED_UNIT(*)
SI_UNIT($,.STERADIAN.)
SOLID_ANGLE_UNIT()
);
#187=SHAPE_DEFINITION_REPRESENTATION(#189,#192);
#188=SHAPE_DEFINITION_REPRESENTATION(#190,#193);
#189=PRODUCT_DEFINITION_SHAPE('',$,#195);
#190=PRODUCT_DEFINITION_SHAPE('',$,#196);
#191=PRODUCT_DEFINITION_SHAPE($,$,#17);
#192=SHAPE_REPRESENTATION('',(#102,#116),#181);
#193=SHAPE_REPRESENTATION('',(#103),#182);
#194=PRODUCT_DEFINITION_CONTEXT('part definition',#202,'design');
#195=PRODUCT_DEFINITION('Product','Product',#197,#194);
#196=PRODUCT_DEFINITION('*S0','*S0',#198,#194);
#197=PRODUCT_DEFINITION_FORMATION('',$,#204);
#198=PRODUCT_DEFINITION_FORMATION('',$,#205);
#199=PRODUCT_RELATED_PRODUCT_CATEGORY('Product','Product',(#204));
#200=PRODUCT_RELATED_PRODUCT_CATEGORY('*S0','*S0',(#205));
#201=APPLICATION_PROTOCOL_DEFINITION('international standard',
'automotive_design',2009,#202);
#202=APPLICATION_CONTEXT(
'Core Data for Automotive Mechanical Design Process');
#203=PRODUCT_CONTEXT('part definition',#202,'mechanical');
#204=PRODUCT('Product','Product',$,(#203));
#205=PRODUCT('*S0','*S0',$,(#203));
#206=PRESENTATION_STYLE_ASSIGNMENT((#207));
#207=SURFACE_STYLE_USAGE(.BOTH.,#208);
#208=SURFACE_SIDE_STYLE('',(#209));
#209=SURFACE_STYLE_FILL_AREA(#210);
#210=FILL_AREA_STYLE('',(#211));
#211=FILL_AREA_STYLE_COLOUR('',#212);
#212=COLOUR_RGB('',0.901960784313726,0.901960784313726,0.901960784313726);
ENDSEC;
END-ISO-10303-21;
