ISO-10303-21;
HEADER;
/* Generated by software containing ST-Developer
 * from STEP Tools, Inc. (www.steptools.com) 
 */

FILE_DESCRIPTION(
/* description */ (''),
/* implementation_level */ '2;1');

FILE_NAME(
/* name */ '15197.050X_3D.stp',
/* time_stamp */ '2024-12-11T14:54:54+01:00',
/* author */ ('CAD'),
/* organization */ (''),
/* preprocessor_version */ 'ST-DEVELOPER v20',
/* originating_system */ 'AutoCAD Mechanical',
/* authorisation */ '');

FILE_SCHEMA (('AUTOMOTIVE_DESIGN { 1 0 10303 214 3 1 1 }'));
ENDSEC;

DATA;
#10=MECHANICAL_DESIGN_GEOMETRIC_PRESENTATION_REPRESENTATION('',(#18),#183);
#11=PRESENTATION_LAYER_ASSIGNMENT('4','Material (Edelstahl)',(#19));
#12=SHAPE_REPRESENTATION_RELATIONSHIP('SRR','None',#192,#13);
#13=ADVANCED_BREP_SHAPE_REPRESENTATION('',(#19),#181);
#14=ITEM_DEFINED_TRANSFORMATION($,$,#103,#116);
#15=(
REPRESENTATION_RELATIONSHIP($,$,#193,#192)
REPRESENTATION_RELATIONSHIP_WITH_TRANSFORMATION(#14)
SHAPE_REPRESENTATION_RELATIONSHIP()
);
#16=CONTEXT_DEPENDENT_SHAPE_REPRESENTATION(#15,#191);
#17=NEXT_ASSEMBLY_USAGE_OCCURRENCE('30AA','30AA','30AA',#195,#196,
'30AA');
#18=STYLED_ITEM('',(#206),#19);
#19=MANIFOLD_SOLID_BREP('DE47',#101);
#20=CONICAL_SURFACE('',#109,25.2831809921394,0.0872664625996858);
#21=CONICAL_SURFACE('',#111,25.5644593333246,1.48352986419518);
#22=CONICAL_SURFACE('',#113,26.2812783411852,0.0872664625997514);
#23=CIRCLE('',#108,25.5);
#24=CIRCLE('',#110,25.0663619842787);
#25=CIRCLE('',#112,26.0625566823704);
#26=CIRCLE('',#114,26.5);
#27=LINE('',#161,#32);
#28=LINE('',#165,#33);
#29=LINE('',#169,#34);
#30=LINE('',#174,#35);
#31=LINE('',#176,#36);
#32=VECTOR('',#129,25.5);
#33=VECTOR('',#134,25.2831809921394);
#34=VECTOR('',#139,25.5644593333246);
#35=VECTOR('',#146,26.2812783411852);
#36=VECTOR('',#149,26.5);
#37=CYLINDRICAL_SURFACE('',#107,25.5);
#38=CYLINDRICAL_SURFACE('',#115,26.5);
#39=FACE_BOUND('',#47,.T.);
#40=FACE_OUTER_BOUND('',#46,.T.);
#41=FACE_OUTER_BOUND('',#48,.T.);
#42=FACE_OUTER_BOUND('',#49,.T.);
#43=FACE_OUTER_BOUND('',#50,.T.);
#44=FACE_OUTER_BOUND('',#51,.T.);
#45=FACE_OUTER_BOUND('',#52,.T.);
#46=EDGE_LOOP('',(#72));
#47=EDGE_LOOP('',(#73));
#48=EDGE_LOOP('',(#74,#75,#76,#77));
#49=EDGE_LOOP('',(#78,#79,#80,#81));
#50=EDGE_LOOP('',(#82,#83,#84,#85));
#51=EDGE_LOOP('',(#86,#87,#88,#89));
#52=EDGE_LOOP('',(#90,#91,#92,#93));
#53=ELLIPSE('',#105,37.476659402887,26.5);
#54=ELLIPSE('',#106,36.0624458405139,25.5);
#55=VERTEX_POINT('',#155);
#56=VERTEX_POINT('',#157);
#57=VERTEX_POINT('',#160);
#58=VERTEX_POINT('',#164);
#59=VERTEX_POINT('',#168);
#60=VERTEX_POINT('',#172);
#61=EDGE_CURVE('',#55,#55,#53,.T.);
#62=EDGE_CURVE('',#56,#56,#54,.T.);
#63=EDGE_CURVE('',#56,#57,#27,.T.);
#64=EDGE_CURVE('',#57,#57,#23,.T.);
#65=EDGE_CURVE('',#57,#58,#28,.T.);
#66=EDGE_CURVE('',#58,#58,#24,.T.);
#67=EDGE_CURVE('',#58,#59,#29,.T.);
#68=EDGE_CURVE('',#59,#59,#25,.T.);
#69=EDGE_CURVE('',#60,#60,#26,.T.);
#70=EDGE_CURVE('',#60,#59,#30,.T.);
#71=EDGE_CURVE('',#55,#60,#31,.T.);
#72=ORIENTED_EDGE('',*,*,#61,.F.);
#73=ORIENTED_EDGE('',*,*,#62,.F.);
#74=ORIENTED_EDGE('',*,*,#62,.T.);
#75=ORIENTED_EDGE('',*,*,#63,.T.);
#76=ORIENTED_EDGE('',*,*,#64,.F.);
#77=ORIENTED_EDGE('',*,*,#63,.F.);
#78=ORIENTED_EDGE('',*,*,#64,.T.);
#79=ORIENTED_EDGE('',*,*,#65,.T.);
#80=ORIENTED_EDGE('',*,*,#66,.F.);
#81=ORIENTED_EDGE('',*,*,#65,.F.);
#82=ORIENTED_EDGE('',*,*,#66,.T.);
#83=ORIENTED_EDGE('',*,*,#67,.T.);
#84=ORIENTED_EDGE('',*,*,#68,.F.);
#85=ORIENTED_EDGE('',*,*,#67,.F.);
#86=ORIENTED_EDGE('',*,*,#69,.F.);
#87=ORIENTED_EDGE('',*,*,#70,.T.);
#88=ORIENTED_EDGE('',*,*,#68,.T.);
#89=ORIENTED_EDGE('',*,*,#70,.F.);
#90=ORIENTED_EDGE('',*,*,#61,.T.);
#91=ORIENTED_EDGE('',*,*,#71,.T.);
#92=ORIENTED_EDGE('',*,*,#69,.T.);
#93=ORIENTED_EDGE('',*,*,#71,.F.);
#94=PLANE('',#104);
#95=ADVANCED_FACE('',(#40,#39),#94,.F.);
#96=ADVANCED_FACE('',(#41),#37,.F.);
#97=ADVANCED_FACE('',(#42),#20,.F.);
#98=ADVANCED_FACE('',(#43),#21,.F.);
#99=ADVANCED_FACE('',(#44),#22,.T.);
#100=ADVANCED_FACE('',(#45),#38,.T.);
#101=CLOSED_SHELL('',(#95,#96,#97,#98,#99,#100));
#102=AXIS2_PLACEMENT_3D('',#152,#117,#118);
#103=AXIS2_PLACEMENT_3D('',#153,#119,#120);
#104=AXIS2_PLACEMENT_3D('',#154,#121,#122);
#105=AXIS2_PLACEMENT_3D('',#156,#123,#124);
#106=AXIS2_PLACEMENT_3D('',#158,#125,#126);
#107=AXIS2_PLACEMENT_3D('',#159,#127,#128);
#108=AXIS2_PLACEMENT_3D('',#162,#130,#131);
#109=AXIS2_PLACEMENT_3D('',#163,#132,#133);
#110=AXIS2_PLACEMENT_3D('',#166,#135,#136);
#111=AXIS2_PLACEMENT_3D('',#167,#137,#138);
#112=AXIS2_PLACEMENT_3D('',#170,#140,#141);
#113=AXIS2_PLACEMENT_3D('',#171,#142,#143);
#114=AXIS2_PLACEMENT_3D('',#173,#144,#145);
#115=AXIS2_PLACEMENT_3D('',#175,#147,#148);
#116=AXIS2_PLACEMENT_3D('',#177,#150,#151);
#117=DIRECTION('axis',(0.,0.,1.));
#118=DIRECTION('refdir',(1.,0.,0.));
#119=DIRECTION('axis',(0.,0.,1.));
#120=DIRECTION('refdir',(1.,0.,0.));
#121=DIRECTION('center_axis',(0.707106781186548,0.,-0.707106781186548));
#122=DIRECTION('ref_axis',(-0.707106781186548,0.,-0.707106781186548));
#123=DIRECTION('center_axis',(0.707106781186548,0.,-0.707106781186548));
#124=DIRECTION('ref_axis',(0.707106781186548,4.3297802811774E-17,0.707106781186548));
#125=DIRECTION('center_axis',(-0.707106781186548,0.,0.707106781186548));
#126=DIRECTION('ref_axis',(0.707106781186548,4.3297802811774E-17,0.707106781186547));
#127=DIRECTION('center_axis',(0.,6.12323399573677E-17,1.));
#128=DIRECTION('ref_axis',(1.,-9.52586753474429E-31,5.83291159276314E-47));
#129=DIRECTION('',(0.,-6.12323399573677E-17,-1.));
#130=DIRECTION('center_axis',(0.,6.12323399573677E-17,1.));
#131=DIRECTION('ref_axis',(1.,0.,0.));
#132=DIRECTION('center_axis',(0.,6.12323399573677E-17,1.));
#133=DIRECTION('ref_axis',(1.,-9.52586753474429E-31,5.83291159276314E-47));
#134=DIRECTION('',(0.0871557427476276,-5.0325832278962E-17,-0.996194698091748));
#135=DIRECTION('center_axis',(0.,6.12323399573677E-17,1.));
#136=DIRECTION('ref_axis',(1.,0.,0.));
#137=DIRECTION('center_axis',(0.,-6.12323399573677E-17,-1.));
#138=DIRECTION('ref_axis',(1.,-9.52586753474429E-31,5.83291159276314E-47));
#139=DIRECTION('',(-0.996194698091745,-1.27335414903723E-16,-0.0871557427476586));
#140=DIRECTION('center_axis',(0.,6.12323399573677E-17,1.));
#141=DIRECTION('ref_axis',(1.,0.,0.));
#142=DIRECTION('center_axis',(0.,6.12323399573677E-17,1.));
#143=DIRECTION('ref_axis',(1.,-9.52586753474429E-31,5.83291159276314E-47));
#144=DIRECTION('center_axis',(0.,6.12323399573677E-17,1.));
#145=DIRECTION('ref_axis',(1.,0.,0.));
#146=DIRECTION('',(0.087155742747693,-5.03258322789537E-17,-0.996194698091743));
#147=DIRECTION('center_axis',(0.,6.12323399573677E-17,1.));
#148=DIRECTION('ref_axis',(1.,-9.52586753474429E-31,5.83291159276314E-47));
#149=DIRECTION('',(0.,-6.12323399573677E-17,-1.));
#150=DIRECTION('',(0.,0.,1.));
#151=DIRECTION('',(1.,0.,0.));
#152=CARTESIAN_POINT('',(0.,0.,0.));
#153=CARTESIAN_POINT('',(0.,0.,0.));
#154=CARTESIAN_POINT('Origin',(26.4999999999999,-2.25644864576321E-14,185.));
#155=CARTESIAN_POINT('',(-26.5,-1.15426652653058E-14,132.));
#156=CARTESIAN_POINT('Origin',(0.,-1.3165322274176E-14,158.5));
#157=CARTESIAN_POINT('',(-25.5,-1.78495962809146E-14,133.));
#158=CARTESIAN_POINT('Origin',(0.,-1.3165322274176E-14,158.5));
#159=CARTESIAN_POINT('Origin',(0.,-2.24866093018357E-14,6.27183047145456));
#160=CARTESIAN_POINT('',(-25.5,-2.56846623337586E-14,5.04366094290918));
#161=CARTESIAN_POINT('',(-25.5,-2.56094586396615E-14,6.27183047145456));
#162=CARTESIAN_POINT('Origin',(0.,-2.25618129959329E-14,5.04366094290918));
#163=CARTESIAN_POINT('Origin',(0.,-2.27135622016413E-14,2.56540834282839));
#164=CARTESIAN_POINT('',(-25.0663619842787,-2.59350554043812E-14,0.0871557427476546));
#165=CARTESIAN_POINT('',(-25.2831809921394,-2.58098588690699E-14,2.56540834282839));
#166=CARTESIAN_POINT('Origin',(0.,-2.28653114073497E-14,0.0871557427476546));
#167=CARTESIAN_POINT('Origin',(0.,-2.28679797823842E-14,0.0435778713738273));
#168=CARTESIAN_POINT('',(-26.0625566823704,-2.60623908192849E-14,0.));
#169=CARTESIAN_POINT('',(-25.5644593333246,-2.59987231118331E-14,0.0435778713738273));
#170=CARTESIAN_POINT('Origin',(0.,-2.28706481574188E-14,0.));
#171=CARTESIAN_POINT('Origin',(0.,-2.27175673075255E-14,2.49999999999875));
#172=CARTESIAN_POINT('',(-26.5,-2.58098004753726E-14,4.99999999999744));
#173=CARTESIAN_POINT('Origin',(0.,-2.25644864576321E-14,4.99999999999744));
#174=CARTESIAN_POINT('',(-26.2812783411852,-2.59360956473288E-14,2.49999999999875));
#175=CARTESIAN_POINT('Origin',(0.,-2.24879460326853E-14,6.24999999999875));
#176=CARTESIAN_POINT('',(-26.5,-2.57332600504258E-14,6.24999999999875));
#177=CARTESIAN_POINT('',(0.,0.,0.));
#178=UNCERTAINTY_MEASURE_WITH_UNIT(LENGTH_MEASURE(0.001),#184,
'DISTANCE_ACCURACY_VALUE',
'Maximum model space distance between geometric entities at asserted c
onnectivities');
#179=UNCERTAINTY_MEASURE_WITH_UNIT(LENGTH_MEASURE(0.001),#184,
'DISTANCE_ACCURACY_VALUE',
'Maximum model space distance between geometric entities at asserted c
onnectivities');
#180=UNCERTAINTY_MEASURE_WITH_UNIT(LENGTH_MEASURE(0.001),#184,
'DISTANCE_ACCURACY_VALUE',
'Maximum model space distance between geometric entities at asserted c
onnectivities');
#181=(
GEOMETRIC_REPRESENTATION_CONTEXT(3)
GLOBAL_UNCERTAINTY_ASSIGNED_CONTEXT((#178))
GLOBAL_UNIT_ASSIGNED_CONTEXT((#184,#185,#186))
REPRESENTATION_CONTEXT('','3D')
);
#182=(
GEOMETRIC_REPRESENTATION_CONTEXT(3)
GLOBAL_UNCERTAINTY_ASSIGNED_CONTEXT((#179))
GLOBAL_UNIT_ASSIGNED_CONTEXT((#184,#185,#186))
REPRESENTATION_CONTEXT('','3D')
);
#183=(
GEOMETRIC_REPRESENTATION_CONTEXT(3)
GLOBAL_UNCERTAINTY_ASSIGNED_CONTEXT((#180))
GLOBAL_UNIT_ASSIGNED_CONTEXT((#184,#185,#186))
REPRESENTATION_CONTEXT('','3D')
);
#184=(
LENGTH_UNIT()
NAMED_UNIT(*)
SI_UNIT(.CENTI.,.METRE.)
);
#185=(
NAMED_UNIT(*)
PLANE_ANGLE_UNIT()
SI_UNIT($,.RADIAN.)
);
#186=(
NAMED_UNIT(*)
SI_UNIT($,.STERADIAN.)
SOLID_ANGLE_UNIT()
);
#187=SHAPE_DEFINITION_REPRESENTATION(#189,#192);
#188=SHAPE_DEFINITION_REPRESENTATION(#190,#193);
#189=PRODUCT_DEFINITION_SHAPE('',$,#195);
#190=PRODUCT_DEFINITION_SHAPE('',$,#196);
#191=PRODUCT_DEFINITION_SHAPE($,$,#17);
#192=SHAPE_REPRESENTATION('',(#102,#116),#181);
#193=SHAPE_REPRESENTATION('',(#103),#182);
#194=PRODUCT_DEFINITION_CONTEXT('part definition',#202,'design');
#195=PRODUCT_DEFINITION('Product','Product',#197,#194);
#196=PRODUCT_DEFINITION('*S0','*S0',#198,#194);
#197=PRODUCT_DEFINITION_FORMATION('',$,#204);
#198=PRODUCT_DEFINITION_FORMATION('',$,#205);
#199=PRODUCT_RELATED_PRODUCT_CATEGORY('Product','Product',(#204));
#200=PRODUCT_RELATED_PRODUCT_CATEGORY('*S0','*S0',(#205));
#201=APPLICATION_PROTOCOL_DEFINITION('international standard',
'automotive_design',2009,#202);
#202=APPLICATION_CONTEXT(
'Core Data for Automotive Mechanical Design Process');
#203=PRODUCT_CONTEXT('part definition',#202,'mechanical');
#204=PRODUCT('Product','Product',$,(#203));
#205=PRODUCT('*S0','*S0',$,(#203));
#206=PRESENTATION_STYLE_ASSIGNMENT((#207));
#207=SURFACE_STYLE_USAGE(.BOTH.,#208);
#208=SURFACE_SIDE_STYLE('',(#209));
#209=SURFACE_STYLE_FILL_AREA(#210);
#210=FILL_AREA_STYLE('',(#211));
#211=FILL_AREA_STYLE_COLOUR('',#212);
#212=COLOUR_RGB('',0.901960784313726,0.901960784313726,0.901960784313726);
ENDSEC;
END-ISO-10303-21;
