ISO-10303-21;
HEADER;
/* Generated by software containing ST-Developer
 * from STEP Tools, Inc. (www.steptools.com) 
 */

FILE_DESCRIPTION(
/* description */ (''),
/* implementation_level */ '2;1');

FILE_NAME(
/* name */ '15197.040X_3D.stp',
/* time_stamp */ '2024-12-11T14:54:52+01:00',
/* author */ ('CAD'),
/* organization */ (''),
/* preprocessor_version */ 'ST-DEVELOPER v20',
/* originating_system */ 'AutoCAD Mechanical',
/* authorisation */ '');

FILE_SCHEMA (('AUTOMOTIVE_DESIGN { 1 0 10303 214 3 1 1 }'));
ENDSEC;

DATA;
#10=MECHANICAL_DESIGN_GEOMETRIC_PRESENTATION_REPRESENTATION('',(#18),#193);
#11=PRESENTATION_LAYER_ASSIGNMENT('11','Material (Edelstahl)',(#19));
#12=SHAPE_REPRESENTATION_RELATIONSHIP('SRR','None',#202,#13);
#13=ADVANCED_BREP_SHAPE_REPRESENTATION('',(#19),#191);
#14=ITEM_DEFINED_TRANSFORMATION($,$,#108,#122);
#15=(
REPRESENTATION_RELATIONSHIP($,$,#203,#202)
REPRESENTATION_RELATIONSHIP_WITH_TRANSFORMATION(#14)
SHAPE_REPRESENTATION_RELATIONSHIP()
);
#16=CONTEXT_DEPENDENT_SHAPE_REPRESENTATION(#15,#201);
#17=NEXT_ASSEMBLY_USAGE_OCCURRENCE('30AA','30AA','30AA',#205,#206,
'30AA');
#18=STYLED_ITEM('',(#216),#19);
#19=MANIFOLD_SOLID_BREP('DE44',#106);
#20=CONICAL_SURFACE('',#117,19.7831809921394,0.0872664625997128);
#21=CONICAL_SURFACE('',#119,20.0644593333247,1.48352986419519);
#22=CONICAL_SURFACE('',#121,20.7812783411853,0.087266462599684);
#23=CIRCLE('',#113,20.);
#24=CIRCLE('',#114,20.);
#25=CIRCLE('',#116,21.);
#26=CIRCLE('',#118,19.5663619842788);
#27=CIRCLE('',#120,20.5625566823705);
#28=LINE('',#169,#33);
#29=LINE('',#175,#34);
#30=LINE('',#179,#35);
#31=LINE('',#183,#36);
#32=LINE('',#186,#37);
#33=VECTOR('',#135,20.);
#34=VECTOR('',#142,21.);
#35=VECTOR('',#147,19.7831809921394);
#36=VECTOR('',#152,20.0644593333247);
#37=VECTOR('',#157,20.7812783411853);
#38=CYLINDRICAL_SURFACE('',#112,20.);
#39=CYLINDRICAL_SURFACE('',#115,21.);
#40=FACE_BOUND('',#48,.T.);
#41=FACE_OUTER_BOUND('',#47,.T.);
#42=FACE_OUTER_BOUND('',#49,.T.);
#43=FACE_OUTER_BOUND('',#50,.T.);
#44=FACE_OUTER_BOUND('',#51,.T.);
#45=FACE_OUTER_BOUND('',#52,.T.);
#46=FACE_OUTER_BOUND('',#53,.T.);
#47=EDGE_LOOP('',(#75));
#48=EDGE_LOOP('',(#76));
#49=EDGE_LOOP('',(#77,#78,#79,#80,#81));
#50=EDGE_LOOP('',(#82,#83,#84,#85));
#51=EDGE_LOOP('',(#86,#87,#88,#89,#90));
#52=EDGE_LOOP('',(#91,#92,#93,#94));
#53=EDGE_LOOP('',(#95,#96,#97,#98));
#54=ELLIPSE('',#110,29.698484809835,21.);
#55=ELLIPSE('',#111,28.2842712474619,20.);
#56=VERTEX_POINT('',#163);
#57=VERTEX_POINT('',#165);
#58=VERTEX_POINT('',#168);
#59=VERTEX_POINT('',#170);
#60=VERTEX_POINT('',#174);
#61=VERTEX_POINT('',#178);
#62=VERTEX_POINT('',#182);
#63=EDGE_CURVE('',#56,#56,#54,.T.);
#64=EDGE_CURVE('',#57,#57,#55,.T.);
#65=EDGE_CURVE('',#57,#58,#28,.T.);
#66=EDGE_CURVE('',#59,#58,#23,.T.);
#67=EDGE_CURVE('',#58,#59,#24,.T.);
#68=EDGE_CURVE('',#56,#60,#29,.T.);
#69=EDGE_CURVE('',#60,#60,#25,.T.);
#70=EDGE_CURVE('',#59,#61,#30,.T.);
#71=EDGE_CURVE('',#61,#61,#26,.T.);
#72=EDGE_CURVE('',#61,#62,#31,.T.);
#73=EDGE_CURVE('',#62,#62,#27,.T.);
#74=EDGE_CURVE('',#60,#62,#32,.T.);
#75=ORIENTED_EDGE('',*,*,#63,.F.);
#76=ORIENTED_EDGE('',*,*,#64,.F.);
#77=ORIENTED_EDGE('',*,*,#64,.T.);
#78=ORIENTED_EDGE('',*,*,#65,.T.);
#79=ORIENTED_EDGE('',*,*,#66,.F.);
#80=ORIENTED_EDGE('',*,*,#67,.F.);
#81=ORIENTED_EDGE('',*,*,#65,.F.);
#82=ORIENTED_EDGE('',*,*,#63,.T.);
#83=ORIENTED_EDGE('',*,*,#68,.T.);
#84=ORIENTED_EDGE('',*,*,#69,.T.);
#85=ORIENTED_EDGE('',*,*,#68,.F.);
#86=ORIENTED_EDGE('',*,*,#66,.T.);
#87=ORIENTED_EDGE('',*,*,#67,.T.);
#88=ORIENTED_EDGE('',*,*,#70,.T.);
#89=ORIENTED_EDGE('',*,*,#71,.F.);
#90=ORIENTED_EDGE('',*,*,#70,.F.);
#91=ORIENTED_EDGE('',*,*,#71,.T.);
#92=ORIENTED_EDGE('',*,*,#72,.T.);
#93=ORIENTED_EDGE('',*,*,#73,.F.);
#94=ORIENTED_EDGE('',*,*,#72,.F.);
#95=ORIENTED_EDGE('',*,*,#69,.F.);
#96=ORIENTED_EDGE('',*,*,#74,.T.);
#97=ORIENTED_EDGE('',*,*,#73,.T.);
#98=ORIENTED_EDGE('',*,*,#74,.F.);
#99=PLANE('',#109);
#100=ADVANCED_FACE('',(#41,#40),#99,.F.);
#101=ADVANCED_FACE('',(#42),#38,.F.);
#102=ADVANCED_FACE('',(#43),#39,.T.);
#103=ADVANCED_FACE('',(#44),#20,.F.);
#104=ADVANCED_FACE('',(#45),#21,.F.);
#105=ADVANCED_FACE('',(#46),#22,.T.);
#106=CLOSED_SHELL('',(#100,#101,#102,#103,#104,#105));
#107=AXIS2_PLACEMENT_3D('',#160,#123,#124);
#108=AXIS2_PLACEMENT_3D('',#161,#125,#126);
#109=AXIS2_PLACEMENT_3D('',#162,#127,#128);
#110=AXIS2_PLACEMENT_3D('',#164,#129,#130);
#111=AXIS2_PLACEMENT_3D('',#166,#131,#132);
#112=AXIS2_PLACEMENT_3D('',#167,#133,#134);
#113=AXIS2_PLACEMENT_3D('',#171,#136,#137);
#114=AXIS2_PLACEMENT_3D('',#172,#138,#139);
#115=AXIS2_PLACEMENT_3D('',#173,#140,#141);
#116=AXIS2_PLACEMENT_3D('',#176,#143,#144);
#117=AXIS2_PLACEMENT_3D('',#177,#145,#146);
#118=AXIS2_PLACEMENT_3D('',#180,#148,#149);
#119=AXIS2_PLACEMENT_3D('',#181,#150,#151);
#120=AXIS2_PLACEMENT_3D('',#184,#153,#154);
#121=AXIS2_PLACEMENT_3D('',#185,#155,#156);
#122=AXIS2_PLACEMENT_3D('',#187,#158,#159);
#123=DIRECTION('axis',(0.,0.,1.));
#124=DIRECTION('refdir',(1.,0.,0.));
#125=DIRECTION('axis',(0.,0.,1.));
#126=DIRECTION('refdir',(1.,0.,0.));
#127=DIRECTION('center_axis',(0.707106781186548,0.,-0.707106781186548));
#128=DIRECTION('ref_axis',(-0.707106781186548,0.,-0.707106781186548));
#129=DIRECTION('center_axis',(0.707106781186548,0.,-0.707106781186548));
#130=DIRECTION('ref_axis',(0.707106781186548,4.32978028117747E-17,0.707106781186548));
#131=DIRECTION('center_axis',(-0.707106781186548,0.,0.707106781186548));
#132=DIRECTION('ref_axis',(0.707106781186548,1.25607396694702E-16,0.707106781186548));
#133=DIRECTION('center_axis',(0.,0.,1.));
#134=DIRECTION('ref_axis',(1.77635683940025E-16,-1.,0.));
#135=DIRECTION('',(0.,0.,-1.));
#136=DIRECTION('center_axis',(0.,6.12323399573677E-17,1.));
#137=DIRECTION('ref_axis',(1.,0.,0.));
#138=DIRECTION('center_axis',(0.,6.12323399573677E-17,1.));
#139=DIRECTION('ref_axis',(1.,0.,0.));
#140=DIRECTION('center_axis',(0.,6.12323399573677E-17,1.));
#141=DIRECTION('ref_axis',(1.,0.,0.));
#142=DIRECTION('',(0.,-6.12323399573677E-17,-1.));
#143=DIRECTION('center_axis',(0.,6.12323399573677E-17,1.));
#144=DIRECTION('ref_axis',(1.,0.,0.));
#145=DIRECTION('center_axis',(0.,6.12323399573677E-17,1.));
#146=DIRECTION('ref_axis',(1.,0.,0.));
#147=DIRECTION('',(0.0871557427476545,-5.03258322789585E-17,-0.996194698091746));
#148=DIRECTION('center_axis',(0.,6.12323399573677E-17,1.));
#149=DIRECTION('ref_axis',(1.,0.,0.));
#150=DIRECTION('center_axis',(0.,-6.12323399573677E-17,-1.));
#151=DIRECTION('ref_axis',(1.,0.,0.));
#152=DIRECTION('',(-0.996194698091746,-1.27335414903723E-16,-0.0871557427476537));
#153=DIRECTION('center_axis',(0.,6.12323399573677E-17,1.));
#154=DIRECTION('ref_axis',(1.,0.,0.));
#155=DIRECTION('center_axis',(0.,6.12323399573677E-17,1.));
#156=DIRECTION('ref_axis',(1.,0.,0.));
#157=DIRECTION('',(0.0871557427476258,-5.03258322789622E-17,-0.996194698091748));
#158=DIRECTION('',(0.,0.,1.));
#159=DIRECTION('',(1.,0.,0.));
#160=CARTESIAN_POINT('',(0.,0.,0.));
#161=CARTESIAN_POINT('',(0.,0.,0.));
#162=CARTESIAN_POINT('Origin',(21.,1.11974482401923E-14,180.));
#163=CARTESIAN_POINT('',(-21.,2.22192694325185E-14,138.));
#164=CARTESIAN_POINT('Origin',(0.,2.09333902934138E-14,159.));
#165=CARTESIAN_POINT('',(2.8421709430404E-14,20.,159.));
#166=CARTESIAN_POINT('Origin',(0.,9.11232892069059E-15,159.));
#167=CARTESIAN_POINT('Origin',(0.,9.11232892069059E-15,5.043660942907));
#168=CARTESIAN_POINT('',(0.,20.,5.043660942907));
#169=CARTESIAN_POINT('',(0.,20.,5.043660942907));
#170=CARTESIAN_POINT('',(-20.,9.05698980338341E-15,5.043660942907));
#171=CARTESIAN_POINT('Origin',(0.,1.15062834016781E-14,5.043660942907));
#172=CARTESIAN_POINT('Origin',(0.,1.15062834016781E-14,5.043660942907));
#173=CARTESIAN_POINT('Origin',(0.,1.16566907898726E-14,7.50000000000003));
#174=CARTESIAN_POINT('',(-21.,8.93185166176974E-15,5.00000000000003));
#175=CARTESIAN_POINT('',(-21.,9.08493251166316E-15,7.50000000000003));
#176=CARTESIAN_POINT('Origin',(0.,1.15036099399792E-14,5.00000000000003));
#177=CARTESIAN_POINT('Origin',(0.,1.13545341959698E-14,2.56540834282731));
#178=CARTESIAN_POINT('',(-19.5663619842788,8.80659673276095E-15,0.0871557427476546));
#179=CARTESIAN_POINT('',(-19.7831809921394,8.93179326807218E-15,2.56540834282731));
#180=CARTESIAN_POINT('Origin',(0.,1.12027849902615E-14,0.0871557427476546));
#181=CARTESIAN_POINT('Origin',(0.,1.12001166152269E-14,0.0435778713738273));
#182=CARTESIAN_POINT('',(-20.5625566823705,8.67926131785723E-15,0.));
#183=CARTESIAN_POINT('',(-20.0644593333247,8.74292902530909E-15,0.0435778713738273));
#184=CARTESIAN_POINT('Origin',(0.,1.11974482401923E-14,0.));
#185=CARTESIAN_POINT('Origin',(0.,1.13505290900858E-14,2.5));
#186=CARTESIAN_POINT('',(-20.7812783411853,8.80555648981348E-15,2.5));
#187=CARTESIAN_POINT('',(0.,0.,0.));
#188=UNCERTAINTY_MEASURE_WITH_UNIT(LENGTH_MEASURE(0.001),#194,
'DISTANCE_ACCURACY_VALUE',
'Maximum model space distance between geometric entities at asserted c
onnectivities');
#189=UNCERTAINTY_MEASURE_WITH_UNIT(LENGTH_MEASURE(0.001),#194,
'DISTANCE_ACCURACY_VALUE',
'Maximum model space distance between geometric entities at asserted c
onnectivities');
#190=UNCERTAINTY_MEASURE_WITH_UNIT(LENGTH_MEASURE(0.001),#194,
'DISTANCE_ACCURACY_VALUE',
'Maximum model space distance between geometric entities at asserted c
onnectivities');
#191=(
GEOMETRIC_REPRESENTATION_CONTEXT(3)
GLOBAL_UNCERTAINTY_ASSIGNED_CONTEXT((#188))
GLOBAL_UNIT_ASSIGNED_CONTEXT((#194,#195,#196))
REPRESENTATION_CONTEXT('','3D')
);
#192=(
GEOMETRIC_REPRESENTATION_CONTEXT(3)
GLOBAL_UNCERTAINTY_ASSIGNED_CONTEXT((#189))
GLOBAL_UNIT_ASSIGNED_CONTEXT((#194,#195,#196))
REPRESENTATION_CONTEXT('','3D')
);
#193=(
GEOMETRIC_REPRESENTATION_CONTEXT(3)
GLOBAL_UNCERTAINTY_ASSIGNED_CONTEXT((#190))
GLOBAL_UNIT_ASSIGNED_CONTEXT((#194,#195,#196))
REPRESENTATION_CONTEXT('','3D')
);
#194=(
LENGTH_UNIT()
NAMED_UNIT(*)
SI_UNIT(.CENTI.,.METRE.)
);
#195=(
NAMED_UNIT(*)
PLANE_ANGLE_UNIT()
SI_UNIT($,.RADIAN.)
);
#196=(
NAMED_UNIT(*)
SI_UNIT($,.STERADIAN.)
SOLID_ANGLE_UNIT()
);
#197=SHAPE_DEFINITION_REPRESENTATION(#199,#202);
#198=SHAPE_DEFINITION_REPRESENTATION(#200,#203);
#199=PRODUCT_DEFINITION_SHAPE('',$,#205);
#200=PRODUCT_DEFINITION_SHAPE('',$,#206);
#201=PRODUCT_DEFINITION_SHAPE($,$,#17);
#202=SHAPE_REPRESENTATION('',(#107,#122),#191);
#203=SHAPE_REPRESENTATION('',(#108),#192);
#204=PRODUCT_DEFINITION_CONTEXT('part definition',#212,'design');
#205=PRODUCT_DEFINITION('Product','Product',#207,#204);
#206=PRODUCT_DEFINITION('*S0','*S0',#208,#204);
#207=PRODUCT_DEFINITION_FORMATION('',$,#214);
#208=PRODUCT_DEFINITION_FORMATION('',$,#215);
#209=PRODUCT_RELATED_PRODUCT_CATEGORY('Product','Product',(#214));
#210=PRODUCT_RELATED_PRODUCT_CATEGORY('*S0','*S0',(#215));
#211=APPLICATION_PROTOCOL_DEFINITION('international standard',
'automotive_design',2009,#212);
#212=APPLICATION_CONTEXT(
'Core Data for Automotive Mechanical Design Process');
#213=PRODUCT_CONTEXT('part definition',#212,'mechanical');
#214=PRODUCT('Product','Product',$,(#213));
#215=PRODUCT('*S0','*S0',$,(#213));
#216=PRESENTATION_STYLE_ASSIGNMENT((#217));
#217=SURFACE_STYLE_USAGE(.BOTH.,#218);
#218=SURFACE_SIDE_STYLE('',(#219));
#219=SURFACE_STYLE_FILL_AREA(#220);
#220=FILL_AREA_STYLE('',(#221));
#221=FILL_AREA_STYLE_COLOUR('',#222);
#222=COLOUR_RGB('',0.901960784313726,0.901960784313726,0.901960784313726);
ENDSEC;
END-ISO-10303-21;
