ISO-10303-21;
HEADER;
/* Generated by software containing ST-Developer
 * from STEP Tools, Inc. (www.steptools.com) 
 */

FILE_DESCRIPTION(
/* description */ (''),
/* implementation_level */ '2;1');

FILE_NAME(
/* name */ '13214.100X_3D.stp',
/* time_stamp */ '2024-12-11T14:43:45+01:00',
/* author */ ('CAD'),
/* organization */ (''),
/* preprocessor_version */ 'ST-DEVELOPER v20',
/* originating_system */ 'AutoCAD Mechanical',
/* authorisation */ '');

FILE_SCHEMA (('AUTOMOTIVE_DESIGN { 1 0 10303 214 3 1 1 }'));
ENDSEC;

DATA;
#10=MECHANICAL_DESIGN_GEOMETRIC_PRESENTATION_REPRESENTATION('',(#25,#26),
#364);
#11=PRESENTATION_LAYER_ASSIGNMENT('5','Material (Edelstahl)',(#27,#28));
#12=SHAPE_REPRESENTATION_RELATIONSHIP('SRR','None',#373,#13);
#13=ADVANCED_BREP_SHAPE_REPRESENTATION('',(#27,#28),#362);
#14=ITEM_DEFINED_TRANSFORMATION($,$,#196,#221);
#15=(
REPRESENTATION_RELATIONSHIP($,$,#374,#373)
REPRESENTATION_RELATIONSHIP_WITH_TRANSFORMATION(#14)
SHAPE_REPRESENTATION_RELATIONSHIP()
);
#16=CONTEXT_DEPENDENT_SHAPE_REPRESENTATION(#15,#372);
#17=NEXT_ASSEMBLY_USAGE_OCCURRENCE('18DB','18DB','18DB',#376,#377,
'18DB');
#18=(
BOUNDED_SURFACE()
B_SPLINE_SURFACE(1,2,((#333,#334,#335,#336,#337,#338,#339,#340,#341),(#342,
#343,#344,#345,#346,#347,#348,#349,#350)),.UNSPECIFIED.,.F.,.T.,.F.)
B_SPLINE_SURFACE_WITH_KNOTS((2,2),(3,2,2,2,3),(-0.941727586647132,0.258272413352473),
(0.,1.5707963267949,3.14159265358979,4.71238898038469,6.28318530717959),
 .UNSPECIFIED.)
GEOMETRIC_REPRESENTATION_ITEM()
RATIONAL_B_SPLINE_SURFACE(((1.,0.707106781186548,1.,0.707106781186548,1.,
0.707106781186548,1.,0.707106781186548,1.),(1.,0.707106781186548,1.,0.707106781186548,
1.,0.707106781186548,1.,0.707106781186548,1.)))
REPRESENTATION_ITEM('')
SURFACE()
);
#19=CONICAL_SURFACE('',#215,50.3625566823707,0.0872664625996641);
#20=CONICAL_SURFACE('',#220,49.1648398635157,0.087267332662732);
#21=ELLIPSE('',#204,106.463517451427,50.8);
#22=ELLIPSE('',#205,103.948631212417,49.6000000000002);
#23=ELLIPSE('',#206,103.948631212417,49.6000000000002);
#24=ELLIPSE('',#207,106.463517451427,50.8);
#25=STYLED_ITEM('',(#387),#27);
#26=STYLED_ITEM('',(#387),#28);
#27=MANIFOLD_SOLID_BREP('4650',#193);
#28=MANIFOLD_SOLID_BREP('4987',#194);
#29=CYLINDRICAL_SURFACE('',#200,50.8);
#30=CYLINDRICAL_SURFACE('',#208,49.6000000000002);
#31=CYLINDRICAL_SURFACE('',#213,50.8);
#32=CIRCLE('',#199,50.8);
#33=CIRCLE('',#201,50.8);
#34=CIRCLE('',#209,49.6000000000006);
#35=CIRCLE('',#210,49.6000000000002);
#36=CIRCLE('',#212,50.8);
#37=CIRCLE('',#214,50.8);
#38=CIRCLE('',#216,49.925113364741);
#39=CIRCLE('',#217,49.925113364741);
#40=CIRCLE('',#218,48.7296797270312);
#41=CIRCLE('',#219,48.7296797270312);
#42=FACE_OUTER_BOUND('',#53,.T.);
#43=FACE_OUTER_BOUND('',#54,.T.);
#44=FACE_OUTER_BOUND('',#55,.T.);
#45=FACE_OUTER_BOUND('',#56,.T.);
#46=FACE_OUTER_BOUND('',#57,.T.);
#47=FACE_OUTER_BOUND('',#58,.T.);
#48=FACE_OUTER_BOUND('',#59,.T.);
#49=FACE_OUTER_BOUND('',#60,.T.);
#50=FACE_OUTER_BOUND('',#61,.T.);
#51=FACE_OUTER_BOUND('',#62,.T.);
#52=FACE_OUTER_BOUND('',#63,.T.);
#53=EDGE_LOOP('',(#127,#128,#129,#130));
#54=EDGE_LOOP('',(#131,#132));
#55=EDGE_LOOP('',(#133,#134,#135,#136));
#56=EDGE_LOOP('',(#137,#138));
#57=EDGE_LOOP('',(#139,#140,#141,#142,#143,#144));
#58=EDGE_LOOP('',(#145,#146,#147,#148,#149,#150));
#59=EDGE_LOOP('',(#151,#152,#153,#154));
#60=EDGE_LOOP('',(#155,#156,#157,#158,#159,#160));
#61=EDGE_LOOP('',(#161,#162,#163,#164,#165));
#62=EDGE_LOOP('',(#166,#167,#168,#169,#170,#171));
#63=EDGE_LOOP('',(#172,#173,#174,#175,#176));
#64=LINE('',#292,#75);
#65=LINE('',#294,#76);
#66=LINE('',#296,#77);
#67=LINE('',#297,#78);
#68=LINE('',#308,#79);
#69=LINE('',#314,#80);
#70=LINE('',#319,#81);
#71=LINE('',#326,#82);
#72=LINE('',#332,#83);
#73=LINE('',#352,#84);
#74=LINE('',#357,#85);
#75=VECTOR('',#228,1.);
#76=VECTOR('',#229,1.);
#77=VECTOR('',#230,1.);
#78=VECTOR('',#231,1.);
#79=VECTOR('',#246,1.);
#80=VECTOR('',#251,1.);
#81=VECTOR('',#258,49.6000000000002);
#82=VECTOR('',#269,50.8);
#83=VECTOR('',#276,50.3625566823707);
#84=VECTOR('',#277,1.);
#85=VECTOR('',#284,49.1648398635157);
#86=VERTEX_POINT('',#290);
#87=VERTEX_POINT('',#291);
#88=VERTEX_POINT('',#293);
#89=VERTEX_POINT('',#295);
#90=VERTEX_POINT('',#304);
#91=VERTEX_POINT('',#305);
#92=VERTEX_POINT('',#307);
#93=VERTEX_POINT('',#309);
#94=VERTEX_POINT('',#311);
#95=VERTEX_POINT('',#313);
#96=VERTEX_POINT('',#317);
#97=VERTEX_POINT('',#324);
#98=VERTEX_POINT('',#328);
#99=VERTEX_POINT('',#329);
#100=VERTEX_POINT('',#351);
#101=VERTEX_POINT('',#353);
#102=EDGE_CURVE('',#86,#87,#64,.T.);
#103=EDGE_CURVE('',#88,#86,#65,.T.);
#104=EDGE_CURVE('',#89,#88,#66,.T.);
#105=EDGE_CURVE('',#87,#89,#67,.T.);
#106=EDGE_CURVE('',#89,#87,#32,.T.);
#107=EDGE_CURVE('',#86,#88,#33,.T.);
#108=EDGE_CURVE('',#90,#91,#21,.T.);
#109=EDGE_CURVE('',#92,#90,#68,.T.);
#110=EDGE_CURVE('',#93,#92,#22,.T.);
#111=EDGE_CURVE('',#94,#93,#23,.T.);
#112=EDGE_CURVE('',#95,#94,#69,.T.);
#113=EDGE_CURVE('',#91,#95,#24,.T.);
#114=EDGE_CURVE('',#96,#96,#34,.T.);
#115=EDGE_CURVE('',#96,#93,#70,.T.);
#116=EDGE_CURVE('',#94,#92,#35,.T.);
#117=EDGE_CURVE('',#90,#95,#36,.T.);
#118=EDGE_CURVE('',#97,#97,#37,.T.);
#119=EDGE_CURVE('',#97,#91,#71,.T.);
#120=EDGE_CURVE('',#98,#99,#38,.T.);
#121=EDGE_CURVE('',#99,#98,#39,.T.);
#122=EDGE_CURVE('',#99,#97,#72,.T.);
#123=EDGE_CURVE('',#100,#98,#73,.T.);
#124=EDGE_CURVE('',#101,#100,#40,.T.);
#125=EDGE_CURVE('',#100,#101,#41,.T.);
#126=EDGE_CURVE('',#101,#96,#74,.T.);
#127=ORIENTED_EDGE('',*,*,#102,.F.);
#128=ORIENTED_EDGE('',*,*,#103,.F.);
#129=ORIENTED_EDGE('',*,*,#104,.F.);
#130=ORIENTED_EDGE('',*,*,#105,.F.);
#131=ORIENTED_EDGE('',*,*,#105,.T.);
#132=ORIENTED_EDGE('',*,*,#106,.T.);
#133=ORIENTED_EDGE('',*,*,#102,.T.);
#134=ORIENTED_EDGE('',*,*,#106,.F.);
#135=ORIENTED_EDGE('',*,*,#104,.T.);
#136=ORIENTED_EDGE('',*,*,#107,.F.);
#137=ORIENTED_EDGE('',*,*,#103,.T.);
#138=ORIENTED_EDGE('',*,*,#107,.T.);
#139=ORIENTED_EDGE('',*,*,#108,.F.);
#140=ORIENTED_EDGE('',*,*,#109,.F.);
#141=ORIENTED_EDGE('',*,*,#110,.F.);
#142=ORIENTED_EDGE('',*,*,#111,.F.);
#143=ORIENTED_EDGE('',*,*,#112,.F.);
#144=ORIENTED_EDGE('',*,*,#113,.F.);
#145=ORIENTED_EDGE('',*,*,#114,.T.);
#146=ORIENTED_EDGE('',*,*,#115,.T.);
#147=ORIENTED_EDGE('',*,*,#110,.T.);
#148=ORIENTED_EDGE('',*,*,#116,.F.);
#149=ORIENTED_EDGE('',*,*,#111,.T.);
#150=ORIENTED_EDGE('',*,*,#115,.F.);
#151=ORIENTED_EDGE('',*,*,#112,.T.);
#152=ORIENTED_EDGE('',*,*,#116,.T.);
#153=ORIENTED_EDGE('',*,*,#109,.T.);
#154=ORIENTED_EDGE('',*,*,#117,.T.);
#155=ORIENTED_EDGE('',*,*,#118,.F.);
#156=ORIENTED_EDGE('',*,*,#119,.T.);
#157=ORIENTED_EDGE('',*,*,#113,.T.);
#158=ORIENTED_EDGE('',*,*,#117,.F.);
#159=ORIENTED_EDGE('',*,*,#108,.T.);
#160=ORIENTED_EDGE('',*,*,#119,.F.);
#161=ORIENTED_EDGE('',*,*,#120,.F.);
#162=ORIENTED_EDGE('',*,*,#121,.F.);
#163=ORIENTED_EDGE('',*,*,#122,.T.);
#164=ORIENTED_EDGE('',*,*,#118,.T.);
#165=ORIENTED_EDGE('',*,*,#122,.F.);
#166=ORIENTED_EDGE('',*,*,#123,.T.);
#167=ORIENTED_EDGE('',*,*,#120,.T.);
#168=ORIENTED_EDGE('',*,*,#121,.T.);
#169=ORIENTED_EDGE('',*,*,#123,.F.);
#170=ORIENTED_EDGE('',*,*,#124,.F.);
#171=ORIENTED_EDGE('',*,*,#125,.F.);
#172=ORIENTED_EDGE('',*,*,#125,.T.);
#173=ORIENTED_EDGE('',*,*,#126,.T.);
#174=ORIENTED_EDGE('',*,*,#114,.F.);
#175=ORIENTED_EDGE('',*,*,#126,.F.);
#176=ORIENTED_EDGE('',*,*,#124,.T.);
#177=PLANE('',#197);
#178=PLANE('',#198);
#179=PLANE('',#202);
#180=PLANE('',#203);
#181=PLANE('',#211);
#182=ADVANCED_FACE('',(#42),#177,.T.);
#183=ADVANCED_FACE('',(#43),#178,.T.);
#184=ADVANCED_FACE('',(#44),#29,.T.);
#185=ADVANCED_FACE('',(#45),#179,.T.);
#186=ADVANCED_FACE('',(#46),#180,.F.);
#187=ADVANCED_FACE('',(#47),#30,.F.);
#188=ADVANCED_FACE('',(#48),#181,.T.);
#189=ADVANCED_FACE('',(#49),#31,.T.);
#190=ADVANCED_FACE('',(#50),#19,.T.);
#191=ADVANCED_FACE('',(#51),#18,.T.);
#192=ADVANCED_FACE('',(#52),#20,.F.);
#193=CLOSED_SHELL('',(#182,#183,#184,#185));
#194=CLOSED_SHELL('',(#186,#187,#188,#189,#190,#191,#192));
#195=AXIS2_PLACEMENT_3D('',#287,#222,#223);
#196=AXIS2_PLACEMENT_3D('',#288,#224,#225);
#197=AXIS2_PLACEMENT_3D('',#289,#226,#227);
#198=AXIS2_PLACEMENT_3D('',#298,#232,#233);
#199=AXIS2_PLACEMENT_3D('',#299,#234,#235);
#200=AXIS2_PLACEMENT_3D('',#300,#236,#237);
#201=AXIS2_PLACEMENT_3D('',#301,#238,#239);
#202=AXIS2_PLACEMENT_3D('',#302,#240,#241);
#203=AXIS2_PLACEMENT_3D('',#303,#242,#243);
#204=AXIS2_PLACEMENT_3D('',#306,#244,#245);
#205=AXIS2_PLACEMENT_3D('',#310,#247,#248);
#206=AXIS2_PLACEMENT_3D('',#312,#249,#250);
#207=AXIS2_PLACEMENT_3D('',#315,#252,#253);
#208=AXIS2_PLACEMENT_3D('',#316,#254,#255);
#209=AXIS2_PLACEMENT_3D('',#318,#256,#257);
#210=AXIS2_PLACEMENT_3D('',#320,#259,#260);
#211=AXIS2_PLACEMENT_3D('',#321,#261,#262);
#212=AXIS2_PLACEMENT_3D('',#322,#263,#264);
#213=AXIS2_PLACEMENT_3D('',#323,#265,#266);
#214=AXIS2_PLACEMENT_3D('',#325,#267,#268);
#215=AXIS2_PLACEMENT_3D('',#327,#270,#271);
#216=AXIS2_PLACEMENT_3D('',#330,#272,#273);
#217=AXIS2_PLACEMENT_3D('',#331,#274,#275);
#218=AXIS2_PLACEMENT_3D('',#354,#278,#279);
#219=AXIS2_PLACEMENT_3D('',#355,#280,#281);
#220=AXIS2_PLACEMENT_3D('',#356,#282,#283);
#221=AXIS2_PLACEMENT_3D('',#358,#285,#286);
#222=DIRECTION('axis',(0.,0.,1.));
#223=DIRECTION('refdir',(1.,0.,0.));
#224=DIRECTION('axis',(0.,0.,1.));
#225=DIRECTION('refdir',(1.,0.,0.));
#226=DIRECTION('center_axis',(-1.,0.,0.));
#227=DIRECTION('ref_axis',(0.,0.,1.));
#228=DIRECTION('',(0.,0.,1.));
#229=DIRECTION('',(0.,1.,0.));
#230=DIRECTION('',(0.,0.,-1.));
#231=DIRECTION('',(0.,-1.,0.));
#232=DIRECTION('center_axis',(0.,0.,1.));
#233=DIRECTION('ref_axis',(1.,0.,0.));
#234=DIRECTION('center_axis',(0.,0.,1.));
#235=DIRECTION('ref_axis',(1.,0.,0.));
#236=DIRECTION('center_axis',(0.,0.,1.));
#237=DIRECTION('ref_axis',(1.,0.,0.));
#238=DIRECTION('center_axis',(0.,0.,-1.));
#239=DIRECTION('ref_axis',(1.,0.,0.));
#240=DIRECTION('center_axis',(0.,0.,-1.));
#241=DIRECTION('ref_axis',(-1.,0.,0.));
#242=DIRECTION('center_axis',(0.878817112661965,0.,-0.477158760259609));
#243=DIRECTION('ref_axis',(-0.477158760259609,0.,-0.878817112661965));
#244=DIRECTION('center_axis',(0.878817112661965,0.,-0.477158760259609));
#245=DIRECTION('ref_axis',(0.477158760259609,-9.1343384233058E-9,0.878817112661965));
#246=DIRECTION('',(0.,-1.,0.));
#247=DIRECTION('center_axis',(-0.878817112661965,0.,0.477158760259609));
#248=DIRECTION('ref_axis',(0.477158760259609,-9.13433842330581E-9,0.878817112661965));
#249=DIRECTION('center_axis',(-0.878817112661965,0.,0.477158760259609));
#250=DIRECTION('ref_axis',(0.477158760259609,-9.13433842330581E-9,0.878817112661965));
#251=DIRECTION('',(0.,-1.,0.));
#252=DIRECTION('center_axis',(0.878817112661965,0.,-0.477158760259609));
#253=DIRECTION('ref_axis',(0.477158760259609,-9.1343384233058E-9,0.878817112661965));
#254=DIRECTION('center_axis',(0.,0.,-1.));
#255=DIRECTION('ref_axis',(1.,-1.9143185002694E-8,0.));
#256=DIRECTION('center_axis',(0.,0.,-1.));
#257=DIRECTION('ref_axis',(1.,0.,0.));
#258=DIRECTION('',(0.,0.,1.));
#259=DIRECTION('center_axis',(0.,0.,-1.));
#260=DIRECTION('ref_axis',(1.,-1.85485336051134E-8,0.));
#261=DIRECTION('center_axis',(0.,0.,1.));
#262=DIRECTION('ref_axis',(1.,0.,0.));
#263=DIRECTION('center_axis',(0.,0.,1.));
#264=DIRECTION('ref_axis',(1.,-1.85485337675439E-8,0.));
#265=DIRECTION('center_axis',(0.,0.,-1.));
#266=DIRECTION('ref_axis',(1.,-1.9143185002694E-8,0.));
#267=DIRECTION('center_axis',(0.,0.,-1.));
#268=DIRECTION('ref_axis',(1.,0.,0.));
#269=DIRECTION('',(0.,0.,1.));
#270=DIRECTION('center_axis',(0.,0.,1.));
#271=DIRECTION('ref_axis',(1.,-1.9143185002694E-8,0.));
#272=DIRECTION('center_axis',(0.,0.,-1.));
#273=DIRECTION('ref_axis',(1.,0.,0.));
#274=DIRECTION('center_axis',(0.,0.,-1.));
#275=DIRECTION('ref_axis',(1.,0.,0.));
#276=DIRECTION('',(-0.087155742747606,1.66843851813813E-9,0.99619469809175));
#277=DIRECTION('',(0.996194698091746,-5.33675006916092E-18,-0.087155742747649));
#278=DIRECTION('center_axis',(0.,0.,-1.));
#279=DIRECTION('ref_axis',(1.,0.,0.));
#280=DIRECTION('center_axis',(0.,0.,-1.));
#281=DIRECTION('ref_axis',(1.,0.,0.));
#282=DIRECTION('center_axis',(0.,0.,1.));
#283=DIRECTION('ref_axis',(1.,-1.9143185002694E-8,0.));
#284=DIRECTION('',(-0.0871566094997882,1.66845511053561E-9,0.99619462226038));
#285=DIRECTION('',(0.,0.,1.));
#286=DIRECTION('',(1.,0.,0.));
#287=CARTESIAN_POINT('',(0.,0.,0.));
#288=CARTESIAN_POINT('',(0.,0.,0.));
#289=CARTESIAN_POINT('Origin',(15.7999999825746,-1.75166910370789,298.88968509736));
#290=CARTESIAN_POINT('',(15.7999999825746,48.2804308239956,292.661941009828));
#291=CARTESIAN_POINT('',(15.7999999825746,48.2804308239956,294.661941009828));
#292=CARTESIAN_POINT('',(15.7999999825746,48.2804308239956,293.661941009828));
#293=CARTESIAN_POINT('',(15.7999999825746,-48.2804308239957,292.661941009828));
#294=CARTESIAN_POINT('',(15.7999999825746,-0.875834551853958,292.661941009828));
#295=CARTESIAN_POINT('',(15.7999999825746,-48.2804308239957,294.661941009828));
#296=CARTESIAN_POINT('',(15.7999999825746,-48.2804308239957,293.661941009828));
#297=CARTESIAN_POINT('',(15.7999999825746,-0.875834551853958,294.661941009828));
#298=CARTESIAN_POINT('Origin',(-2.27373675443232E-13,-2.68824137714549E-14,
294.661941009828));
#299=CARTESIAN_POINT('Origin',(-2.27373675443232E-13,-2.68824137714549E-14,
294.661941009828));
#300=CARTESIAN_POINT('Origin',(-2.27373675443232E-13,-2.68824137714549E-14,
293.661941009828));
#301=CARTESIAN_POINT('Origin',(-2.27373675443232E-13,-2.68824137714549E-14,
292.661941009828));
#302=CARTESIAN_POINT('Origin',(-2.27373675443232E-13,-2.68824137714549E-14,
292.661941009828));
#303=CARTESIAN_POINT('Origin',(36.6153161706552,-67.1341745346452,333.441630197992));
#304=CARTESIAN_POINT('',(15.7999999999997,-48.2804308182932,295.104586891297));
#305=CARTESIAN_POINT('',(-50.8000000000002,9.72473777475647E-7,172.442645881469));
#306=CARTESIAN_POINT('Origin',(-2.27373675443232E-13,-2.68824137714549E-14,
266.004606891969));
#307=CARTESIAN_POINT('',(15.7999999999997,-47.0161674320655,295.104586891297));
#308=CARTESIAN_POINT('',(15.7999999999995,-33.5670872673226,295.104586891297));
#309=CARTESIAN_POINT('',(-49.6000000000004,9.49501955325461E-7,174.652770944709));
#310=CARTESIAN_POINT('Origin',(-2.27373675443232E-13,-2.68824137714549E-14,
266.004606891969));
#311=CARTESIAN_POINT('',(15.7999999999997,47.0161674320655,295.104586891297));
#312=CARTESIAN_POINT('Origin',(-2.27373675443232E-13,-2.68824137714549E-14,
266.004606891969));
#313=CARTESIAN_POINT('',(15.7999999999997,48.2804308182932,295.104586891297));
#314=CARTESIAN_POINT('',(15.7999999999995,-33.5670872673226,295.104586891297));
#315=CARTESIAN_POINT('Origin',(-2.27373675443232E-13,-2.68824137714549E-14,
266.004606891969));
#316=CARTESIAN_POINT('Origin',(-2.27373675443232E-13,-2.68824137714549E-14,
12.5261467228241));
#317=CARTESIAN_POINT('',(-49.6000000000004,9.49501955325459E-7,10.052293445648));
#318=CARTESIAN_POINT('Origin',(-2.27373675443232E-13,-2.68824137714549E-14,
10.052293445648));
#319=CARTESIAN_POINT('',(-49.6000000000004,9.49501955325459E-7,12.5261467228241));
#320=CARTESIAN_POINT('Origin',(-2.27373675443232E-13,-2.8421709430404E-14,
295.104586891297));
#321=CARTESIAN_POINT('Origin',(-2.27373675443232E-13,-2.8421709430404E-14,
295.104586891297));
#322=CARTESIAN_POINT('Origin',(-2.27373675443232E-13,-2.1316282072803E-14,
295.104586891297));
#323=CARTESIAN_POINT('Origin',(-2.27373675443232E-13,-2.68824137714549E-14,
12.4999999999999));
#324=CARTESIAN_POINT('',(-50.8000000000002,9.72473777475646E-7,9.99999999999972));
#325=CARTESIAN_POINT('Origin',(-2.27373675443232E-13,-2.68824137714549E-14,
9.99999999999972));
#326=CARTESIAN_POINT('',(-50.8000000000002,9.72473777475646E-7,12.4999999999999));
#327=CARTESIAN_POINT('Origin',(-2.27373675443232E-13,-2.68824137714549E-14,
4.99999999999986));
#328=CARTESIAN_POINT('',(49.9251133647408,-9.42265543812937E-7,0.));
#329=CARTESIAN_POINT('',(-49.9251133647415,9.55725660653365E-7,-4.2632564145606E-14));
#330=CARTESIAN_POINT('Origin',(-2.27373675443232E-13,-2.68824137714549E-14,
0.));
#331=CARTESIAN_POINT('Origin',(-2.27373675443232E-13,-2.68824137714549E-14,
0.));
#332=CARTESIAN_POINT('',(-50.362556682371,9.64099719064507E-7,4.99999999999986));
#333=CARTESIAN_POINT('Ctrl Pts',(48.7296797270312,-9.42265543807911E-7,
0.10458689129716));
#334=CARTESIAN_POINT('Ctrl Pts',(48.7296787847656,-48.729680669297,0.10458689129716));
#335=CARTESIAN_POINT('Ctrl Pts',(-9.42265842240886E-7,-48.7296797270315,
0.10458689129716));
#336=CARTESIAN_POINT('Ctrl Pts',(-48.7296806692973,-48.729678784766,0.10458689129716));
#337=CARTESIAN_POINT('Ctrl Pts',(-48.7296797270317,9.42265490043083E-7,
0.10458689129716));
#338=CARTESIAN_POINT('Ctrl Pts',(-48.7296787847661,48.7296806692969,0.10458689129716));
#339=CARTESIAN_POINT('Ctrl Pts',(9.42265387493535E-7,48.7296797270314,0.10458689129716));
#340=CARTESIAN_POINT('Ctrl Pts',(48.7296806692968,48.7296787847659,0.10458689129716));
#341=CARTESIAN_POINT('Ctrl Pts',(48.7296797270312,-9.42265543807911E-7,
0.10458689129716));
#342=CARTESIAN_POINT('Ctrl Pts',(49.9251133647408,-9.42265543814315E-7,
1.4210854715202E-14));
#343=CARTESIAN_POINT('Ctrl Pts',(49.9251124224752,-49.9251143070066,1.4210854715202E-14));
#344=CARTESIAN_POINT('Ctrl Pts',(-9.42265842240886E-7,-49.9251133647411,
1.4210854715202E-14));
#345=CARTESIAN_POINT('Ctrl Pts',(-49.9251143070069,-49.9251124224755,1.4210854715202E-14));
#346=CARTESIAN_POINT('Ctrl Pts',(-49.9251133647413,9.42265490049488E-7,
1.4210854715202E-14));
#347=CARTESIAN_POINT('Ctrl Pts',(-49.9251124224756,49.9251143070065,1.4210854715202E-14));
#348=CARTESIAN_POINT('Ctrl Pts',(9.42265387493535E-7,49.925113364741,1.4210854715202E-14));
#349=CARTESIAN_POINT('Ctrl Pts',(49.9251143070064,49.9251124224755,1.4210854715202E-14));
#350=CARTESIAN_POINT('Ctrl Pts',(49.9251133647408,-9.42265543814315E-7,
1.4210854715202E-14));
#351=CARTESIAN_POINT('',(48.729679727031,-9.42265543812937E-7,0.104586891297188));
#352=CARTESIAN_POINT('',(49.6678237558958,-9.42265543812937E-7,0.0225099240169726));
#353=CARTESIAN_POINT('',(-48.7296797270312,9.32841253221835E-7,0.104586891297188));
#354=CARTESIAN_POINT('Origin',(-2.27373675443232E-13,-2.68824137714549E-14,
0.104586891297188));
#355=CARTESIAN_POINT('Origin',(-2.27373675443232E-13,-2.68824137714549E-14,
0.104586891297188));
#356=CARTESIAN_POINT('Origin',(-2.27373675443232E-13,-2.68824137714549E-14,
5.07844016847264));
#357=CARTESIAN_POINT('',(-49.1648398635159,9.41171604273648E-7,5.07844016847264));
#358=CARTESIAN_POINT('',(0.,0.,0.));
#359=UNCERTAINTY_MEASURE_WITH_UNIT(LENGTH_MEASURE(0.001),#365,
'DISTANCE_ACCURACY_VALUE',
'Maximum model space distance between geometric entities at asserted c
onnectivities');
#360=UNCERTAINTY_MEASURE_WITH_UNIT(LENGTH_MEASURE(0.001),#365,
'DISTANCE_ACCURACY_VALUE',
'Maximum model space distance between geometric entities at asserted c
onnectivities');
#361=UNCERTAINTY_MEASURE_WITH_UNIT(LENGTH_MEASURE(0.001),#365,
'DISTANCE_ACCURACY_VALUE',
'Maximum model space distance between geometric entities at asserted c
onnectivities');
#362=(
GEOMETRIC_REPRESENTATION_CONTEXT(3)
GLOBAL_UNCERTAINTY_ASSIGNED_CONTEXT((#359))
GLOBAL_UNIT_ASSIGNED_CONTEXT((#365,#366,#367))
REPRESENTATION_CONTEXT('','3D')
);
#363=(
GEOMETRIC_REPRESENTATION_CONTEXT(3)
GLOBAL_UNCERTAINTY_ASSIGNED_CONTEXT((#360))
GLOBAL_UNIT_ASSIGNED_CONTEXT((#365,#366,#367))
REPRESENTATION_CONTEXT('','3D')
);
#364=(
GEOMETRIC_REPRESENTATION_CONTEXT(3)
GLOBAL_UNCERTAINTY_ASSIGNED_CONTEXT((#361))
GLOBAL_UNIT_ASSIGNED_CONTEXT((#365,#366,#367))
REPRESENTATION_CONTEXT('','3D')
);
#365=(
LENGTH_UNIT()
NAMED_UNIT(*)
SI_UNIT(.CENTI.,.METRE.)
);
#366=(
NAMED_UNIT(*)
PLANE_ANGLE_UNIT()
SI_UNIT($,.RADIAN.)
);
#367=(
NAMED_UNIT(*)
SI_UNIT($,.STERADIAN.)
SOLID_ANGLE_UNIT()
);
#368=SHAPE_DEFINITION_REPRESENTATION(#370,#373);
#369=SHAPE_DEFINITION_REPRESENTATION(#371,#374);
#370=PRODUCT_DEFINITION_SHAPE('',$,#376);
#371=PRODUCT_DEFINITION_SHAPE('',$,#377);
#372=PRODUCT_DEFINITION_SHAPE($,$,#17);
#373=SHAPE_REPRESENTATION('',(#195,#221),#362);
#374=SHAPE_REPRESENTATION('',(#196),#363);
#375=PRODUCT_DEFINITION_CONTEXT('part definition',#383,'design');
#376=PRODUCT_DEFINITION('Product','Product',#378,#375);
#377=PRODUCT_DEFINITION('*S0','*S0',#379,#375);
#378=PRODUCT_DEFINITION_FORMATION('',$,#385);
#379=PRODUCT_DEFINITION_FORMATION('',$,#386);
#380=PRODUCT_RELATED_PRODUCT_CATEGORY('Product','Product',(#385));
#381=PRODUCT_RELATED_PRODUCT_CATEGORY('*S0','*S0',(#386));
#382=APPLICATION_PROTOCOL_DEFINITION('international standard',
'automotive_design',2009,#383);
#383=APPLICATION_CONTEXT(
'Core Data for Automotive Mechanical Design Process');
#384=PRODUCT_CONTEXT('part definition',#383,'mechanical');
#385=PRODUCT('Product','Product',$,(#384));
#386=PRODUCT('*S0','*S0',$,(#384));
#387=PRESENTATION_STYLE_ASSIGNMENT((#388));
#388=SURFACE_STYLE_USAGE(.BOTH.,#389);
#389=SURFACE_SIDE_STYLE('',(#390));
#390=SURFACE_STYLE_FILL_AREA(#391);
#391=FILL_AREA_STYLE('',(#392));
#392=FILL_AREA_STYLE_COLOUR('',#393);
#393=COLOUR_RGB('',0.901960784313726,0.901960784313726,0.901960784313726);
ENDSEC;
END-ISO-10303-21;
