ISO-10303-21;
HEADER;
/* Generated by software containing ST-Developer
 * from STEP Tools, Inc. (www.steptools.com) 
 */

FILE_DESCRIPTION(
/* description */ (''),
/* implementation_level */ '2;1');

FILE_NAME(
/* name */ '13214.070X_3D.stp',
/* time_stamp */ '2024-12-11T14:43:43+01:00',
/* author */ ('CAD'),
/* organization */ (''),
/* preprocessor_version */ 'ST-DEVELOPER v20',
/* originating_system */ 'AutoCAD Mechanical',
/* authorisation */ '');

FILE_SCHEMA (('AUTOMOTIVE_DESIGN { 1 0 10303 214 3 1 1 }'));
ENDSEC;

DATA;
#10=MECHANICAL_DESIGN_GEOMETRIC_PRESENTATION_REPRESENTATION('',(#25,#26),
#330);
#11=PRESENTATION_LAYER_ASSIGNMENT('5','Material (Edelstahl)',(#27,#28));
#12=SHAPE_REPRESENTATION_RELATIONSHIP('SRR','None',#339,#13);
#13=ADVANCED_BREP_SHAPE_REPRESENTATION('',(#27,#28),#328);
#14=ITEM_DEFINED_TRANSFORMATION($,$,#186,#210);
#15=(
REPRESENTATION_RELATIONSHIP($,$,#340,#339)
REPRESENTATION_RELATIONSHIP_WITH_TRANSFORMATION(#14)
SHAPE_REPRESENTATION_RELATIONSHIP()
);
#16=CONTEXT_DEPENDENT_SHAPE_REPRESENTATION(#15,#338);
#17=NEXT_ASSEMBLY_USAGE_OCCURRENCE('18DB','18DB','18DB',#342,#343,
'18DB');
#18=CONICAL_SURFACE('',#205,36.1937896776592,0.0872664625997411);
#19=CONICAL_SURFACE('',#207,35.2898625364635,1.48352986419514);
#20=CONICAL_SURFACE('',#209,34.9960728588042,0.087266462599744);
#21=ELLIPSE('',#194,76.5051824145795,36.5);
#22=ELLIPSE('',#195,73.9899435406754,35.3);
#23=ELLIPSE('',#196,73.9899435406754,35.3);
#24=ELLIPSE('',#197,76.5051824145795,36.5);
#25=STYLED_ITEM('',(#353),#27);
#26=STYLED_ITEM('',(#353),#28);
#27=MANIFOLD_SOLID_BREP('4323',#183);
#28=MANIFOLD_SOLID_BREP('4455',#184);
#29=CYLINDRICAL_SURFACE('',#190,36.4999999999999);
#30=CYLINDRICAL_SURFACE('',#198,36.5);
#31=CYLINDRICAL_SURFACE('',#201,35.3);
#32=CIRCLE('',#189,36.4999999999999);
#33=CIRCLE('',#191,36.4999999999999);
#34=CIRCLE('',#199,36.5);
#35=CIRCLE('',#200,36.5);
#36=CIRCLE('',#202,35.3);
#37=CIRCLE('',#203,35.3);
#38=CIRCLE('',#206,35.8875793553185);
#39=CIRCLE('',#208,34.6921457176085);
#40=FACE_OUTER_BOUND('',#51,.T.);
#41=FACE_OUTER_BOUND('',#52,.T.);
#42=FACE_OUTER_BOUND('',#53,.T.);
#43=FACE_OUTER_BOUND('',#54,.T.);
#44=FACE_OUTER_BOUND('',#55,.T.);
#45=FACE_OUTER_BOUND('',#56,.T.);
#46=FACE_OUTER_BOUND('',#57,.T.);
#47=FACE_OUTER_BOUND('',#58,.T.);
#48=FACE_OUTER_BOUND('',#59,.T.);
#49=FACE_OUTER_BOUND('',#60,.T.);
#50=FACE_OUTER_BOUND('',#61,.T.);
#51=EDGE_LOOP('',(#121,#122,#123,#124));
#52=EDGE_LOOP('',(#125,#126));
#53=EDGE_LOOP('',(#127,#128,#129,#130));
#54=EDGE_LOOP('',(#131,#132));
#55=EDGE_LOOP('',(#133,#134,#135,#136,#137,#138));
#56=EDGE_LOOP('',(#139,#140,#141,#142,#143,#144));
#57=EDGE_LOOP('',(#145,#146,#147,#148,#149,#150));
#58=EDGE_LOOP('',(#151,#152,#153,#154));
#59=EDGE_LOOP('',(#155,#156,#157,#158));
#60=EDGE_LOOP('',(#159,#160,#161,#162));
#61=EDGE_LOOP('',(#163,#164,#165,#166));
#62=LINE('',#279,#73);
#63=LINE('',#281,#74);
#64=LINE('',#283,#75);
#65=LINE('',#284,#76);
#66=LINE('',#295,#77);
#67=LINE('',#301,#78);
#68=LINE('',#306,#79);
#69=LINE('',#311,#80);
#70=LINE('',#317,#81);
#71=LINE('',#320,#82);
#72=LINE('',#323,#83);
#73=VECTOR('',#217,1.);
#74=VECTOR('',#218,1.);
#75=VECTOR('',#219,1.);
#76=VECTOR('',#220,1.);
#77=VECTOR('',#235,1.);
#78=VECTOR('',#240,1.);
#79=VECTOR('',#247,36.5);
#80=VECTOR('',#254,35.3);
#81=VECTOR('',#263,36.1937896776592);
#82=VECTOR('',#266,35.2898625364635);
#83=VECTOR('',#271,34.9960728588042);
#84=VERTEX_POINT('',#277);
#85=VERTEX_POINT('',#278);
#86=VERTEX_POINT('',#280);
#87=VERTEX_POINT('',#282);
#88=VERTEX_POINT('',#291);
#89=VERTEX_POINT('',#292);
#90=VERTEX_POINT('',#294);
#91=VERTEX_POINT('',#296);
#92=VERTEX_POINT('',#298);
#93=VERTEX_POINT('',#300);
#94=VERTEX_POINT('',#304);
#95=VERTEX_POINT('',#309);
#96=VERTEX_POINT('',#315);
#97=VERTEX_POINT('',#319);
#98=EDGE_CURVE('',#84,#85,#62,.T.);
#99=EDGE_CURVE('',#86,#84,#63,.T.);
#100=EDGE_CURVE('',#87,#86,#64,.T.);
#101=EDGE_CURVE('',#85,#87,#65,.T.);
#102=EDGE_CURVE('',#87,#85,#32,.T.);
#103=EDGE_CURVE('',#84,#86,#33,.T.);
#104=EDGE_CURVE('',#88,#89,#21,.T.);
#105=EDGE_CURVE('',#90,#88,#66,.T.);
#106=EDGE_CURVE('',#91,#90,#22,.T.);
#107=EDGE_CURVE('',#92,#91,#23,.T.);
#108=EDGE_CURVE('',#93,#92,#67,.T.);
#109=EDGE_CURVE('',#89,#93,#24,.T.);
#110=EDGE_CURVE('',#94,#94,#34,.T.);
#111=EDGE_CURVE('',#94,#89,#68,.T.);
#112=EDGE_CURVE('',#88,#93,#35,.T.);
#113=EDGE_CURVE('',#95,#95,#36,.T.);
#114=EDGE_CURVE('',#95,#91,#69,.T.);
#115=EDGE_CURVE('',#92,#90,#37,.T.);
#116=EDGE_CURVE('',#96,#96,#38,.T.);
#117=EDGE_CURVE('',#96,#94,#70,.T.);
#118=EDGE_CURVE('',#96,#97,#71,.T.);
#119=EDGE_CURVE('',#97,#97,#39,.T.);
#120=EDGE_CURVE('',#97,#95,#72,.T.);
#121=ORIENTED_EDGE('',*,*,#98,.F.);
#122=ORIENTED_EDGE('',*,*,#99,.F.);
#123=ORIENTED_EDGE('',*,*,#100,.F.);
#124=ORIENTED_EDGE('',*,*,#101,.F.);
#125=ORIENTED_EDGE('',*,*,#101,.T.);
#126=ORIENTED_EDGE('',*,*,#102,.T.);
#127=ORIENTED_EDGE('',*,*,#98,.T.);
#128=ORIENTED_EDGE('',*,*,#102,.F.);
#129=ORIENTED_EDGE('',*,*,#100,.T.);
#130=ORIENTED_EDGE('',*,*,#103,.F.);
#131=ORIENTED_EDGE('',*,*,#99,.T.);
#132=ORIENTED_EDGE('',*,*,#103,.T.);
#133=ORIENTED_EDGE('',*,*,#104,.F.);
#134=ORIENTED_EDGE('',*,*,#105,.F.);
#135=ORIENTED_EDGE('',*,*,#106,.F.);
#136=ORIENTED_EDGE('',*,*,#107,.F.);
#137=ORIENTED_EDGE('',*,*,#108,.F.);
#138=ORIENTED_EDGE('',*,*,#109,.F.);
#139=ORIENTED_EDGE('',*,*,#110,.F.);
#140=ORIENTED_EDGE('',*,*,#111,.T.);
#141=ORIENTED_EDGE('',*,*,#109,.T.);
#142=ORIENTED_EDGE('',*,*,#112,.F.);
#143=ORIENTED_EDGE('',*,*,#104,.T.);
#144=ORIENTED_EDGE('',*,*,#111,.F.);
#145=ORIENTED_EDGE('',*,*,#113,.T.);
#146=ORIENTED_EDGE('',*,*,#114,.T.);
#147=ORIENTED_EDGE('',*,*,#106,.T.);
#148=ORIENTED_EDGE('',*,*,#115,.F.);
#149=ORIENTED_EDGE('',*,*,#107,.T.);
#150=ORIENTED_EDGE('',*,*,#114,.F.);
#151=ORIENTED_EDGE('',*,*,#108,.T.);
#152=ORIENTED_EDGE('',*,*,#115,.T.);
#153=ORIENTED_EDGE('',*,*,#105,.T.);
#154=ORIENTED_EDGE('',*,*,#112,.T.);
#155=ORIENTED_EDGE('',*,*,#116,.F.);
#156=ORIENTED_EDGE('',*,*,#117,.T.);
#157=ORIENTED_EDGE('',*,*,#110,.T.);
#158=ORIENTED_EDGE('',*,*,#117,.F.);
#159=ORIENTED_EDGE('',*,*,#116,.T.);
#160=ORIENTED_EDGE('',*,*,#118,.T.);
#161=ORIENTED_EDGE('',*,*,#119,.F.);
#162=ORIENTED_EDGE('',*,*,#118,.F.);
#163=ORIENTED_EDGE('',*,*,#119,.T.);
#164=ORIENTED_EDGE('',*,*,#120,.T.);
#165=ORIENTED_EDGE('',*,*,#113,.F.);
#166=ORIENTED_EDGE('',*,*,#120,.F.);
#167=PLANE('',#187);
#168=PLANE('',#188);
#169=PLANE('',#192);
#170=PLANE('',#193);
#171=PLANE('',#204);
#172=ADVANCED_FACE('',(#40),#167,.T.);
#173=ADVANCED_FACE('',(#41),#168,.T.);
#174=ADVANCED_FACE('',(#42),#29,.T.);
#175=ADVANCED_FACE('',(#43),#169,.T.);
#176=ADVANCED_FACE('',(#44),#170,.T.);
#177=ADVANCED_FACE('',(#45),#30,.T.);
#178=ADVANCED_FACE('',(#46),#31,.F.);
#179=ADVANCED_FACE('',(#47),#171,.T.);
#180=ADVANCED_FACE('',(#48),#18,.T.);
#181=ADVANCED_FACE('',(#49),#19,.F.);
#182=ADVANCED_FACE('',(#50),#20,.F.);
#183=CLOSED_SHELL('',(#172,#173,#174,#175));
#184=CLOSED_SHELL('',(#176,#177,#178,#179,#180,#181,#182));
#185=AXIS2_PLACEMENT_3D('',#274,#211,#212);
#186=AXIS2_PLACEMENT_3D('',#275,#213,#214);
#187=AXIS2_PLACEMENT_3D('',#276,#215,#216);
#188=AXIS2_PLACEMENT_3D('',#285,#221,#222);
#189=AXIS2_PLACEMENT_3D('',#286,#223,#224);
#190=AXIS2_PLACEMENT_3D('',#287,#225,#226);
#191=AXIS2_PLACEMENT_3D('',#288,#227,#228);
#192=AXIS2_PLACEMENT_3D('',#289,#229,#230);
#193=AXIS2_PLACEMENT_3D('',#290,#231,#232);
#194=AXIS2_PLACEMENT_3D('',#293,#233,#234);
#195=AXIS2_PLACEMENT_3D('',#297,#236,#237);
#196=AXIS2_PLACEMENT_3D('',#299,#238,#239);
#197=AXIS2_PLACEMENT_3D('',#302,#241,#242);
#198=AXIS2_PLACEMENT_3D('',#303,#243,#244);
#199=AXIS2_PLACEMENT_3D('',#305,#245,#246);
#200=AXIS2_PLACEMENT_3D('',#307,#248,#249);
#201=AXIS2_PLACEMENT_3D('',#308,#250,#251);
#202=AXIS2_PLACEMENT_3D('',#310,#252,#253);
#203=AXIS2_PLACEMENT_3D('',#312,#255,#256);
#204=AXIS2_PLACEMENT_3D('',#313,#257,#258);
#205=AXIS2_PLACEMENT_3D('',#314,#259,#260);
#206=AXIS2_PLACEMENT_3D('',#316,#261,#262);
#207=AXIS2_PLACEMENT_3D('',#318,#264,#265);
#208=AXIS2_PLACEMENT_3D('',#321,#267,#268);
#209=AXIS2_PLACEMENT_3D('',#322,#269,#270);
#210=AXIS2_PLACEMENT_3D('',#324,#272,#273);
#211=DIRECTION('axis',(0.,0.,1.));
#212=DIRECTION('refdir',(1.,0.,0.));
#213=DIRECTION('axis',(0.,0.,1.));
#214=DIRECTION('refdir',(1.,0.,0.));
#215=DIRECTION('center_axis',(-1.,0.,0.));
#216=DIRECTION('ref_axis',(0.,0.,-1.));
#217=DIRECTION('',(0.,0.,1.));
#218=DIRECTION('',(0.,1.,0.));
#219=DIRECTION('',(0.,0.,-1.));
#220=DIRECTION('',(0.,-1.,0.));
#221=DIRECTION('center_axis',(0.,0.,1.));
#222=DIRECTION('ref_axis',(1.,0.,0.));
#223=DIRECTION('center_axis',(0.,0.,1.));
#224=DIRECTION('ref_axis',(1.,0.,0.));
#225=DIRECTION('center_axis',(0.,0.,1.));
#226=DIRECTION('ref_axis',(1.,0.,0.));
#227=DIRECTION('center_axis',(0.,0.,-1.));
#228=DIRECTION('ref_axis',(1.,0.,0.));
#229=DIRECTION('center_axis',(0.,0.,-1.));
#230=DIRECTION('ref_axis',(-1.,0.,0.));
#231=DIRECTION('center_axis',(-0.878853431665694,5.84269022804918E-17,0.477091862904234));
#232=DIRECTION('ref_axis',(0.477091862904234,1.07628504200906E-16,0.878853431665694));
#233=DIRECTION('center_axis',(0.878853431665694,-5.84269022804918E-17,-0.477091862904234));
#234=DIRECTION('ref_axis',(0.477091862904234,-6.89186640999508E-16,0.878853431665694));
#235=DIRECTION('',(-6.64808262394278E-17,-1.,0.));
#236=DIRECTION('center_axis',(-0.878853431665694,5.84269022804918E-17,0.477091862904234));
#237=DIRECTION('ref_axis',(0.477091862904234,-6.89186640999508E-16,0.878853431665694));
#238=DIRECTION('center_axis',(-0.878853431665694,5.84269022804918E-17,0.477091862904234));
#239=DIRECTION('ref_axis',(0.477091862904234,-6.89186640999508E-16,0.878853431665694));
#240=DIRECTION('',(-6.64808262394278E-17,-1.,0.));
#241=DIRECTION('center_axis',(0.878853431665694,-5.84269022804918E-17,-0.477091862904234));
#242=DIRECTION('ref_axis',(0.477091862904234,-6.89186640999508E-16,0.878853431665694));
#243=DIRECTION('center_axis',(0.,-6.12323399573677E-17,-1.));
#244=DIRECTION('ref_axis',(1.,-1.557353941392E-15,9.53604259732614E-32));
#245=DIRECTION('center_axis',(0.,-6.12323399573677E-17,-1.));
#246=DIRECTION('ref_axis',(1.,0.,0.));
#247=DIRECTION('',(0.,6.12323399573677E-17,1.));
#248=DIRECTION('center_axis',(0.,0.,1.));
#249=DIRECTION('ref_axis',(-1.557353941392E-15,-1.,0.));
#250=DIRECTION('center_axis',(0.,-6.12323399573677E-17,-1.));
#251=DIRECTION('ref_axis',(1.,-1.557353941392E-15,9.53604259732614E-32));
#252=DIRECTION('center_axis',(0.,-6.12323399573677E-17,-1.));
#253=DIRECTION('ref_axis',(1.,0.,0.));
#254=DIRECTION('',(0.,6.12323399573677E-17,1.));
#255=DIRECTION('center_axis',(0.,0.,-1.));
#256=DIRECTION('ref_axis',(-1.61029515186425E-15,-1.,0.));
#257=DIRECTION('center_axis',(0.,0.,1.));
#258=DIRECTION('ref_axis',(1.,0.,0.));
#259=DIRECTION('center_axis',(0.,6.12323399573677E-17,1.));
#260=DIRECTION('ref_axis',(1.,-1.557353941392E-15,9.53604259732614E-32));
#261=DIRECTION('center_axis',(0.,-6.12323399573677E-17,-1.));
#262=DIRECTION('ref_axis',(1.,0.,0.));
#263=DIRECTION('',(-0.0871557427476827,2.07405172038658E-16,0.996194698091743));
#264=DIRECTION('center_axis',(0.,-6.12323399573677E-17,-1.));
#265=DIRECTION('ref_axis',(1.,-1.557353941392E-15,9.53604259732614E-32));
#266=DIRECTION('',(0.996194698091742,-1.66808965423239E-15,0.0871557427476962));
#267=DIRECTION('center_axis',(0.,-6.12323399573677E-17,-1.));
#268=DIRECTION('ref_axis',(1.,0.,0.));
#269=DIRECTION('center_axis',(0.,6.12323399573677E-17,1.));
#270=DIRECTION('ref_axis',(1.,-1.557353941392E-15,9.53604259732614E-32));
#271=DIRECTION('',(-0.0871557427476856,2.07405172038663E-16,0.996194698091743));
#272=DIRECTION('',(0.,0.,1.));
#273=DIRECTION('',(1.,0.,0.));
#274=CARTESIAN_POINT('',(0.,0.,0.));
#275=CARTESIAN_POINT('',(0.,0.,0.));
#276=CARTESIAN_POINT('Origin',(1.50000000000001,-5.44610088990601,230.983146893796));
#277=CARTESIAN_POINT('',(1.50000000000001,36.4691650576209,220.));
#278=CARTESIAN_POINT('',(1.50000000000001,36.4691650576209,222.));
#279=CARTESIAN_POINT('',(1.50000000000001,36.4691650576209,221.));
#280=CARTESIAN_POINT('',(1.50000000000001,-36.4691650576209,220.));
#281=CARTESIAN_POINT('',(1.50000000000001,-2.72305044495302,220.));
#282=CARTESIAN_POINT('',(1.50000000000001,-36.4691650576209,222.));
#283=CARTESIAN_POINT('',(1.50000000000001,-36.4691650576209,221.));
#284=CARTESIAN_POINT('',(1.50000000000001,-2.72305044495302,222.));
#285=CARTESIAN_POINT('Origin',(5.6843418860808E-14,-2.8421709430404E-14,
222.));
#286=CARTESIAN_POINT('Origin',(5.6843418860808E-14,-2.8421709430404E-14,
222.));
#287=CARTESIAN_POINT('Origin',(5.6843418860808E-14,-2.8421709430404E-14,
221.));
#288=CARTESIAN_POINT('Origin',(5.6843418860808E-14,-2.8421709430404E-14,
220.));
#289=CARTESIAN_POINT('Origin',(5.6843418860808E-14,-2.8421709430404E-14,
220.));
#290=CARTESIAN_POINT('Origin',(1.5,-43.3215454435211,220.));
#291=CARTESIAN_POINT('',(1.5,-36.469165057621,220.));
#292=CARTESIAN_POINT('',(-36.5,2.8421709430404E-14,150.));
#293=CARTESIAN_POINT('Origin',(0.,-1.4210854715202E-14,217.236842105263));
#294=CARTESIAN_POINT('',(1.5,-35.2681159122514,220.));
#295=CARTESIAN_POINT('',(1.5,-21.6607727217606,220.));
#296=CARTESIAN_POINT('',(-35.3,2.8421709430404E-14,152.21052631579));
#297=CARTESIAN_POINT('Origin',(0.,-1.4210854715202E-14,217.236842105263));
#298=CARTESIAN_POINT('',(1.5,35.2681159122513,220.));
#299=CARTESIAN_POINT('Origin',(0.,-1.4210854715202E-14,217.236842105263));
#300=CARTESIAN_POINT('',(1.5,36.4691650576209,220.));
#301=CARTESIAN_POINT('',(1.5,-21.6607727217606,220.));
#302=CARTESIAN_POINT('Origin',(0.,-1.4210854715202E-14,217.236842105263));
#303=CARTESIAN_POINT('Origin',(0.,-2.8421709430404E-14,8.49999999999909));
#304=CARTESIAN_POINT('',(-36.5,2.8421709430404E-14,6.99999999999829));
#305=CARTESIAN_POINT('Origin',(0.,-2.8421709430404E-14,6.99999999999829));
#306=CARTESIAN_POINT('',(-36.5,2.8421709430404E-14,8.49999999999909));
#307=CARTESIAN_POINT('Origin',(0.,-2.8421709430404E-14,220.));
#308=CARTESIAN_POINT('Origin',(0.,-2.8421709430404E-14,8.52619656574359));
#309=CARTESIAN_POINT('',(-35.3,2.8421709430404E-14,7.05239313148718));
#310=CARTESIAN_POINT('Origin',(0.,-2.8421709430404E-14,7.05239313148718));
#311=CARTESIAN_POINT('',(-35.3,2.8421709430404E-14,8.52619656574359));
#312=CARTESIAN_POINT('Origin',(0.,-2.8421709430404E-14,220.));
#313=CARTESIAN_POINT('Origin',(0.,-2.8421709430404E-14,220.));
#314=CARTESIAN_POINT('Origin',(0.,-2.8421709430404E-14,3.49999999999909));
#315=CARTESIAN_POINT('',(-35.8875793553185,2.8421709430404E-14,0.));
#316=CARTESIAN_POINT('Origin',(0.,-2.8421709430404E-14,0.));
#317=CARTESIAN_POINT('',(-36.1937896776592,2.8421709430404E-14,3.49999999999909));
#318=CARTESIAN_POINT('Origin',(0.,-2.8421709430404E-14,0.0522934456486155));
#319=CARTESIAN_POINT('',(-34.6921457176085,2.8421709430404E-14,0.104586891297231));
#320=CARTESIAN_POINT('',(-35.2898625364635,2.8421709430404E-14,0.0522934456486155));
#321=CARTESIAN_POINT('Origin',(0.,-2.8421709430404E-14,0.104586891297231));
#322=CARTESIAN_POINT('Origin',(0.,-2.8421709430404E-14,3.5784900113922));
#323=CARTESIAN_POINT('',(-34.9960728588042,2.8421709430404E-14,3.5784900113922));
#324=CARTESIAN_POINT('',(0.,0.,0.));
#325=UNCERTAINTY_MEASURE_WITH_UNIT(LENGTH_MEASURE(0.001),#331,
'DISTANCE_ACCURACY_VALUE',
'Maximum model space distance between geometric entities at asserted c
onnectivities');
#326=UNCERTAINTY_MEASURE_WITH_UNIT(LENGTH_MEASURE(0.001),#331,
'DISTANCE_ACCURACY_VALUE',
'Maximum model space distance between geometric entities at asserted c
onnectivities');
#327=UNCERTAINTY_MEASURE_WITH_UNIT(LENGTH_MEASURE(0.001),#331,
'DISTANCE_ACCURACY_VALUE',
'Maximum model space distance between geometric entities at asserted c
onnectivities');
#328=(
GEOMETRIC_REPRESENTATION_CONTEXT(3)
GLOBAL_UNCERTAINTY_ASSIGNED_CONTEXT((#325))
GLOBAL_UNIT_ASSIGNED_CONTEXT((#331,#332,#333))
REPRESENTATION_CONTEXT('','3D')
);
#329=(
GEOMETRIC_REPRESENTATION_CONTEXT(3)
GLOBAL_UNCERTAINTY_ASSIGNED_CONTEXT((#326))
GLOBAL_UNIT_ASSIGNED_CONTEXT((#331,#332,#333))
REPRESENTATION_CONTEXT('','3D')
);
#330=(
GEOMETRIC_REPRESENTATION_CONTEXT(3)
GLOBAL_UNCERTAINTY_ASSIGNED_CONTEXT((#327))
GLOBAL_UNIT_ASSIGNED_CONTEXT((#331,#332,#333))
REPRESENTATION_CONTEXT('','3D')
);
#331=(
LENGTH_UNIT()
NAMED_UNIT(*)
SI_UNIT(.CENTI.,.METRE.)
);
#332=(
NAMED_UNIT(*)
PLANE_ANGLE_UNIT()
SI_UNIT($,.RADIAN.)
);
#333=(
NAMED_UNIT(*)
SI_UNIT($,.STERADIAN.)
SOLID_ANGLE_UNIT()
);
#334=SHAPE_DEFINITION_REPRESENTATION(#336,#339);
#335=SHAPE_DEFINITION_REPRESENTATION(#337,#340);
#336=PRODUCT_DEFINITION_SHAPE('',$,#342);
#337=PRODUCT_DEFINITION_SHAPE('',$,#343);
#338=PRODUCT_DEFINITION_SHAPE($,$,#17);
#339=SHAPE_REPRESENTATION('',(#185,#210),#328);
#340=SHAPE_REPRESENTATION('',(#186),#329);
#341=PRODUCT_DEFINITION_CONTEXT('part definition',#349,'design');
#342=PRODUCT_DEFINITION('Product','Product',#344,#341);
#343=PRODUCT_DEFINITION('*S0','*S0',#345,#341);
#344=PRODUCT_DEFINITION_FORMATION('',$,#351);
#345=PRODUCT_DEFINITION_FORMATION('',$,#352);
#346=PRODUCT_RELATED_PRODUCT_CATEGORY('Product','Product',(#351));
#347=PRODUCT_RELATED_PRODUCT_CATEGORY('*S0','*S0',(#352));
#348=APPLICATION_PROTOCOL_DEFINITION('international standard',
'automotive_design',2009,#349);
#349=APPLICATION_CONTEXT(
'Core Data for Automotive Mechanical Design Process');
#350=PRODUCT_CONTEXT('part definition',#349,'mechanical');
#351=PRODUCT('Product','Product',$,(#350));
#352=PRODUCT('*S0','*S0',$,(#350));
#353=PRESENTATION_STYLE_ASSIGNMENT((#354));
#354=SURFACE_STYLE_USAGE(.BOTH.,#355);
#355=SURFACE_SIDE_STYLE('',(#356));
#356=SURFACE_STYLE_FILL_AREA(#357);
#357=FILL_AREA_STYLE('',(#358));
#358=FILL_AREA_STYLE_COLOUR('',#359);
#359=COLOUR_RGB('',0.901960784313726,0.901960784313726,0.901960784313726);
ENDSEC;
END-ISO-10303-21;
