ISO-10303-21;
HEADER;
/* Generated by software containing ST-Developer
 * from STEP Tools, Inc. (www.steptools.com) 
 */

FILE_DESCRIPTION(
/* description */ (''),
/* implementation_level */ '2;1');

FILE_NAME(
/* name */ '09112.070X_3D.stp',
/* time_stamp */ '2024-12-11T14:21:03+01:00',
/* author */ ('CAD'),
/* organization */ (''),
/* preprocessor_version */ 'ST-DEVELOPER v20',
/* originating_system */ 'AutoCAD Mechanical',
/* authorisation */ '');

FILE_SCHEMA (('AUTOMOTIVE_DESIGN { 1 0 10303 214 3 1 1 }'));
ENDSEC;

DATA;
#10=MECHANICAL_DESIGN_GEOMETRIC_PRESENTATION_REPRESENTATION('',(#14),#574);
#11=PRESENTATION_LAYER_ASSIGNMENT('1','DICHTUNG',(#15));
#12=SHAPE_REPRESENTATION_RELATIONSHIP('SRR','None',#580,#13);
#13=ADVANCED_BREP_SHAPE_REPRESENTATION('',(#15),#573);
#14=STYLED_ITEM('',(#589),#15);
#15=MANIFOLD_SOLID_BREP('1028',#312);
#16=FACE_BOUND('',#84,.T.);
#17=FACE_BOUND('',#94,.T.);
#18=FACE_BOUND('',#99,.T.);
#19=PLANE('',#331);
#20=PLANE('',#351);
#21=PLANE('',#362);
#22=CONICAL_SURFACE('',#322,37.4561268812079,0.174532925199429);
#23=CONICAL_SURFACE('',#329,41.0340866163887,0.513334732775808);
#24=CONICAL_SURFACE('',#337,39.622113846489,0.349065850398883);
#25=CONICAL_SURFACE('',#341,41.2,0.785398163397428);
#26=CONICAL_SURFACE('',#345,41.2,0.785398163397448);
#27=CONICAL_SURFACE('',#349,41.65,0.521834279814405);
#28=CONICAL_SURFACE('',#353,40.5878329020845,0.494888214618572);
#29=LINE('',#494,#41);
#30=LINE('',#498,#42);
#31=LINE('',#511,#43);
#32=LINE('',#524,#44);
#33=LINE('',#528,#45);
#34=LINE('',#532,#46);
#35=LINE('',#536,#47);
#36=LINE('',#540,#48);
#37=LINE('',#544,#49);
#38=LINE('',#548,#50);
#39=LINE('',#554,#51);
#40=LINE('',#570,#52);
#41=VECTOR('',#381,37.);
#42=VECTOR('',#386,37.4561268812079);
#43=VECTOR('',#403,41.0340866163887);
#44=VECTOR('',#420,39.622113846489);
#45=VECTOR('',#425,40.5);
#46=VECTOR('',#430,41.2);
#47=VECTOR('',#435,41.9);
#48=VECTOR('',#440,41.2);
#49=VECTOR('',#445,40.5);
#50=VECTOR('',#450,41.65);
#51=VECTOR('',#457,40.5878329020845);
#52=VECTOR('',#480,32.);
#53=CYLINDRICAL_SURFACE('',#320,37.);
#54=CYLINDRICAL_SURFACE('',#339,40.5);
#55=CYLINDRICAL_SURFACE('',#343,41.9);
#56=CYLINDRICAL_SURFACE('',#347,40.5);
#57=CYLINDRICAL_SURFACE('',#364,32.);
#58=FACE_OUTER_BOUND('',#78,.T.);
#59=FACE_OUTER_BOUND('',#79,.T.);
#60=FACE_OUTER_BOUND('',#80,.T.);
#61=FACE_OUTER_BOUND('',#81,.T.);
#62=FACE_OUTER_BOUND('',#82,.T.);
#63=FACE_OUTER_BOUND('',#83,.T.);
#64=FACE_OUTER_BOUND('',#85,.T.);
#65=FACE_OUTER_BOUND('',#86,.T.);
#66=FACE_OUTER_BOUND('',#87,.T.);
#67=FACE_OUTER_BOUND('',#88,.T.);
#68=FACE_OUTER_BOUND('',#89,.T.);
#69=FACE_OUTER_BOUND('',#90,.T.);
#70=FACE_OUTER_BOUND('',#91,.T.);
#71=FACE_OUTER_BOUND('',#92,.T.);
#72=FACE_OUTER_BOUND('',#93,.T.);
#73=FACE_OUTER_BOUND('',#95,.T.);
#74=FACE_OUTER_BOUND('',#96,.T.);
#75=FACE_OUTER_BOUND('',#97,.T.);
#76=FACE_OUTER_BOUND('',#98,.T.);
#77=FACE_OUTER_BOUND('',#100,.T.);
#78=EDGE_LOOP('',(#201,#202,#203,#204,#205,#206));
#79=EDGE_LOOP('',(#207,#208,#209,#210,#211));
#80=EDGE_LOOP('',(#212,#213,#214,#215,#216));
#81=EDGE_LOOP('',(#217,#218,#219,#220,#221,#222));
#82=EDGE_LOOP('',(#223,#224,#225,#226,#227));
#83=EDGE_LOOP('',(#228));
#84=EDGE_LOOP('',(#229));
#85=EDGE_LOOP('',(#230,#231,#232,#233,#234));
#86=EDGE_LOOP('',(#235,#236,#237,#238,#239));
#87=EDGE_LOOP('',(#240,#241,#242,#243));
#88=EDGE_LOOP('',(#244,#245,#246,#247));
#89=EDGE_LOOP('',(#248,#249,#250,#251));
#90=EDGE_LOOP('',(#252,#253,#254,#255));
#91=EDGE_LOOP('',(#256,#257,#258,#259));
#92=EDGE_LOOP('',(#260,#261,#262,#263));
#93=EDGE_LOOP('',(#264));
#94=EDGE_LOOP('',(#265));
#95=EDGE_LOOP('',(#266,#267,#268,#269,#270));
#96=EDGE_LOOP('',(#271,#272,#273,#274,#275));
#97=EDGE_LOOP('',(#276,#277,#278,#279));
#98=EDGE_LOOP('',(#280));
#99=EDGE_LOOP('',(#281));
#100=EDGE_LOOP('',(#282,#283,#284,#285,#286));
#101=CIRCLE('',#315,32.);
#102=CIRCLE('',#316,32.);
#103=CIRCLE('',#317,4.99999999999994);
#104=CIRCLE('',#318,37.);
#105=CIRCLE('',#319,37.);
#106=CIRCLE('',#321,37.);
#107=CIRCLE('',#323,37.9122537624157);
#108=CIRCLE('',#324,37.9122537624157);
#109=CIRCLE('',#326,39.7681732327773);
#110=CIRCLE('',#327,1.00000000000005);
#111=CIRCLE('',#328,39.7681732327773);
#112=CIRCLE('',#330,42.3);
#113=CIRCLE('',#332,39.214074003371);
#114=CIRCLE('',#334,0.500000000000034);
#115=CIRCLE('',#335,38.744227692978);
#116=CIRCLE('',#336,38.744227692978);
#117=CIRCLE('',#338,40.5);
#118=CIRCLE('',#340,40.5);
#119=CIRCLE('',#342,41.9);
#120=CIRCLE('',#344,41.9);
#121=CIRCLE('',#346,40.5);
#122=CIRCLE('',#348,40.5);
#123=CIRCLE('',#350,42.8);
#124=CIRCLE('',#352,41.);
#125=CIRCLE('',#354,40.1756658041691);
#126=CIRCLE('',#355,40.1756658041691);
#127=CIRCLE('',#357,0.899999999999857);
#128=CIRCLE('',#358,38.486649941902);
#129=CIRCLE('',#360,34.5);
#130=CIRCLE('',#361,3.99999999999993);
#131=CIRCLE('',#363,32.);
#132=VERTEX_POINT('',#483);
#133=VERTEX_POINT('',#484);
#134=VERTEX_POINT('',#487);
#135=VERTEX_POINT('',#489);
#136=VERTEX_POINT('',#493);
#137=VERTEX_POINT('',#497);
#138=VERTEX_POINT('',#499);
#139=VERTEX_POINT('',#503);
#140=VERTEX_POINT('',#504);
#141=VERTEX_POINT('',#509);
#142=VERTEX_POINT('',#513);
#143=VERTEX_POINT('',#516);
#144=VERTEX_POINT('',#518);
#145=VERTEX_POINT('',#522);
#146=VERTEX_POINT('',#526);
#147=VERTEX_POINT('',#530);
#148=VERTEX_POINT('',#534);
#149=VERTEX_POINT('',#538);
#150=VERTEX_POINT('',#542);
#151=VERTEX_POINT('',#546);
#152=VERTEX_POINT('',#550);
#153=VERTEX_POINT('',#553);
#154=VERTEX_POINT('',#555);
#155=VERTEX_POINT('',#559);
#156=VERTEX_POINT('',#563);
#157=VERTEX_POINT('',#567);
#158=EDGE_CURVE('',#132,#133,#101,.T.);
#159=EDGE_CURVE('',#133,#132,#102,.T.);
#160=EDGE_CURVE('',#132,#134,#103,.T.);
#161=EDGE_CURVE('',#135,#134,#104,.T.);
#162=EDGE_CURVE('',#134,#135,#105,.T.);
#163=EDGE_CURVE('',#135,#136,#29,.T.);
#164=EDGE_CURVE('',#136,#136,#106,.T.);
#165=EDGE_CURVE('',#136,#137,#30,.T.);
#166=EDGE_CURVE('',#138,#137,#107,.T.);
#167=EDGE_CURVE('',#137,#138,#108,.T.);
#168=EDGE_CURVE('',#139,#140,#109,.T.);
#169=EDGE_CURVE('',#139,#138,#110,.T.);
#170=EDGE_CURVE('',#140,#139,#111,.T.);
#171=EDGE_CURVE('',#141,#141,#112,.T.);
#172=EDGE_CURVE('',#141,#140,#31,.T.);
#173=EDGE_CURVE('',#142,#142,#113,.T.);
#174=EDGE_CURVE('',#142,#143,#114,.T.);
#175=EDGE_CURVE('',#144,#143,#115,.T.);
#176=EDGE_CURVE('',#143,#144,#116,.T.);
#177=EDGE_CURVE('',#145,#145,#117,.T.);
#178=EDGE_CURVE('',#145,#144,#32,.T.);
#179=EDGE_CURVE('',#146,#146,#118,.T.);
#180=EDGE_CURVE('',#146,#145,#33,.T.);
#181=EDGE_CURVE('',#147,#147,#119,.T.);
#182=EDGE_CURVE('',#147,#146,#34,.T.);
#183=EDGE_CURVE('',#148,#148,#120,.T.);
#184=EDGE_CURVE('',#148,#147,#35,.T.);
#185=EDGE_CURVE('',#149,#149,#121,.T.);
#186=EDGE_CURVE('',#149,#148,#36,.T.);
#187=EDGE_CURVE('',#150,#150,#122,.T.);
#188=EDGE_CURVE('',#150,#149,#37,.T.);
#189=EDGE_CURVE('',#151,#151,#123,.T.);
#190=EDGE_CURVE('',#151,#150,#38,.T.);
#191=EDGE_CURVE('',#152,#152,#124,.T.);
#192=EDGE_CURVE('',#152,#153,#39,.T.);
#193=EDGE_CURVE('',#154,#153,#125,.T.);
#194=EDGE_CURVE('',#153,#154,#126,.T.);
#195=EDGE_CURVE('',#154,#155,#127,.T.);
#196=EDGE_CURVE('',#155,#155,#128,.T.);
#197=EDGE_CURVE('',#156,#156,#129,.T.);
#198=EDGE_CURVE('',#156,#155,#130,.T.);
#199=EDGE_CURVE('',#157,#157,#131,.T.);
#200=EDGE_CURVE('',#157,#133,#40,.T.);
#201=ORIENTED_EDGE('',*,*,#158,.T.);
#202=ORIENTED_EDGE('',*,*,#159,.T.);
#203=ORIENTED_EDGE('',*,*,#160,.T.);
#204=ORIENTED_EDGE('',*,*,#161,.F.);
#205=ORIENTED_EDGE('',*,*,#162,.F.);
#206=ORIENTED_EDGE('',*,*,#160,.F.);
#207=ORIENTED_EDGE('',*,*,#162,.T.);
#208=ORIENTED_EDGE('',*,*,#163,.T.);
#209=ORIENTED_EDGE('',*,*,#164,.F.);
#210=ORIENTED_EDGE('',*,*,#163,.F.);
#211=ORIENTED_EDGE('',*,*,#161,.T.);
#212=ORIENTED_EDGE('',*,*,#164,.T.);
#213=ORIENTED_EDGE('',*,*,#165,.T.);
#214=ORIENTED_EDGE('',*,*,#166,.F.);
#215=ORIENTED_EDGE('',*,*,#167,.F.);
#216=ORIENTED_EDGE('',*,*,#165,.F.);
#217=ORIENTED_EDGE('',*,*,#168,.F.);
#218=ORIENTED_EDGE('',*,*,#169,.T.);
#219=ORIENTED_EDGE('',*,*,#166,.T.);
#220=ORIENTED_EDGE('',*,*,#167,.T.);
#221=ORIENTED_EDGE('',*,*,#169,.F.);
#222=ORIENTED_EDGE('',*,*,#170,.F.);
#223=ORIENTED_EDGE('',*,*,#171,.F.);
#224=ORIENTED_EDGE('',*,*,#172,.T.);
#225=ORIENTED_EDGE('',*,*,#170,.T.);
#226=ORIENTED_EDGE('',*,*,#168,.T.);
#227=ORIENTED_EDGE('',*,*,#172,.F.);
#228=ORIENTED_EDGE('',*,*,#171,.T.);
#229=ORIENTED_EDGE('',*,*,#173,.F.);
#230=ORIENTED_EDGE('',*,*,#173,.T.);
#231=ORIENTED_EDGE('',*,*,#174,.T.);
#232=ORIENTED_EDGE('',*,*,#175,.F.);
#233=ORIENTED_EDGE('',*,*,#176,.F.);
#234=ORIENTED_EDGE('',*,*,#174,.F.);
#235=ORIENTED_EDGE('',*,*,#177,.F.);
#236=ORIENTED_EDGE('',*,*,#178,.T.);
#237=ORIENTED_EDGE('',*,*,#175,.T.);
#238=ORIENTED_EDGE('',*,*,#176,.T.);
#239=ORIENTED_EDGE('',*,*,#178,.F.);
#240=ORIENTED_EDGE('',*,*,#179,.F.);
#241=ORIENTED_EDGE('',*,*,#180,.T.);
#242=ORIENTED_EDGE('',*,*,#177,.T.);
#243=ORIENTED_EDGE('',*,*,#180,.F.);
#244=ORIENTED_EDGE('',*,*,#181,.F.);
#245=ORIENTED_EDGE('',*,*,#182,.T.);
#246=ORIENTED_EDGE('',*,*,#179,.T.);
#247=ORIENTED_EDGE('',*,*,#182,.F.);
#248=ORIENTED_EDGE('',*,*,#183,.F.);
#249=ORIENTED_EDGE('',*,*,#184,.T.);
#250=ORIENTED_EDGE('',*,*,#181,.T.);
#251=ORIENTED_EDGE('',*,*,#184,.F.);
#252=ORIENTED_EDGE('',*,*,#185,.F.);
#253=ORIENTED_EDGE('',*,*,#186,.T.);
#254=ORIENTED_EDGE('',*,*,#183,.T.);
#255=ORIENTED_EDGE('',*,*,#186,.F.);
#256=ORIENTED_EDGE('',*,*,#187,.F.);
#257=ORIENTED_EDGE('',*,*,#188,.T.);
#258=ORIENTED_EDGE('',*,*,#185,.T.);
#259=ORIENTED_EDGE('',*,*,#188,.F.);
#260=ORIENTED_EDGE('',*,*,#189,.F.);
#261=ORIENTED_EDGE('',*,*,#190,.T.);
#262=ORIENTED_EDGE('',*,*,#187,.T.);
#263=ORIENTED_EDGE('',*,*,#190,.F.);
#264=ORIENTED_EDGE('',*,*,#189,.T.);
#265=ORIENTED_EDGE('',*,*,#191,.F.);
#266=ORIENTED_EDGE('',*,*,#191,.T.);
#267=ORIENTED_EDGE('',*,*,#192,.T.);
#268=ORIENTED_EDGE('',*,*,#193,.F.);
#269=ORIENTED_EDGE('',*,*,#194,.F.);
#270=ORIENTED_EDGE('',*,*,#192,.F.);
#271=ORIENTED_EDGE('',*,*,#193,.T.);
#272=ORIENTED_EDGE('',*,*,#194,.T.);
#273=ORIENTED_EDGE('',*,*,#195,.T.);
#274=ORIENTED_EDGE('',*,*,#196,.F.);
#275=ORIENTED_EDGE('',*,*,#195,.F.);
#276=ORIENTED_EDGE('',*,*,#197,.F.);
#277=ORIENTED_EDGE('',*,*,#198,.T.);
#278=ORIENTED_EDGE('',*,*,#196,.T.);
#279=ORIENTED_EDGE('',*,*,#198,.F.);
#280=ORIENTED_EDGE('',*,*,#197,.T.);
#281=ORIENTED_EDGE('',*,*,#199,.F.);
#282=ORIENTED_EDGE('',*,*,#199,.T.);
#283=ORIENTED_EDGE('',*,*,#200,.T.);
#284=ORIENTED_EDGE('',*,*,#158,.F.);
#285=ORIENTED_EDGE('',*,*,#159,.F.);
#286=ORIENTED_EDGE('',*,*,#200,.F.);
#287=TOROIDAL_SURFACE('',#314,32.0000000000001,4.99999999999994);
#288=TOROIDAL_SURFACE('',#325,38.897061515428,1.00000000000005);
#289=TOROIDAL_SURFACE('',#333,39.214074003371,0.500000000000034);
#290=TOROIDAL_SURFACE('',#356,39.3836461788298,0.899999999999857);
#291=TOROIDAL_SURFACE('',#359,34.5000000000001,3.99999999999993);
#292=ADVANCED_FACE('',(#58),#287,.F.);
#293=ADVANCED_FACE('',(#59),#53,.F.);
#294=ADVANCED_FACE('',(#60),#22,.F.);
#295=ADVANCED_FACE('',(#61),#288,.T.);
#296=ADVANCED_FACE('',(#62),#23,.T.);
#297=ADVANCED_FACE('',(#63,#16),#19,.T.);
#298=ADVANCED_FACE('',(#64),#289,.F.);
#299=ADVANCED_FACE('',(#65),#24,.T.);
#300=ADVANCED_FACE('',(#66),#54,.T.);
#301=ADVANCED_FACE('',(#67),#25,.T.);
#302=ADVANCED_FACE('',(#68),#55,.T.);
#303=ADVANCED_FACE('',(#69),#26,.T.);
#304=ADVANCED_FACE('',(#70),#56,.T.);
#305=ADVANCED_FACE('',(#71),#27,.T.);
#306=ADVANCED_FACE('',(#72,#17),#20,.T.);
#307=ADVANCED_FACE('',(#73),#28,.F.);
#308=ADVANCED_FACE('',(#74),#290,.F.);
#309=ADVANCED_FACE('',(#75),#291,.T.);
#310=ADVANCED_FACE('',(#76,#18),#21,.T.);
#311=ADVANCED_FACE('',(#77),#57,.F.);
#312=CLOSED_SHELL('',(#292,#293,#294,#295,#296,#297,#298,#299,#300,#301,
#302,#303,#304,#305,#306,#307,#308,#309,#310,#311));
#313=AXIS2_PLACEMENT_3D('',#481,#365,#366);
#314=AXIS2_PLACEMENT_3D('',#482,#367,#368);
#315=AXIS2_PLACEMENT_3D('',#485,#369,#370);
#316=AXIS2_PLACEMENT_3D('',#486,#371,#372);
#317=AXIS2_PLACEMENT_3D('',#488,#373,#374);
#318=AXIS2_PLACEMENT_3D('',#490,#375,#376);
#319=AXIS2_PLACEMENT_3D('',#491,#377,#378);
#320=AXIS2_PLACEMENT_3D('',#492,#379,#380);
#321=AXIS2_PLACEMENT_3D('',#495,#382,#383);
#322=AXIS2_PLACEMENT_3D('',#496,#384,#385);
#323=AXIS2_PLACEMENT_3D('',#500,#387,#388);
#324=AXIS2_PLACEMENT_3D('',#501,#389,#390);
#325=AXIS2_PLACEMENT_3D('',#502,#391,#392);
#326=AXIS2_PLACEMENT_3D('',#505,#393,#394);
#327=AXIS2_PLACEMENT_3D('',#506,#395,#396);
#328=AXIS2_PLACEMENT_3D('',#507,#397,#398);
#329=AXIS2_PLACEMENT_3D('',#508,#399,#400);
#330=AXIS2_PLACEMENT_3D('',#510,#401,#402);
#331=AXIS2_PLACEMENT_3D('',#512,#404,#405);
#332=AXIS2_PLACEMENT_3D('',#514,#406,#407);
#333=AXIS2_PLACEMENT_3D('',#515,#408,#409);
#334=AXIS2_PLACEMENT_3D('',#517,#410,#411);
#335=AXIS2_PLACEMENT_3D('',#519,#412,#413);
#336=AXIS2_PLACEMENT_3D('',#520,#414,#415);
#337=AXIS2_PLACEMENT_3D('',#521,#416,#417);
#338=AXIS2_PLACEMENT_3D('',#523,#418,#419);
#339=AXIS2_PLACEMENT_3D('',#525,#421,#422);
#340=AXIS2_PLACEMENT_3D('',#527,#423,#424);
#341=AXIS2_PLACEMENT_3D('',#529,#426,#427);
#342=AXIS2_PLACEMENT_3D('',#531,#428,#429);
#343=AXIS2_PLACEMENT_3D('',#533,#431,#432);
#344=AXIS2_PLACEMENT_3D('',#535,#433,#434);
#345=AXIS2_PLACEMENT_3D('',#537,#436,#437);
#346=AXIS2_PLACEMENT_3D('',#539,#438,#439);
#347=AXIS2_PLACEMENT_3D('',#541,#441,#442);
#348=AXIS2_PLACEMENT_3D('',#543,#443,#444);
#349=AXIS2_PLACEMENT_3D('',#545,#446,#447);
#350=AXIS2_PLACEMENT_3D('',#547,#448,#449);
#351=AXIS2_PLACEMENT_3D('',#549,#451,#452);
#352=AXIS2_PLACEMENT_3D('',#551,#453,#454);
#353=AXIS2_PLACEMENT_3D('',#552,#455,#456);
#354=AXIS2_PLACEMENT_3D('',#556,#458,#459);
#355=AXIS2_PLACEMENT_3D('',#557,#460,#461);
#356=AXIS2_PLACEMENT_3D('',#558,#462,#463);
#357=AXIS2_PLACEMENT_3D('',#560,#464,#465);
#358=AXIS2_PLACEMENT_3D('',#561,#466,#467);
#359=AXIS2_PLACEMENT_3D('',#562,#468,#469);
#360=AXIS2_PLACEMENT_3D('',#564,#470,#471);
#361=AXIS2_PLACEMENT_3D('',#565,#472,#473);
#362=AXIS2_PLACEMENT_3D('',#566,#474,#475);
#363=AXIS2_PLACEMENT_3D('',#568,#476,#477);
#364=AXIS2_PLACEMENT_3D('',#569,#478,#479);
#365=DIRECTION('axis',(0.,0.,1.));
#366=DIRECTION('refdir',(1.,0.,0.));
#367=DIRECTION('center_axis',(0.,-1.,0.));
#368=DIRECTION('ref_axis',(0.,0.,-1.));
#369=DIRECTION('center_axis',(0.,-1.,0.));
#370=DIRECTION('ref_axis',(1.,0.,0.));
#371=DIRECTION('center_axis',(0.,-1.,0.));
#372=DIRECTION('ref_axis',(1.,0.,0.));
#373=DIRECTION('center_axis',(-1.,0.,0.));
#374=DIRECTION('ref_axis',(0.,0.,1.));
#375=DIRECTION('center_axis',(0.,-1.,0.));
#376=DIRECTION('ref_axis',(1.,0.,0.));
#377=DIRECTION('center_axis',(0.,-1.,0.));
#378=DIRECTION('ref_axis',(1.,0.,0.));
#379=DIRECTION('center_axis',(0.,-1.,0.));
#380=DIRECTION('ref_axis',(-1.,0.,0.));
#381=DIRECTION('',(0.,1.,0.));
#382=DIRECTION('center_axis',(0.,-1.,0.));
#383=DIRECTION('ref_axis',(1.,0.,0.));
#384=DIRECTION('center_axis',(0.,1.,0.));
#385=DIRECTION('ref_axis',(-1.,0.,0.));
#386=DIRECTION('',(0.173648177666926,0.984807753012209,2.12657684957572E-17));
#387=DIRECTION('center_axis',(0.,-1.,0.));
#388=DIRECTION('ref_axis',(1.,0.,0.));
#389=DIRECTION('center_axis',(0.,-1.,0.));
#390=DIRECTION('ref_axis',(1.,0.,0.));
#391=DIRECTION('center_axis',(0.,-1.,0.));
#392=DIRECTION('ref_axis',(0.,0.,-1.));
#393=DIRECTION('center_axis',(0.,-1.,0.));
#394=DIRECTION('ref_axis',(1.,0.,0.));
#395=DIRECTION('center_axis',(-1.,0.,0.));
#396=DIRECTION('ref_axis',(0.,0.,1.));
#397=DIRECTION('center_axis',(0.,-1.,0.));
#398=DIRECTION('ref_axis',(1.,0.,0.));
#399=DIRECTION('center_axis',(0.,-1.,0.));
#400=DIRECTION('ref_axis',(-1.,0.,0.));
#401=DIRECTION('center_axis',(0.,-1.,0.));
#402=DIRECTION('ref_axis',(1.,0.,0.));
#403=DIRECTION('',(-0.491084896832331,0.871111717349261,-6.01405547015323E-17));
#404=DIRECTION('center_axis',(0.,-1.,0.));
#405=DIRECTION('ref_axis',(0.,0.,-1.));
#406=DIRECTION('center_axis',(0.,-1.,0.));
#407=DIRECTION('ref_axis',(1.,0.,0.));
#408=DIRECTION('center_axis',(0.,-1.,0.));
#409=DIRECTION('ref_axis',(0.,0.,-1.));
#410=DIRECTION('center_axis',(-1.,0.,0.));
#411=DIRECTION('ref_axis',(0.,0.,1.));
#412=DIRECTION('center_axis',(0.,-1.,0.));
#413=DIRECTION('ref_axis',(1.,0.,0.));
#414=DIRECTION('center_axis',(0.,-1.,0.));
#415=DIRECTION('ref_axis',(1.,0.,0.));
#416=DIRECTION('center_axis',(0.,-1.,0.));
#417=DIRECTION('ref_axis',(-1.,0.,0.));
#418=DIRECTION('center_axis',(0.,-1.,0.));
#419=DIRECTION('ref_axis',(1.,0.,0.));
#420=DIRECTION('',(-0.342020143325685,0.939692620785903,-4.18853873767719E-17));
#421=DIRECTION('center_axis',(0.,-1.,0.));
#422=DIRECTION('ref_axis',(-1.,0.,0.));
#423=DIRECTION('center_axis',(0.,-1.,0.));
#424=DIRECTION('ref_axis',(1.,0.,0.));
#425=DIRECTION('',(0.,1.,0.));
#426=DIRECTION('center_axis',(0.,-1.,0.));
#427=DIRECTION('ref_axis',(-1.,0.,0.));
#428=DIRECTION('center_axis',(0.,-1.,0.));
#429=DIRECTION('ref_axis',(1.,0.,0.));
#430=DIRECTION('',(-0.707106781186533,0.707106781186562,-8.65956056235476E-17));
#431=DIRECTION('center_axis',(0.,-1.,0.));
#432=DIRECTION('ref_axis',(-1.,0.,0.));
#433=DIRECTION('center_axis',(0.,-1.,0.));
#434=DIRECTION('ref_axis',(1.,0.,0.));
#435=DIRECTION('',(0.,1.,0.));
#436=DIRECTION('center_axis',(0.,1.,0.));
#437=DIRECTION('ref_axis',(-1.,0.,0.));
#438=DIRECTION('center_axis',(0.,-1.,0.));
#439=DIRECTION('ref_axis',(1.,0.,0.));
#440=DIRECTION('',(0.707106781186548,0.707106781186547,8.65956056235493E-17));
#441=DIRECTION('center_axis',(0.,-1.,0.));
#442=DIRECTION('ref_axis',(-1.,0.,0.));
#443=DIRECTION('center_axis',(0.,-1.,0.));
#444=DIRECTION('ref_axis',(1.,0.,0.));
#445=DIRECTION('',(0.,1.,0.));
#446=DIRECTION('center_axis',(0.,-1.,0.));
#447=DIRECTION('ref_axis',(-1.,0.,0.));
#448=DIRECTION('center_axis',(0.,-1.,0.));
#449=DIRECTION('ref_axis',(1.,0.,0.));
#450=DIRECTION('',(-0.498471124258078,0.866906303057538,-6.10451066790038E-17));
#451=DIRECTION('center_axis',(0.,-1.,0.));
#452=DIRECTION('ref_axis',(0.,0.,-1.));
#453=DIRECTION('center_axis',(0.,-1.,0.));
#454=DIRECTION('ref_axis',(1.,0.,0.));
#455=DIRECTION('center_axis',(0.,-1.,0.));
#456=DIRECTION('ref_axis',(-1.,0.,0.));
#457=DIRECTION('',(-0.474933280665291,0.880021805932389,-5.816255219753E-17));
#458=DIRECTION('center_axis',(0.,-1.,0.));
#459=DIRECTION('ref_axis',(1.,0.,0.));
#460=DIRECTION('center_axis',(0.,-1.,0.));
#461=DIRECTION('ref_axis',(1.,0.,0.));
#462=DIRECTION('center_axis',(0.,-1.,0.));
#463=DIRECTION('ref_axis',(0.,0.,-1.));
#464=DIRECTION('center_axis',(-1.,0.,0.));
#465=DIRECTION('ref_axis',(0.,0.,1.));
#466=DIRECTION('center_axis',(0.,-1.,0.));
#467=DIRECTION('ref_axis',(1.,0.,0.));
#468=DIRECTION('center_axis',(0.,-1.,0.));
#469=DIRECTION('ref_axis',(0.,0.,-1.));
#470=DIRECTION('center_axis',(0.,-1.,0.));
#471=DIRECTION('ref_axis',(1.,0.,0.));
#472=DIRECTION('center_axis',(-1.,0.,0.));
#473=DIRECTION('ref_axis',(0.,0.,1.));
#474=DIRECTION('center_axis',(0.,-1.,0.));
#475=DIRECTION('ref_axis',(0.,0.,-1.));
#476=DIRECTION('center_axis',(0.,-1.,0.));
#477=DIRECTION('ref_axis',(1.,0.,0.));
#478=DIRECTION('center_axis',(0.,-1.,0.));
#479=DIRECTION('ref_axis',(-1.,0.,0.));
#480=DIRECTION('',(0.,1.,0.));
#481=CARTESIAN_POINT('',(0.,0.,0.));
#482=CARTESIAN_POINT('Origin',(508.832060437979,67.1624467629707,0.));
#483=CARTESIAN_POINT('',(508.832060437979,62.1624467629708,32.));
#484=CARTESIAN_POINT('',(540.832060437979,62.1624467629708,3.91886975727153E-15));
#485=CARTESIAN_POINT('Origin',(508.832060437979,62.1624467629708,0.));
#486=CARTESIAN_POINT('Origin',(508.832060437979,62.1624467629708,0.));
#487=CARTESIAN_POINT('',(508.832060437979,67.1624467629708,37.));
#488=CARTESIAN_POINT('Origin',(508.832060437979,67.1624467629707,32.0000000000001));
#489=CARTESIAN_POINT('',(545.832060437979,67.1624467629708,4.53119315684521E-15));
#490=CARTESIAN_POINT('Origin',(508.832060437979,67.1624467629708,0.));
#491=CARTESIAN_POINT('Origin',(508.832060437979,67.1624467629708,0.));
#492=CARTESIAN_POINT('Origin',(508.832060437979,72.1624467629708,0.));
#493=CARTESIAN_POINT('',(545.832060437979,77.1624467629708,4.53119315684521E-15));
#494=CARTESIAN_POINT('',(545.832060437979,72.1624467629708,4.53119315684521E-15));
#495=CARTESIAN_POINT('Origin',(508.832060437979,77.1624467629708,0.));
#496=CARTESIAN_POINT('Origin',(508.832060437979,79.7492708518043,0.));
#497=CARTESIAN_POINT('',(546.744314200395,82.3360949406378,4.64291202186048E-15));
#498=CARTESIAN_POINT('',(546.288187319187,79.7492708518043,4.58705258935284E-15));
#499=CARTESIAN_POINT('',(508.832060437979,82.3360949406378,37.9122537624157));
#500=CARTESIAN_POINT('Origin',(508.832060437979,82.3360949406378,0.));
#501=CARTESIAN_POINT('Origin',(508.832060437979,82.3360949406378,0.));
#502=CARTESIAN_POINT('Origin',(508.832060437979,82.1624467629708,0.));
#503=CARTESIAN_POINT('',(508.832060437979,82.6535316598031,39.7681732327773));
#504=CARTESIAN_POINT('',(548.600233670756,82.6535316598031,4.87019660574582E-15));
#505=CARTESIAN_POINT('Origin',(508.832060437979,82.6535316598031,0.));
#506=CARTESIAN_POINT('Origin',(508.832060437979,82.1624467629708,38.897061515428));
#507=CARTESIAN_POINT('Origin',(508.832060437979,82.6535316598031,0.));
#508=CARTESIAN_POINT('Origin',(508.832060437979,80.407989211387,0.));
#509=CARTESIAN_POINT('',(551.132060437979,78.1624467629708,5.1802559603933E-15));
#510=CARTESIAN_POINT('Origin',(508.832060437979,78.1624467629708,0.));
#511=CARTESIAN_POINT('',(549.866147054368,80.407989211387,5.02522628306956E-15));
#512=CARTESIAN_POINT('Origin',(469.617986434608,78.1624467629709,0.));
#513=CARTESIAN_POINT('',(508.832060437979,78.1624467629708,39.214074003371));
#514=CARTESIAN_POINT('Origin',(508.832060437979,78.1624467629708,0.));
#515=CARTESIAN_POINT('Origin',(508.832060437979,77.6624467629708,0.));
#516=CARTESIAN_POINT('',(508.832060437979,77.491436691308,38.744227692978));
#517=CARTESIAN_POINT('Origin',(508.832060437979,77.6624467629708,39.214074003371));
#518=CARTESIAN_POINT('',(547.576288130957,77.491436691308,4.74479944296418E-15));
#519=CARTESIAN_POINT('Origin',(508.832060437979,77.491436691308,0.));
#520=CARTESIAN_POINT('Origin',(508.832060437979,77.491436691308,0.));
#521=CARTESIAN_POINT('Origin',(508.832060437979,75.0794643076848,0.));
#522=CARTESIAN_POINT('',(549.332060437979,72.6674919240616,4.95981953654678E-15));
#523=CARTESIAN_POINT('Origin',(508.832060437979,72.6674919240616,0.));
#524=CARTESIAN_POINT('',(548.454174284468,75.0794643076848,4.85230948975548E-15));
#525=CARTESIAN_POINT('Origin',(508.832060437979,72.1149693435162,0.));
#526=CARTESIAN_POINT('',(549.332060437979,71.5624467629708,4.95981953654678E-15));
#527=CARTESIAN_POINT('Origin',(508.832060437979,71.5624467629708,0.));
#528=CARTESIAN_POINT('',(549.332060437979,72.1149693435162,4.95981953654678E-15));
#529=CARTESIAN_POINT('Origin',(508.832060437979,70.8624467629708,0.));
#530=CARTESIAN_POINT('',(550.732060437979,70.1624467629708,5.13127008842741E-15));
#531=CARTESIAN_POINT('Origin',(508.832060437979,70.1624467629708,0.));
#532=CARTESIAN_POINT('',(550.032060437979,70.8624467629708,5.04554481248709E-15));
#533=CARTESIAN_POINT('Origin',(508.832060437979,69.6624467629708,0.));
#534=CARTESIAN_POINT('',(550.732060437979,69.1624467629708,5.13127008842741E-15));
#535=CARTESIAN_POINT('Origin',(508.832060437979,69.1624467629708,0.));
#536=CARTESIAN_POINT('',(550.732060437979,69.6624467629708,5.13127008842741E-15));
#537=CARTESIAN_POINT('Origin',(508.832060437979,68.4624467629708,0.));
#538=CARTESIAN_POINT('',(549.332060437979,67.7624467629708,4.95981953654678E-15));
#539=CARTESIAN_POINT('Origin',(508.832060437979,67.7624467629708,0.));
#540=CARTESIAN_POINT('',(550.032060437979,68.4624467629708,5.04554481248709E-15));
#541=CARTESIAN_POINT('Origin',(508.832060437979,67.4624467629708,0.));
#542=CARTESIAN_POINT('',(549.332060437979,67.1624467629708,4.95981953654678E-15));
#543=CARTESIAN_POINT('Origin',(508.832060437979,67.1624467629708,0.));
#544=CARTESIAN_POINT('',(549.332060437979,67.4624467629708,4.95981953654678E-15));
#545=CARTESIAN_POINT('Origin',(508.832060437979,65.1624467629708,0.));
#546=CARTESIAN_POINT('',(551.632060437979,63.1624467629708,5.24148830035067E-15));
#547=CARTESIAN_POINT('Origin',(508.832060437979,63.1624467629708,0.));
#548=CARTESIAN_POINT('',(550.482060437979,65.1624467629708,5.10065391844872E-15));
#549=CARTESIAN_POINT('Origin',(467.832060437979,63.1624467629708,0.));
#550=CARTESIAN_POINT('',(549.832060437979,63.1624467629708,5.02105187650415E-15));
#551=CARTESIAN_POINT('Origin',(508.832060437979,63.1624467629708,0.));
#552=CARTESIAN_POINT('Origin',(508.832060437979,63.9261667392702,0.));
#553=CARTESIAN_POINT('',(549.007726242148,64.6898867155696,4.92010005306894E-15));
#554=CARTESIAN_POINT('',(549.419893340063,63.9261667392702,4.97057596478654E-15));
#555=CARTESIAN_POINT('',(508.832060437979,64.6898867155696,40.1756658041691));
#556=CARTESIAN_POINT('Origin',(508.832060437979,64.6898867155696,0.));
#557=CARTESIAN_POINT('Origin',(508.832060437979,64.6898867155696,0.));
#558=CARTESIAN_POINT('Origin',(508.832060437979,64.2624467629709,0.));
#559=CARTESIAN_POINT('',(508.832060437979,64.335916150726,38.486649941902));
#560=CARTESIAN_POINT('Origin',(508.832060437979,64.2624467629709,39.3836461788298));
#561=CARTESIAN_POINT('Origin',(508.832060437979,64.335916150726,0.));
#562=CARTESIAN_POINT('Origin',(508.832060437979,64.6624467629707,0.));
#563=CARTESIAN_POINT('',(508.832060437979,60.6624467629708,34.5));
#564=CARTESIAN_POINT('Origin',(508.832060437979,60.6624467629708,0.));
#565=CARTESIAN_POINT('Origin',(508.832060437979,64.6624467629707,34.5000000000001));
#566=CARTESIAN_POINT('Origin',(476.832060437979,60.6624467629708,0.));
#567=CARTESIAN_POINT('',(540.832060437979,60.6624467629708,3.91886975727153E-15));
#568=CARTESIAN_POINT('Origin',(508.832060437979,60.6624467629708,0.));
#569=CARTESIAN_POINT('Origin',(508.832060437979,61.4124467629708,0.));
#570=CARTESIAN_POINT('',(540.832060437979,61.4124467629708,3.91886975727153E-15));
#571=UNCERTAINTY_MEASURE_WITH_UNIT(LENGTH_MEASURE(0.001),#575,
'DISTANCE_ACCURACY_VALUE',
'Maximum model space distance between geometric entities at asserted c
onnectivities');
#572=UNCERTAINTY_MEASURE_WITH_UNIT(LENGTH_MEASURE(0.001),#575,
'DISTANCE_ACCURACY_VALUE',
'Maximum model space distance between geometric entities at asserted c
onnectivities');
#573=(
GEOMETRIC_REPRESENTATION_CONTEXT(3)
GLOBAL_UNCERTAINTY_ASSIGNED_CONTEXT((#571))
GLOBAL_UNIT_ASSIGNED_CONTEXT((#575,#576,#577))
REPRESENTATION_CONTEXT('','3D')
);
#574=(
GEOMETRIC_REPRESENTATION_CONTEXT(3)
GLOBAL_UNCERTAINTY_ASSIGNED_CONTEXT((#572))
GLOBAL_UNIT_ASSIGNED_CONTEXT((#575,#576,#577))
REPRESENTATION_CONTEXT('','3D')
);
#575=(
LENGTH_UNIT()
NAMED_UNIT(*)
SI_UNIT(.CENTI.,.METRE.)
);
#576=(
NAMED_UNIT(*)
PLANE_ANGLE_UNIT()
SI_UNIT($,.RADIAN.)
);
#577=(
NAMED_UNIT(*)
SI_UNIT($,.STERADIAN.)
SOLID_ANGLE_UNIT()
);
#578=SHAPE_DEFINITION_REPRESENTATION(#579,#580);
#579=PRODUCT_DEFINITION_SHAPE('',$,#582);
#580=SHAPE_REPRESENTATION('',(#313),#573);
#581=PRODUCT_DEFINITION_CONTEXT('part definition',#586,'design');
#582=PRODUCT_DEFINITION('Product','Product',#583,#581);
#583=PRODUCT_DEFINITION_FORMATION('',$,#588);
#584=PRODUCT_RELATED_PRODUCT_CATEGORY('Product','Product',(#588));
#585=APPLICATION_PROTOCOL_DEFINITION('international standard',
'automotive_design',2009,#586);
#586=APPLICATION_CONTEXT(
'Core Data for Automotive Mechanical Design Process');
#587=PRODUCT_CONTEXT('part definition',#586,'mechanical');
#588=PRODUCT('Product','Product',$,(#587));
#589=PRESENTATION_STYLE_ASSIGNMENT((#590));
#590=SURFACE_STYLE_USAGE(.BOTH.,#591);
#591=SURFACE_SIDE_STYLE('',(#592));
#592=SURFACE_STYLE_FILL_AREA(#593);
#593=FILL_AREA_STYLE('RAL 7044',(#594));
#594=FILL_AREA_STYLE_COLOUR('RAL 7044',#595);
#595=COLOUR_RGB('RAL 7044',0.717647058823529,0.701960784313725,0.658823529411765);
ENDSEC;
END-ISO-10303-21;
