ISO-10303-21;
HEADER;
/* Generated by software containing ST-Developer
 * from STEP Tools, Inc. (www.steptools.com) 
 */

FILE_DESCRIPTION(
/* description */ (''),
/* implementation_level */ '2;1');

FILE_NAME(
/* name */ '09112.040X_3D.stp',
/* time_stamp */ '2024-12-11T14:20:59+01:00',
/* author */ ('CAD'),
/* organization */ (''),
/* preprocessor_version */ 'ST-DEVELOPER v20',
/* originating_system */ 'AutoCAD Mechanical',
/* authorisation */ '');

FILE_SCHEMA (('AUTOMOTIVE_DESIGN { 1 0 10303 214 3 1 1 }'));
ENDSEC;

DATA;
#10=MECHANICAL_DESIGN_GEOMETRIC_PRESENTATION_REPRESENTATION('',(#14),#568);
#11=PRESENTATION_LAYER_ASSIGNMENT('2','DICHTUNG',(#15));
#12=SHAPE_REPRESENTATION_RELATIONSHIP('SRR','None',#574,#13);
#13=ADVANCED_BREP_SHAPE_REPRESENTATION('',(#15),#567);
#14=STYLED_ITEM('',(#583),#15);
#15=MANIFOLD_SOLID_BREP('5DB',#311);
#16=FACE_BOUND('',#63,.T.);
#17=FACE_BOUND('',#67,.T.);
#18=FACE_BOUND('',#77,.T.);
#19=FACE_BOUND('',#80,.T.);
#20=FACE_BOUND('',#83,.T.);
#21=PLANE('',#325);
#22=PLANE('',#333);
#23=PLANE('',#353);
#24=PLANE('',#357);
#25=PLANE('',#362);
#26=CONICAL_SURFACE('',#323,21.4848991969483,0.174532925199433);
#27=CONICAL_SURFACE('',#331,24.8452994616208,0.523598775598303);
#28=CONICAL_SURFACE('',#339,23.6453329723729,0.488692190558401);
#29=CONICAL_SURFACE('',#343,24.7,0.785398163397472);
#30=CONICAL_SURFACE('',#347,24.7,0.785398163397496);
#31=CONICAL_SURFACE('',#351,24.8,0.523598775598277);
#32=CONICAL_SURFACE('',#355,23.7113248654052,0.52359877559833);
#33=TOROIDAL_SURFACE('',#317,18.,3.);
#34=TOROIDAL_SURFACE('',#327,22.824573519457,1.00000000000003);
#35=TOROIDAL_SURFACE('',#335,23.3321397411753,0.500000000000017);
#36=TOROIDAL_SURFACE('',#359,20.0000000000001,2.99999999999997);
#37=FACE_OUTER_BOUND('',#58,.T.);
#38=FACE_OUTER_BOUND('',#59,.T.);
#39=FACE_OUTER_BOUND('',#60,.T.);
#40=FACE_OUTER_BOUND('',#61,.T.);
#41=FACE_OUTER_BOUND('',#62,.T.);
#42=FACE_OUTER_BOUND('',#64,.T.);
#43=FACE_OUTER_BOUND('',#65,.T.);
#44=FACE_OUTER_BOUND('',#66,.T.);
#45=FACE_OUTER_BOUND('',#68,.T.);
#46=FACE_OUTER_BOUND('',#69,.T.);
#47=FACE_OUTER_BOUND('',#70,.T.);
#48=FACE_OUTER_BOUND('',#71,.T.);
#49=FACE_OUTER_BOUND('',#72,.T.);
#50=FACE_OUTER_BOUND('',#73,.T.);
#51=FACE_OUTER_BOUND('',#74,.T.);
#52=FACE_OUTER_BOUND('',#75,.T.);
#53=FACE_OUTER_BOUND('',#76,.T.);
#54=FACE_OUTER_BOUND('',#78,.T.);
#55=FACE_OUTER_BOUND('',#79,.T.);
#56=FACE_OUTER_BOUND('',#81,.T.);
#57=FACE_OUTER_BOUND('',#82,.T.);
#58=EDGE_LOOP('',(#203,#204,#205,#206,#207));
#59=EDGE_LOOP('',(#208,#209,#210,#211,#212,#213));
#60=EDGE_LOOP('',(#214,#215,#216,#217,#218));
#61=EDGE_LOOP('',(#219,#220,#221,#222));
#62=EDGE_LOOP('',(#223));
#63=EDGE_LOOP('',(#224));
#64=EDGE_LOOP('',(#225,#226,#227,#228,#229));
#65=EDGE_LOOP('',(#230,#231,#232,#233,#234));
#66=EDGE_LOOP('',(#235));
#67=EDGE_LOOP('',(#236));
#68=EDGE_LOOP('',(#237,#238,#239,#240,#241));
#69=EDGE_LOOP('',(#242,#243,#244,#245,#246));
#70=EDGE_LOOP('',(#247,#248,#249,#250));
#71=EDGE_LOOP('',(#251,#252,#253,#254));
#72=EDGE_LOOP('',(#255,#256,#257,#258));
#73=EDGE_LOOP('',(#259,#260,#261,#262));
#74=EDGE_LOOP('',(#263,#264,#265,#266));
#75=EDGE_LOOP('',(#267,#268,#269,#270));
#76=EDGE_LOOP('',(#271));
#77=EDGE_LOOP('',(#272));
#78=EDGE_LOOP('',(#273,#274,#275,#276));
#79=EDGE_LOOP('',(#277));
#80=EDGE_LOOP('',(#278));
#81=EDGE_LOOP('',(#279,#280,#281,#282));
#82=EDGE_LOOP('',(#283));
#83=EDGE_LOOP('',(#284));
#84=LINE('',#482,#96);
#85=LINE('',#494,#97);
#86=LINE('',#498,#98);
#87=LINE('',#512,#99);
#88=LINE('',#525,#100);
#89=LINE('',#529,#101);
#90=LINE('',#533,#102);
#91=LINE('',#537,#103);
#92=LINE('',#541,#104);
#93=LINE('',#545,#105);
#94=LINE('',#549,#106);
#95=LINE('',#555,#107);
#96=VECTOR('',#369,18.25);
#97=VECTOR('',#384,21.);
#98=VECTOR('',#389,21.4848991969483);
#99=VECTOR('',#408,24.8452994616208);
#100=VECTOR('',#425,23.6453329723729);
#101=VECTOR('',#430,24.4);
#102=VECTOR('',#435,24.7);
#103=VECTOR('',#440,25.);
#104=VECTOR('',#445,24.7);
#105=VECTOR('',#450,24.4);
#106=VECTOR('',#455,24.8);
#107=VECTOR('',#462,23.7113248654052);
#108=CIRCLE('',#314,18.25);
#109=CIRCLE('',#315,18.25);
#110=CIRCLE('',#316,18.25);
#111=CIRCLE('',#318,3.);
#112=CIRCLE('',#319,21.);
#113=CIRCLE('',#320,21.);
#114=CIRCLE('',#322,21.);
#115=CIRCLE('',#324,21.9697983938966);
#116=CIRCLE('',#326,22.8245735194571);
#117=CIRCLE('',#328,23.6905989232415);
#118=CIRCLE('',#329,1.00000000000003);
#119=CIRCLE('',#330,23.6905989232415);
#120=CIRCLE('',#332,26.);
#121=CIRCLE('',#334,23.3321397411753);
#122=CIRCLE('',#336,0.500000000000017);
#123=CIRCLE('',#337,22.8906659447458);
#124=CIRCLE('',#338,22.8906659447458);
#125=CIRCLE('',#340,24.4);
#126=CIRCLE('',#342,24.4);
#127=CIRCLE('',#344,25.);
#128=CIRCLE('',#346,25.);
#129=CIRCLE('',#348,24.4);
#130=CIRCLE('',#350,24.4);
#131=CIRCLE('',#352,25.1999999999999);
#132=CIRCLE('',#354,24.);
#133=CIRCLE('',#356,23.4226497308103);
#134=CIRCLE('',#358,23.);
#135=CIRCLE('',#360,20.);
#136=CIRCLE('',#361,2.99999999999997);
#137=VERTEX_POINT('',#479);
#138=VERTEX_POINT('',#481);
#139=VERTEX_POINT('',#483);
#140=VERTEX_POINT('',#487);
#141=VERTEX_POINT('',#489);
#142=VERTEX_POINT('',#493);
#143=VERTEX_POINT('',#497);
#144=VERTEX_POINT('',#501);
#145=VERTEX_POINT('',#504);
#146=VERTEX_POINT('',#505);
#147=VERTEX_POINT('',#510);
#148=VERTEX_POINT('',#514);
#149=VERTEX_POINT('',#517);
#150=VERTEX_POINT('',#519);
#151=VERTEX_POINT('',#523);
#152=VERTEX_POINT('',#527);
#153=VERTEX_POINT('',#531);
#154=VERTEX_POINT('',#535);
#155=VERTEX_POINT('',#539);
#156=VERTEX_POINT('',#543);
#157=VERTEX_POINT('',#547);
#158=VERTEX_POINT('',#551);
#159=VERTEX_POINT('',#554);
#160=VERTEX_POINT('',#558);
#161=VERTEX_POINT('',#561);
#162=EDGE_CURVE('',#137,#137,#108,.T.);
#163=EDGE_CURVE('',#137,#138,#84,.T.);
#164=EDGE_CURVE('',#139,#138,#109,.T.);
#165=EDGE_CURVE('',#138,#139,#110,.T.);
#166=EDGE_CURVE('',#139,#140,#111,.T.);
#167=EDGE_CURVE('',#141,#140,#112,.T.);
#168=EDGE_CURVE('',#140,#141,#113,.T.);
#169=EDGE_CURVE('',#141,#142,#85,.T.);
#170=EDGE_CURVE('',#142,#142,#114,.T.);
#171=EDGE_CURVE('',#142,#143,#86,.T.);
#172=EDGE_CURVE('',#143,#143,#115,.T.);
#173=EDGE_CURVE('',#144,#144,#116,.T.);
#174=EDGE_CURVE('',#145,#146,#117,.T.);
#175=EDGE_CURVE('',#145,#144,#118,.T.);
#176=EDGE_CURVE('',#146,#145,#119,.T.);
#177=EDGE_CURVE('',#147,#147,#120,.T.);
#178=EDGE_CURVE('',#147,#146,#87,.T.);
#179=EDGE_CURVE('',#148,#148,#121,.T.);
#180=EDGE_CURVE('',#148,#149,#122,.T.);
#181=EDGE_CURVE('',#150,#149,#123,.T.);
#182=EDGE_CURVE('',#149,#150,#124,.T.);
#183=EDGE_CURVE('',#151,#151,#125,.T.);
#184=EDGE_CURVE('',#151,#150,#88,.T.);
#185=EDGE_CURVE('',#152,#152,#126,.T.);
#186=EDGE_CURVE('',#152,#151,#89,.T.);
#187=EDGE_CURVE('',#153,#153,#127,.T.);
#188=EDGE_CURVE('',#153,#152,#90,.T.);
#189=EDGE_CURVE('',#154,#154,#128,.T.);
#190=EDGE_CURVE('',#154,#153,#91,.T.);
#191=EDGE_CURVE('',#155,#155,#129,.T.);
#192=EDGE_CURVE('',#155,#154,#92,.T.);
#193=EDGE_CURVE('',#156,#156,#130,.T.);
#194=EDGE_CURVE('',#156,#155,#93,.T.);
#195=EDGE_CURVE('',#157,#157,#131,.T.);
#196=EDGE_CURVE('',#157,#156,#94,.T.);
#197=EDGE_CURVE('',#158,#158,#132,.T.);
#198=EDGE_CURVE('',#158,#159,#95,.T.);
#199=EDGE_CURVE('',#159,#159,#133,.T.);
#200=EDGE_CURVE('',#160,#160,#134,.T.);
#201=EDGE_CURVE('',#161,#161,#135,.T.);
#202=EDGE_CURVE('',#161,#160,#136,.T.);
#203=ORIENTED_EDGE('',*,*,#162,.T.);
#204=ORIENTED_EDGE('',*,*,#163,.T.);
#205=ORIENTED_EDGE('',*,*,#164,.F.);
#206=ORIENTED_EDGE('',*,*,#165,.F.);
#207=ORIENTED_EDGE('',*,*,#163,.F.);
#208=ORIENTED_EDGE('',*,*,#164,.T.);
#209=ORIENTED_EDGE('',*,*,#165,.T.);
#210=ORIENTED_EDGE('',*,*,#166,.T.);
#211=ORIENTED_EDGE('',*,*,#167,.F.);
#212=ORIENTED_EDGE('',*,*,#168,.F.);
#213=ORIENTED_EDGE('',*,*,#166,.F.);
#214=ORIENTED_EDGE('',*,*,#168,.T.);
#215=ORIENTED_EDGE('',*,*,#169,.T.);
#216=ORIENTED_EDGE('',*,*,#170,.F.);
#217=ORIENTED_EDGE('',*,*,#169,.F.);
#218=ORIENTED_EDGE('',*,*,#167,.T.);
#219=ORIENTED_EDGE('',*,*,#170,.T.);
#220=ORIENTED_EDGE('',*,*,#171,.T.);
#221=ORIENTED_EDGE('',*,*,#172,.F.);
#222=ORIENTED_EDGE('',*,*,#171,.F.);
#223=ORIENTED_EDGE('',*,*,#173,.F.);
#224=ORIENTED_EDGE('',*,*,#172,.T.);
#225=ORIENTED_EDGE('',*,*,#174,.F.);
#226=ORIENTED_EDGE('',*,*,#175,.T.);
#227=ORIENTED_EDGE('',*,*,#173,.T.);
#228=ORIENTED_EDGE('',*,*,#175,.F.);
#229=ORIENTED_EDGE('',*,*,#176,.F.);
#230=ORIENTED_EDGE('',*,*,#177,.F.);
#231=ORIENTED_EDGE('',*,*,#178,.T.);
#232=ORIENTED_EDGE('',*,*,#176,.T.);
#233=ORIENTED_EDGE('',*,*,#174,.T.);
#234=ORIENTED_EDGE('',*,*,#178,.F.);
#235=ORIENTED_EDGE('',*,*,#177,.T.);
#236=ORIENTED_EDGE('',*,*,#179,.F.);
#237=ORIENTED_EDGE('',*,*,#179,.T.);
#238=ORIENTED_EDGE('',*,*,#180,.T.);
#239=ORIENTED_EDGE('',*,*,#181,.F.);
#240=ORIENTED_EDGE('',*,*,#182,.F.);
#241=ORIENTED_EDGE('',*,*,#180,.F.);
#242=ORIENTED_EDGE('',*,*,#183,.F.);
#243=ORIENTED_EDGE('',*,*,#184,.T.);
#244=ORIENTED_EDGE('',*,*,#181,.T.);
#245=ORIENTED_EDGE('',*,*,#182,.T.);
#246=ORIENTED_EDGE('',*,*,#184,.F.);
#247=ORIENTED_EDGE('',*,*,#185,.F.);
#248=ORIENTED_EDGE('',*,*,#186,.T.);
#249=ORIENTED_EDGE('',*,*,#183,.T.);
#250=ORIENTED_EDGE('',*,*,#186,.F.);
#251=ORIENTED_EDGE('',*,*,#187,.F.);
#252=ORIENTED_EDGE('',*,*,#188,.T.);
#253=ORIENTED_EDGE('',*,*,#185,.T.);
#254=ORIENTED_EDGE('',*,*,#188,.F.);
#255=ORIENTED_EDGE('',*,*,#189,.F.);
#256=ORIENTED_EDGE('',*,*,#190,.T.);
#257=ORIENTED_EDGE('',*,*,#187,.T.);
#258=ORIENTED_EDGE('',*,*,#190,.F.);
#259=ORIENTED_EDGE('',*,*,#191,.F.);
#260=ORIENTED_EDGE('',*,*,#192,.T.);
#261=ORIENTED_EDGE('',*,*,#189,.T.);
#262=ORIENTED_EDGE('',*,*,#192,.F.);
#263=ORIENTED_EDGE('',*,*,#193,.F.);
#264=ORIENTED_EDGE('',*,*,#194,.T.);
#265=ORIENTED_EDGE('',*,*,#191,.T.);
#266=ORIENTED_EDGE('',*,*,#194,.F.);
#267=ORIENTED_EDGE('',*,*,#195,.F.);
#268=ORIENTED_EDGE('',*,*,#196,.T.);
#269=ORIENTED_EDGE('',*,*,#193,.T.);
#270=ORIENTED_EDGE('',*,*,#196,.F.);
#271=ORIENTED_EDGE('',*,*,#195,.T.);
#272=ORIENTED_EDGE('',*,*,#197,.F.);
#273=ORIENTED_EDGE('',*,*,#197,.T.);
#274=ORIENTED_EDGE('',*,*,#198,.T.);
#275=ORIENTED_EDGE('',*,*,#199,.F.);
#276=ORIENTED_EDGE('',*,*,#198,.F.);
#277=ORIENTED_EDGE('',*,*,#199,.T.);
#278=ORIENTED_EDGE('',*,*,#200,.F.);
#279=ORIENTED_EDGE('',*,*,#201,.F.);
#280=ORIENTED_EDGE('',*,*,#202,.T.);
#281=ORIENTED_EDGE('',*,*,#200,.T.);
#282=ORIENTED_EDGE('',*,*,#202,.F.);
#283=ORIENTED_EDGE('',*,*,#201,.T.);
#284=ORIENTED_EDGE('',*,*,#162,.F.);
#285=CYLINDRICAL_SURFACE('',#313,18.25);
#286=CYLINDRICAL_SURFACE('',#321,21.);
#287=CYLINDRICAL_SURFACE('',#341,24.4);
#288=CYLINDRICAL_SURFACE('',#345,25.);
#289=CYLINDRICAL_SURFACE('',#349,24.4);
#290=ADVANCED_FACE('',(#37),#285,.F.);
#291=ADVANCED_FACE('',(#38),#33,.F.);
#292=ADVANCED_FACE('',(#39),#286,.F.);
#293=ADVANCED_FACE('',(#40),#26,.F.);
#294=ADVANCED_FACE('',(#41,#16),#21,.T.);
#295=ADVANCED_FACE('',(#42),#34,.T.);
#296=ADVANCED_FACE('',(#43),#27,.T.);
#297=ADVANCED_FACE('',(#44,#17),#22,.T.);
#298=ADVANCED_FACE('',(#45),#35,.F.);
#299=ADVANCED_FACE('',(#46),#28,.T.);
#300=ADVANCED_FACE('',(#47),#287,.T.);
#301=ADVANCED_FACE('',(#48),#29,.T.);
#302=ADVANCED_FACE('',(#49),#288,.T.);
#303=ADVANCED_FACE('',(#50),#30,.T.);
#304=ADVANCED_FACE('',(#51),#289,.T.);
#305=ADVANCED_FACE('',(#52),#31,.T.);
#306=ADVANCED_FACE('',(#53,#18),#23,.T.);
#307=ADVANCED_FACE('',(#54),#32,.F.);
#308=ADVANCED_FACE('',(#55,#19),#24,.T.);
#309=ADVANCED_FACE('',(#56),#36,.T.);
#310=ADVANCED_FACE('',(#57,#20),#25,.T.);
#311=CLOSED_SHELL('',(#290,#291,#292,#293,#294,#295,#296,#297,#298,#299,
#300,#301,#302,#303,#304,#305,#306,#307,#308,#309,#310));
#312=AXIS2_PLACEMENT_3D('',#477,#363,#364);
#313=AXIS2_PLACEMENT_3D('',#478,#365,#366);
#314=AXIS2_PLACEMENT_3D('',#480,#367,#368);
#315=AXIS2_PLACEMENT_3D('',#484,#370,#371);
#316=AXIS2_PLACEMENT_3D('',#485,#372,#373);
#317=AXIS2_PLACEMENT_3D('',#486,#374,#375);
#318=AXIS2_PLACEMENT_3D('',#488,#376,#377);
#319=AXIS2_PLACEMENT_3D('',#490,#378,#379);
#320=AXIS2_PLACEMENT_3D('',#491,#380,#381);
#321=AXIS2_PLACEMENT_3D('',#492,#382,#383);
#322=AXIS2_PLACEMENT_3D('',#495,#385,#386);
#323=AXIS2_PLACEMENT_3D('',#496,#387,#388);
#324=AXIS2_PLACEMENT_3D('',#499,#390,#391);
#325=AXIS2_PLACEMENT_3D('',#500,#392,#393);
#326=AXIS2_PLACEMENT_3D('',#502,#394,#395);
#327=AXIS2_PLACEMENT_3D('',#503,#396,#397);
#328=AXIS2_PLACEMENT_3D('',#506,#398,#399);
#329=AXIS2_PLACEMENT_3D('',#507,#400,#401);
#330=AXIS2_PLACEMENT_3D('',#508,#402,#403);
#331=AXIS2_PLACEMENT_3D('',#509,#404,#405);
#332=AXIS2_PLACEMENT_3D('',#511,#406,#407);
#333=AXIS2_PLACEMENT_3D('',#513,#409,#410);
#334=AXIS2_PLACEMENT_3D('',#515,#411,#412);
#335=AXIS2_PLACEMENT_3D('',#516,#413,#414);
#336=AXIS2_PLACEMENT_3D('',#518,#415,#416);
#337=AXIS2_PLACEMENT_3D('',#520,#417,#418);
#338=AXIS2_PLACEMENT_3D('',#521,#419,#420);
#339=AXIS2_PLACEMENT_3D('',#522,#421,#422);
#340=AXIS2_PLACEMENT_3D('',#524,#423,#424);
#341=AXIS2_PLACEMENT_3D('',#526,#426,#427);
#342=AXIS2_PLACEMENT_3D('',#528,#428,#429);
#343=AXIS2_PLACEMENT_3D('',#530,#431,#432);
#344=AXIS2_PLACEMENT_3D('',#532,#433,#434);
#345=AXIS2_PLACEMENT_3D('',#534,#436,#437);
#346=AXIS2_PLACEMENT_3D('',#536,#438,#439);
#347=AXIS2_PLACEMENT_3D('',#538,#441,#442);
#348=AXIS2_PLACEMENT_3D('',#540,#443,#444);
#349=AXIS2_PLACEMENT_3D('',#542,#446,#447);
#350=AXIS2_PLACEMENT_3D('',#544,#448,#449);
#351=AXIS2_PLACEMENT_3D('',#546,#451,#452);
#352=AXIS2_PLACEMENT_3D('',#548,#453,#454);
#353=AXIS2_PLACEMENT_3D('',#550,#456,#457);
#354=AXIS2_PLACEMENT_3D('',#552,#458,#459);
#355=AXIS2_PLACEMENT_3D('',#553,#460,#461);
#356=AXIS2_PLACEMENT_3D('',#556,#463,#464);
#357=AXIS2_PLACEMENT_3D('',#557,#465,#466);
#358=AXIS2_PLACEMENT_3D('',#559,#467,#468);
#359=AXIS2_PLACEMENT_3D('',#560,#469,#470);
#360=AXIS2_PLACEMENT_3D('',#562,#471,#472);
#361=AXIS2_PLACEMENT_3D('',#563,#473,#474);
#362=AXIS2_PLACEMENT_3D('',#564,#475,#476);
#363=DIRECTION('axis',(0.,0.,1.));
#364=DIRECTION('refdir',(1.,0.,0.));
#365=DIRECTION('center_axis',(0.,-6.12323399573677E-17,-1.));
#366=DIRECTION('ref_axis',(-1.,0.,0.));
#367=DIRECTION('center_axis',(0.,-6.12323399573677E-17,-1.));
#368=DIRECTION('ref_axis',(1.,0.,0.));
#369=DIRECTION('',(0.,6.12323399573677E-17,1.));
#370=DIRECTION('center_axis',(0.,-6.12323399573677E-17,-1.));
#371=DIRECTION('ref_axis',(1.,0.,0.));
#372=DIRECTION('center_axis',(0.,-6.12323399573677E-17,-1.));
#373=DIRECTION('ref_axis',(1.,0.,0.));
#374=DIRECTION('center_axis',(0.,-6.12323399573677E-17,-1.));
#375=DIRECTION('ref_axis',(0.,1.,-4.22942104619107E-17));
#376=DIRECTION('center_axis',(-1.,0.,0.));
#377=DIRECTION('ref_axis',(0.,-1.,6.12323399573677E-17));
#378=DIRECTION('center_axis',(0.,-6.12323399573677E-17,-1.));
#379=DIRECTION('ref_axis',(1.,0.,0.));
#380=DIRECTION('center_axis',(0.,-6.12323399573677E-17,-1.));
#381=DIRECTION('ref_axis',(1.,0.,0.));
#382=DIRECTION('center_axis',(0.,-6.12323399573677E-17,-1.));
#383=DIRECTION('ref_axis',(-1.,0.,0.));
#384=DIRECTION('',(0.,6.12323399573677E-17,1.));
#385=DIRECTION('center_axis',(0.,-6.12323399573677E-17,-1.));
#386=DIRECTION('ref_axis',(1.,0.,0.));
#387=DIRECTION('center_axis',(0.,6.12323399573677E-17,1.));
#388=DIRECTION('ref_axis',(-1.,0.,0.));
#389=DIRECTION('',(0.173648177666931,3.90363146293371E-17,0.984807753012208));
#390=DIRECTION('center_axis',(0.,-6.12323399573677E-17,-1.));
#391=DIRECTION('ref_axis',(1.,0.,0.));
#392=DIRECTION('center_axis',(0.,6.12323399573677E-17,1.));
#393=DIRECTION('ref_axis',(0.,-1.,6.12323399573677E-17));
#394=DIRECTION('center_axis',(0.,-6.12323399573677E-17,-1.));
#395=DIRECTION('ref_axis',(1.,0.,0.));
#396=DIRECTION('center_axis',(0.,-6.12323399573677E-17,-1.));
#397=DIRECTION('ref_axis',(0.,1.,-7.45598588763629E-17));
#398=DIRECTION('center_axis',(0.,-6.12323399573677E-17,-1.));
#399=DIRECTION('ref_axis',(1.,0.,0.));
#400=DIRECTION('center_axis',(-1.,0.,0.));
#401=DIRECTION('ref_axis',(0.,-1.,6.12323399573677E-17));
#402=DIRECTION('center_axis',(0.,-6.12323399573677E-17,-1.));
#403=DIRECTION('ref_axis',(1.,0.,0.));
#404=DIRECTION('center_axis',(0.,-6.12323399573677E-17,-1.));
#405=DIRECTION('ref_axis',(-1.,0.,0.));
#406=DIRECTION('center_axis',(0.,-6.12323399573677E-17,-1.));
#407=DIRECTION('ref_axis',(1.,0.,0.));
#408=DIRECTION('',(-0.500000000000003,1.14261101893613E-16,0.866025403784437));
#409=DIRECTION('center_axis',(0.,-6.12323399573677E-17,-1.));
#410=DIRECTION('ref_axis',(0.,1.,-6.12323399573677E-17));
#411=DIRECTION('center_axis',(0.,-6.12323399573677E-17,-1.));
#412=DIRECTION('ref_axis',(1.,0.,0.));
#413=DIRECTION('center_axis',(0.,-6.12323399573677E-17,-1.));
#414=DIRECTION('ref_axis',(0.,1.,-7.45361876311593E-17));
#415=DIRECTION('center_axis',(-1.,0.,0.));
#416=DIRECTION('ref_axis',(0.,-1.,6.12323399573677E-17));
#417=DIRECTION('center_axis',(0.,-6.12323399573677E-17,-1.));
#418=DIRECTION('ref_axis',(1.,0.,0.));
#419=DIRECTION('center_axis',(0.,-6.12323399573677E-17,-1.));
#420=DIRECTION('ref_axis',(1.,0.,0.));
#421=DIRECTION('center_axis',(0.,-6.12323399573677E-17,-1.));
#422=DIRECTION('ref_axis',(-1.,0.,0.));
#423=DIRECTION('center_axis',(0.,-6.12323399573677E-17,-1.));
#424=DIRECTION('ref_axis',(1.,0.,0.));
#425=DIRECTION('',(-0.46947156278588,1.11558631836121E-16,0.882947592858932));
#426=DIRECTION('center_axis',(0.,-6.12323399573677E-17,-1.));
#427=DIRECTION('ref_axis',(-1.,0.,0.));
#428=DIRECTION('center_axis',(0.,-6.12323399573677E-17,-1.));
#429=DIRECTION('ref_axis',(1.,0.,0.));
#430=DIRECTION('',(0.,6.12323399573677E-17,1.));
#431=DIRECTION('center_axis',(0.,-6.12323399573677E-17,-1.));
#432=DIRECTION('ref_axis',(-1.,0.,0.));
#433=DIRECTION('center_axis',(0.,-6.12323399573677E-17,-1.));
#434=DIRECTION('ref_axis',(1.,0.,0.));
#435=DIRECTION('',(-0.707106781186564,1.29893408435325E-16,0.707106781186531));
#436=DIRECTION('center_axis',(0.,-6.12323399573677E-17,-1.));
#437=DIRECTION('ref_axis',(-1.,0.,0.));
#438=DIRECTION('center_axis',(0.,-6.12323399573677E-17,-1.));
#439=DIRECTION('ref_axis',(1.,0.,0.));
#440=DIRECTION('',(0.,6.12323399573677E-17,1.));
#441=DIRECTION('center_axis',(0.,6.12323399573677E-17,1.));
#442=DIRECTION('ref_axis',(-1.,0.,0.));
#443=DIRECTION('center_axis',(0.,-6.12323399573677E-17,-1.));
#444=DIRECTION('ref_axis',(1.,0.,0.));
#445=DIRECTION('',(0.707106781186581,-4.32978028117808E-17,0.707106781186514));
#446=DIRECTION('center_axis',(0.,-6.12323399573677E-17,-1.));
#447=DIRECTION('ref_axis',(-1.,0.,0.));
#448=DIRECTION('center_axis',(0.,-6.12323399573677E-17,-1.));
#449=DIRECTION('ref_axis',(1.,0.,0.));
#450=DIRECTION('',(0.,6.12323399573677E-17,1.));
#451=DIRECTION('center_axis',(0.,-6.12323399573677E-17,-1.));
#452=DIRECTION('ref_axis',(-1.,0.,0.));
#453=DIRECTION('center_axis',(0.,-6.12323399573677E-17,-1.));
#454=DIRECTION('ref_axis',(1.,0.,0.));
#455=DIRECTION('',(-0.499999999999981,1.14261101893611E-16,0.86602540378445));
#456=DIRECTION('center_axis',(0.,-6.12323399573677E-17,-1.));
#457=DIRECTION('ref_axis',(0.,1.,-6.12323399573677E-17));
#458=DIRECTION('center_axis',(0.,-6.12323399573677E-17,-1.));
#459=DIRECTION('ref_axis',(1.,0.,0.));
#460=DIRECTION('center_axis',(0.,-6.12323399573677E-17,-1.));
#461=DIRECTION('ref_axis',(-1.,0.,0.));
#462=DIRECTION('',(-0.500000000000027,1.14261101893615E-16,0.866025403784423));
#463=DIRECTION('center_axis',(0.,-6.12323399573677E-17,-1.));
#464=DIRECTION('ref_axis',(1.,0.,0.));
#465=DIRECTION('center_axis',(0.,-6.12323399573677E-17,-1.));
#466=DIRECTION('ref_axis',(0.,1.,-6.12323399573677E-17));
#467=DIRECTION('center_axis',(0.,-6.12323399573677E-17,-1.));
#468=DIRECTION('ref_axis',(1.,0.,0.));
#469=DIRECTION('center_axis',(0.,-6.12323399573677E-17,-1.));
#470=DIRECTION('ref_axis',(0.,1.,-5.79246795456603E-17));
#471=DIRECTION('center_axis',(0.,-6.12323399573677E-17,-1.));
#472=DIRECTION('ref_axis',(1.,0.,0.));
#473=DIRECTION('center_axis',(-1.,0.,0.));
#474=DIRECTION('ref_axis',(0.,-1.,6.12323399573677E-17));
#475=DIRECTION('center_axis',(0.,-6.12323399573677E-17,-1.));
#476=DIRECTION('ref_axis',(0.,1.,-6.12323399573677E-17));
#477=CARTESIAN_POINT('',(0.,0.,0.));
#478=CARTESIAN_POINT('Origin',(0.,3.84584062459452E-15,0.505217407112312));
#479=CARTESIAN_POINT('',(18.25,1.57992457212592E-15,0.));
#480=CARTESIAN_POINT('Origin',(0.,3.81490498056984E-15,0.));
#481=CARTESIAN_POINT('',(18.25,1.64179586017528E-15,1.01043481422464));
#482=CARTESIAN_POINT('',(18.25,1.6108602161506E-15,0.505217407112312));
#483=CARTESIAN_POINT('',(0.,-18.25,1.01043481422464));
#484=CARTESIAN_POINT('Origin',(0.,3.8767762686192E-15,1.01043481422464));
#485=CARTESIAN_POINT('Origin',(0.,3.8767762686192E-15,1.01043481422464));
#486=CARTESIAN_POINT('Origin',(0.,4.05983434039931E-15,3.99999999999999));
#487=CARTESIAN_POINT('',(0.,-21.,3.99999999999997));
#488=CARTESIAN_POINT('Origin',(0.,-18.,3.99999999999999));
#489=CARTESIAN_POINT('',(21.,1.48807606218987E-15,3.99999999999997));
#490=CARTESIAN_POINT('Origin',(0.,4.05983434039931E-15,3.99999999999997));
#491=CARTESIAN_POINT('Origin',(0.,4.05983434039931E-15,3.99999999999997));
#492=CARTESIAN_POINT('Origin',(0.,4.24353136027141E-15,6.99999999999997));
#493=CARTESIAN_POINT('',(21.,1.85547010193407E-15,9.99999999999997));
#494=CARTESIAN_POINT('',(21.,1.67177308206197E-15,6.99999999999997));
#495=CARTESIAN_POINT('Origin',(0.,4.42722838014351E-15,9.99999999999997));
#496=CARTESIAN_POINT('Origin',(0.,4.59561731502627E-15,12.75));
#497=CARTESIAN_POINT('',(21.9697983938966,2.07348192180923E-15,15.4999999999999));
#498=CARTESIAN_POINT('',(21.4848991969483,1.96447601187165E-15,12.75));
#499=CARTESIAN_POINT('Origin',(0.,4.76400624990903E-15,15.4999999999999));
#500=CARTESIAN_POINT('Origin',(-22.8245735194571,4.76400624990904E-15,15.5));
#501=CARTESIAN_POINT('',(0.,-22.8245735194571,15.5));
#502=CARTESIAN_POINT('Origin',(0.,4.76400624990904E-15,15.5));
#503=CARTESIAN_POINT('Origin',(0.,4.70277390995167E-15,14.4999999999999));
#504=CARTESIAN_POINT('',(0.,-23.6905989232415,14.9999999999999));
#505=CARTESIAN_POINT('',(23.6905989232414,1.83212846580721E-15,15.));
#506=CARTESIAN_POINT('Origin',(0.,4.73339007993035E-15,14.9999999999999));
#507=CARTESIAN_POINT('Origin',(0.,-22.824573519457,14.4999999999999));
#508=CARTESIAN_POINT('Origin',(0.,4.73339007993035E-15,14.9999999999999));
#509=CARTESIAN_POINT('Origin',(0.,4.61092540001562E-15,13.));
#510=CARTESIAN_POINT('',(26.,1.30437904231776E-15,11.));
#511=CARTESIAN_POINT('Origin',(0.,4.48846072010088E-15,11.));
#512=CARTESIAN_POINT('',(24.8452994616207,1.56825375406248E-15,13.));
#513=CARTESIAN_POINT('Origin',(-23.3321397411753,4.48846072010088E-15,11.));
#514=CARTESIAN_POINT('',(0.,-23.3321397411753,11.));
#515=CARTESIAN_POINT('Origin',(0.,4.48846072010088E-15,11.));
#516=CARTESIAN_POINT('Origin',(0.,4.4578445501222E-15,10.5));
#517=CARTESIAN_POINT('',(0.,-22.8906659447458,10.265264218607));
#518=CARTESIAN_POINT('Origin',(0.,-23.3321397411753,10.5));
#519=CARTESIAN_POINT('',(22.8906659447458,1.64017305099736E-15,10.2652642186071));
#520=CARTESIAN_POINT('Origin',(0.,4.44347112895579E-15,10.265264218607));
#521=CARTESIAN_POINT('Origin',(0.,4.44347112895579E-15,10.265264218607));
#522=CARTESIAN_POINT('Origin',(0.,4.35656270635007E-15,8.84594196722449));
#523=CARTESIAN_POINT('',(24.4,1.28151609382482E-15,7.42661971584195));
#524=CARTESIAN_POINT('Origin',(0.,4.26965428374436E-15,7.42661971584195));
#525=CARTESIAN_POINT('',(23.6453329723729,1.46084457241109E-15,8.84594196722449));
#526=CARTESIAN_POINT('Origin',(0.,4.25965443900576E-15,7.26330985792097));
#527=CARTESIAN_POINT('',(24.4,1.26151640434761E-15,7.09999999999999));
#528=CARTESIAN_POINT('Origin',(0.,4.24965459426715E-15,7.09999999999999));
#529=CARTESIAN_POINT('',(24.4,1.27151624908622E-15,7.26330985792097));
#530=CARTESIAN_POINT('Origin',(0.,4.23128489227994E-15,6.8));
#531=CARTESIAN_POINT('',(25.0000000000001,1.15129819242435E-15,6.5));
#532=CARTESIAN_POINT('Origin',(0.,4.21291519029273E-15,6.5));
#533=CARTESIAN_POINT('',(24.7,1.20640729838598E-15,6.8));
#534=CARTESIAN_POINT('Origin',(0.,4.18229902031404E-15,6.));
#535=CARTESIAN_POINT('',(25.,1.09006585246698E-15,5.5));
#536=CARTESIAN_POINT('Origin',(0.,4.15168285033536E-15,5.5));
#537=CARTESIAN_POINT('',(25.,1.12068202244566E-15,6.));
#538=CARTESIAN_POINT('Origin',(0.,4.13331314834815E-15,5.20000000000002));
#539=CARTESIAN_POINT('',(24.4,1.1268052564414E-15,4.90000000000001));
#540=CARTESIAN_POINT('Origin',(0.,4.11494344636094E-15,4.90000000000003));
#541=CARTESIAN_POINT('',(24.7,1.10843555445419E-15,5.20000000000002));
#542=CARTESIAN_POINT('Origin',(0.,4.06857956297175E-15,4.14282032302756));
#543=CARTESIAN_POINT('',(24.4,1.03407748966303E-15,3.38564064605509));
#544=CARTESIAN_POINT('Origin',(0.,4.02221567958257E-15,3.38564064605509));
#545=CARTESIAN_POINT('',(24.4,1.08044137305221E-15,4.14282032302756));
#546=CARTESIAN_POINT('Origin',(0.,3.97979267003357E-15,2.69282032302755));
#547=CARTESIAN_POINT('',(25.1999999999999,8.51259726633252E-16,2.));
#548=CARTESIAN_POINT('Origin',(0.,3.93736966048457E-15,2.));
#549=CARTESIAN_POINT('',(24.8,9.4266860814814E-16,2.69282032302755));
#550=CARTESIAN_POINT('Origin',(-24.,3.93736966048457E-15,2.));
#551=CARTESIAN_POINT('',(24.0000000000001,9.98217342530926E-16,2.));
#552=CARTESIAN_POINT('Origin',(0.,3.93736966048457E-15,2.));
#553=CARTESIAN_POINT('Origin',(0.,3.96798583046326E-15,2.49999999999999));
#554=CARTESIAN_POINT('',(23.4226497308103,1.13015469840329E-15,3.));
#555=CARTESIAN_POINT('',(23.7113248654052,1.06418602046711E-15,2.49999999999999));
#556=CARTESIAN_POINT('Origin',(0.,3.99860200044194E-15,2.99999999999997));
#557=CARTESIAN_POINT('Origin',(-23.,3.99860200044194E-15,3.));
#558=CARTESIAN_POINT('',(0.,-23.,3.));
#559=CARTESIAN_POINT('Origin',(0.,3.99860200044194E-15,3.));
#560=CARTESIAN_POINT('Origin',(0.,3.99860200044194E-15,2.99999999999997));
#561=CARTESIAN_POINT('',(0.,-20.,0.));
#562=CARTESIAN_POINT('Origin',(0.,3.81490498056984E-15,0.));
#563=CARTESIAN_POINT('Origin',(0.,-20.0000000000001,2.99999999999997));
#564=CARTESIAN_POINT('Origin',(-18.25,3.81490498056984E-15,0.));
#565=UNCERTAINTY_MEASURE_WITH_UNIT(LENGTH_MEASURE(0.001),#569,
'DISTANCE_ACCURACY_VALUE',
'Maximum model space distance between geometric entities at asserted c
onnectivities');
#566=UNCERTAINTY_MEASURE_WITH_UNIT(LENGTH_MEASURE(0.001),#569,
'DISTANCE_ACCURACY_VALUE',
'Maximum model space distance between geometric entities at asserted c
onnectivities');
#567=(
GEOMETRIC_REPRESENTATION_CONTEXT(3)
GLOBAL_UNCERTAINTY_ASSIGNED_CONTEXT((#565))
GLOBAL_UNIT_ASSIGNED_CONTEXT((#569,#570,#571))
REPRESENTATION_CONTEXT('','3D')
);
#568=(
GEOMETRIC_REPRESENTATION_CONTEXT(3)
GLOBAL_UNCERTAINTY_ASSIGNED_CONTEXT((#566))
GLOBAL_UNIT_ASSIGNED_CONTEXT((#569,#570,#571))
REPRESENTATION_CONTEXT('','3D')
);
#569=(
LENGTH_UNIT()
NAMED_UNIT(*)
SI_UNIT(.CENTI.,.METRE.)
);
#570=(
NAMED_UNIT(*)
PLANE_ANGLE_UNIT()
SI_UNIT($,.RADIAN.)
);
#571=(
NAMED_UNIT(*)
SI_UNIT($,.STERADIAN.)
SOLID_ANGLE_UNIT()
);
#572=SHAPE_DEFINITION_REPRESENTATION(#573,#574);
#573=PRODUCT_DEFINITION_SHAPE('',$,#576);
#574=SHAPE_REPRESENTATION('',(#312),#567);
#575=PRODUCT_DEFINITION_CONTEXT('part definition',#580,'design');
#576=PRODUCT_DEFINITION('Product','Product',#577,#575);
#577=PRODUCT_DEFINITION_FORMATION('',$,#582);
#578=PRODUCT_RELATED_PRODUCT_CATEGORY('Product','Product',(#582));
#579=APPLICATION_PROTOCOL_DEFINITION('international standard',
'automotive_design',2009,#580);
#580=APPLICATION_CONTEXT(
'Core Data for Automotive Mechanical Design Process');
#581=PRODUCT_CONTEXT('part definition',#580,'mechanical');
#582=PRODUCT('Product','Product',$,(#581));
#583=PRESENTATION_STYLE_ASSIGNMENT((#584));
#584=SURFACE_STYLE_USAGE(.BOTH.,#585);
#585=SURFACE_SIDE_STYLE('',(#586));
#586=SURFACE_STYLE_FILL_AREA(#587);
#587=FILL_AREA_STYLE('RAL 7044',(#588));
#588=FILL_AREA_STYLE_COLOUR('RAL 7044',#589);
#589=COLOUR_RGB('RAL 7044',0.717647058823529,0.701960784313725,0.658823529411765);
ENDSEC;
END-ISO-10303-21;
