ISO-10303-21;
HEADER;
/* Generated by software containing ST-Developer
 * from STEP Tools, Inc. (www.steptools.com) 
 */

FILE_DESCRIPTION(
/* description */ (''),
/* implementation_level */ '2;1');

FILE_NAME(
/* name */ '08266.300X_3D.stp',
/* time_stamp */ '2024-12-11T14:20:40+01:00',
/* author */ ('CAD'),
/* organization */ (''),
/* preprocessor_version */ 'ST-DEVELOPER v20',
/* originating_system */ 'AutoCAD Mechanical',
/* authorisation */ '');

FILE_SCHEMA (('AUTOMOTIVE_DESIGN { 1 0 10303 214 3 1 1 }'));
ENDSEC;

DATA;
#10=MECHANICAL_DESIGN_GEOMETRIC_PRESENTATION_REPRESENTATION('',(#20,#21,
#22,#23),#399);
#11=PRESENTATION_LAYER_ASSIGNMENT('4','ROHR',(#24,#25,#26));
#12=PRESENTATION_LAYER_ASSIGNMENT('6','GUMMI',(#27));
#13=ITEM_DEFINED_TRANSFORMATION($,$,#241,#258);
#14=(
REPRESENTATION_RELATIONSHIP($,$,#409,#408)
REPRESENTATION_RELATIONSHIP_WITH_TRANSFORMATION(#13)
SHAPE_REPRESENTATION_RELATIONSHIP()
);
#15=CONTEXT_DEPENDENT_SHAPE_REPRESENTATION(#14,#407);
#16=NEXT_ASSEMBLY_USAGE_OCCURRENCE('5D2','5D2','5D2',#411,#412,'5D2');
#17=SHAPE_REPRESENTATION_RELATIONSHIP('SRR','None',#408,#18);
#18=ADVANCED_BREP_SHAPE_REPRESENTATION('',(#24,#25,#26,#27),#397);
#19=TOROIDAL_SURFACE('',#237,161.95,5.);
#20=STYLED_ITEM('',(#422),#24);
#21=STYLED_ITEM('',(#422),#25);
#22=STYLED_ITEM('',(#422),#26);
#23=STYLED_ITEM('',(#423),#27);
#24=MANIFOLD_SOLID_BREP('422',#220);
#25=MANIFOLD_SOLID_BREP('445',#221);
#26=MANIFOLD_SOLID_BREP('961',#222);
#27=MANIFOLD_SOLID_BREP('969',#223);
#28=FACE_BOUND('',#59,.T.);
#29=FACE_BOUND('',#62,.T.);
#30=FACE_BOUND('',#66,.T.);
#31=FACE_BOUND('',#70,.T.);
#32=FACE_BOUND('',#72,.T.);
#33=FACE_BOUND('',#74,.T.);
#34=FACE_BOUND('',#78,.T.);
#35=PLANE('',#228);
#36=PLANE('',#232);
#37=PLANE('',#240);
#38=PLANE('',#248);
#39=PLANE('',#249);
#40=PLANE('',#250);
#41=PLANE('',#257);
#42=FACE_OUTER_BOUND('',#57,.T.);
#43=FACE_OUTER_BOUND('',#58,.T.);
#44=FACE_OUTER_BOUND('',#60,.T.);
#45=FACE_OUTER_BOUND('',#61,.T.);
#46=FACE_OUTER_BOUND('',#63,.T.);
#47=FACE_OUTER_BOUND('',#64,.T.);
#48=FACE_OUTER_BOUND('',#65,.T.);
#49=FACE_OUTER_BOUND('',#67,.T.);
#50=FACE_OUTER_BOUND('',#68,.T.);
#51=FACE_OUTER_BOUND('',#69,.T.);
#52=FACE_OUTER_BOUND('',#71,.T.);
#53=FACE_OUTER_BOUND('',#73,.T.);
#54=FACE_OUTER_BOUND('',#75,.T.);
#55=FACE_OUTER_BOUND('',#76,.T.);
#56=FACE_OUTER_BOUND('',#77,.T.);
#57=EDGE_LOOP('',(#150,#151,#152,#153));
#58=EDGE_LOOP('',(#154));
#59=EDGE_LOOP('',(#155));
#60=EDGE_LOOP('',(#156,#157,#158,#159));
#61=EDGE_LOOP('',(#160));
#62=EDGE_LOOP('',(#161));
#63=EDGE_LOOP('',(#162,#163,#164,#165,#166));
#64=EDGE_LOOP('',(#167,#168,#169,#170,#171));
#65=EDGE_LOOP('',(#172));
#66=EDGE_LOOP('',(#173));
#67=EDGE_LOOP('',(#174,#175,#176,#177));
#68=EDGE_LOOP('',(#178,#179,#180,#181));
#69=EDGE_LOOP('',(#182));
#70=EDGE_LOOP('',(#183));
#71=EDGE_LOOP('',(#184));
#72=EDGE_LOOP('',(#185));
#73=EDGE_LOOP('',(#186));
#74=EDGE_LOOP('',(#187));
#75=EDGE_LOOP('',(#188,#189,#190,#191));
#76=EDGE_LOOP('',(#192,#193,#194,#195));
#77=EDGE_LOOP('',(#196));
#78=EDGE_LOOP('',(#197));
#79=LINE('',#341,#86);
#80=LINE('',#349,#87);
#81=LINE('',#355,#88);
#82=LINE('',#369,#89);
#83=LINE('',#375,#90);
#84=LINE('',#387,#91);
#85=LINE('',#390,#92);
#86=VECTOR('',#265,157.95);
#87=VECTOR('',#276,161.95);
#88=VECTOR('',#283,161.95);
#89=VECTOR('',#302,163.5);
#90=VECTOR('',#309,210.);
#91=VECTOR('',#326,163.5);
#92=VECTOR('',#329,210.);
#93=CIRCLE('',#226,157.95);
#94=CIRCLE('',#227,157.95);
#95=CIRCLE('',#229,161.95);
#96=CIRCLE('',#231,161.95);
#97=CIRCLE('',#234,161.95);
#98=CIRCLE('',#235,161.95);
#99=CIRCLE('',#236,161.95);
#100=CIRCLE('',#238,166.95);
#101=CIRCLE('',#239,5.);
#102=CIRCLE('',#243,163.5);
#103=CIRCLE('',#244,163.5);
#104=CIRCLE('',#246,210.);
#105=CIRCLE('',#247,210.);
#106=CIRCLE('',#251,210.);
#107=CIRCLE('',#252,163.5);
#108=CIRCLE('',#254,163.5);
#109=CIRCLE('',#256,210.);
#110=VERTEX_POINT('',#338);
#111=VERTEX_POINT('',#340);
#112=VERTEX_POINT('',#344);
#113=VERTEX_POINT('',#347);
#114=VERTEX_POINT('',#352);
#115=VERTEX_POINT('',#354);
#116=VERTEX_POINT('',#356);
#117=VERTEX_POINT('',#360);
#118=VERTEX_POINT('',#366);
#119=VERTEX_POINT('',#368);
#120=VERTEX_POINT('',#372);
#121=VERTEX_POINT('',#374);
#122=VERTEX_POINT('',#380);
#123=VERTEX_POINT('',#382);
#124=VERTEX_POINT('',#385);
#125=VERTEX_POINT('',#389);
#126=EDGE_CURVE('',#110,#110,#93,.T.);
#127=EDGE_CURVE('',#110,#111,#79,.T.);
#128=EDGE_CURVE('',#111,#111,#94,.T.);
#129=EDGE_CURVE('',#112,#112,#95,.T.);
#130=EDGE_CURVE('',#113,#113,#96,.T.);
#131=EDGE_CURVE('',#113,#112,#80,.T.);
#132=EDGE_CURVE('',#114,#114,#97,.T.);
#133=EDGE_CURVE('',#114,#115,#81,.T.);
#134=EDGE_CURVE('',#116,#115,#98,.T.);
#135=EDGE_CURVE('',#115,#116,#99,.T.);
#136=EDGE_CURVE('',#117,#117,#100,.T.);
#137=EDGE_CURVE('',#117,#116,#101,.T.);
#138=EDGE_CURVE('',#118,#118,#102,.T.);
#139=EDGE_CURVE('',#118,#119,#82,.T.);
#140=EDGE_CURVE('',#119,#119,#103,.T.);
#141=EDGE_CURVE('',#120,#120,#104,.T.);
#142=EDGE_CURVE('',#120,#121,#83,.T.);
#143=EDGE_CURVE('',#121,#121,#105,.T.);
#144=EDGE_CURVE('',#122,#122,#106,.T.);
#145=EDGE_CURVE('',#123,#123,#107,.T.);
#146=EDGE_CURVE('',#124,#124,#108,.T.);
#147=EDGE_CURVE('',#124,#123,#84,.T.);
#148=EDGE_CURVE('',#122,#125,#85,.T.);
#149=EDGE_CURVE('',#125,#125,#109,.T.);
#150=ORIENTED_EDGE('',*,*,#126,.T.);
#151=ORIENTED_EDGE('',*,*,#127,.T.);
#152=ORIENTED_EDGE('',*,*,#128,.F.);
#153=ORIENTED_EDGE('',*,*,#127,.F.);
#154=ORIENTED_EDGE('',*,*,#129,.F.);
#155=ORIENTED_EDGE('',*,*,#128,.T.);
#156=ORIENTED_EDGE('',*,*,#130,.F.);
#157=ORIENTED_EDGE('',*,*,#131,.T.);
#158=ORIENTED_EDGE('',*,*,#129,.T.);
#159=ORIENTED_EDGE('',*,*,#131,.F.);
#160=ORIENTED_EDGE('',*,*,#130,.T.);
#161=ORIENTED_EDGE('',*,*,#126,.F.);
#162=ORIENTED_EDGE('',*,*,#132,.T.);
#163=ORIENTED_EDGE('',*,*,#133,.T.);
#164=ORIENTED_EDGE('',*,*,#134,.F.);
#165=ORIENTED_EDGE('',*,*,#135,.F.);
#166=ORIENTED_EDGE('',*,*,#133,.F.);
#167=ORIENTED_EDGE('',*,*,#136,.F.);
#168=ORIENTED_EDGE('',*,*,#137,.T.);
#169=ORIENTED_EDGE('',*,*,#134,.T.);
#170=ORIENTED_EDGE('',*,*,#135,.T.);
#171=ORIENTED_EDGE('',*,*,#137,.F.);
#172=ORIENTED_EDGE('',*,*,#136,.T.);
#173=ORIENTED_EDGE('',*,*,#132,.F.);
#174=ORIENTED_EDGE('',*,*,#138,.F.);
#175=ORIENTED_EDGE('',*,*,#139,.T.);
#176=ORIENTED_EDGE('',*,*,#140,.F.);
#177=ORIENTED_EDGE('',*,*,#139,.F.);
#178=ORIENTED_EDGE('',*,*,#141,.F.);
#179=ORIENTED_EDGE('',*,*,#142,.T.);
#180=ORIENTED_EDGE('',*,*,#143,.F.);
#181=ORIENTED_EDGE('',*,*,#142,.F.);
#182=ORIENTED_EDGE('',*,*,#143,.T.);
#183=ORIENTED_EDGE('',*,*,#138,.T.);
#184=ORIENTED_EDGE('',*,*,#141,.T.);
#185=ORIENTED_EDGE('',*,*,#140,.T.);
#186=ORIENTED_EDGE('',*,*,#144,.T.);
#187=ORIENTED_EDGE('',*,*,#145,.T.);
#188=ORIENTED_EDGE('',*,*,#146,.F.);
#189=ORIENTED_EDGE('',*,*,#147,.T.);
#190=ORIENTED_EDGE('',*,*,#145,.F.);
#191=ORIENTED_EDGE('',*,*,#147,.F.);
#192=ORIENTED_EDGE('',*,*,#144,.F.);
#193=ORIENTED_EDGE('',*,*,#148,.T.);
#194=ORIENTED_EDGE('',*,*,#149,.F.);
#195=ORIENTED_EDGE('',*,*,#148,.F.);
#196=ORIENTED_EDGE('',*,*,#149,.T.);
#197=ORIENTED_EDGE('',*,*,#146,.T.);
#198=CYLINDRICAL_SURFACE('',#225,157.95);
#199=CYLINDRICAL_SURFACE('',#230,161.95);
#200=CYLINDRICAL_SURFACE('',#233,161.95);
#201=CYLINDRICAL_SURFACE('',#242,163.5);
#202=CYLINDRICAL_SURFACE('',#245,210.);
#203=CYLINDRICAL_SURFACE('',#253,163.5);
#204=CYLINDRICAL_SURFACE('',#255,210.);
#205=ADVANCED_FACE('',(#42),#198,.F.);
#206=ADVANCED_FACE('',(#43,#28),#35,.T.);
#207=ADVANCED_FACE('',(#44),#199,.T.);
#208=ADVANCED_FACE('',(#45,#29),#36,.T.);
#209=ADVANCED_FACE('',(#46),#200,.F.);
#210=ADVANCED_FACE('',(#47),#19,.T.);
#211=ADVANCED_FACE('',(#48,#30),#37,.T.);
#212=ADVANCED_FACE('',(#49),#201,.F.);
#213=ADVANCED_FACE('',(#50),#202,.T.);
#214=ADVANCED_FACE('',(#51,#31),#38,.T.);
#215=ADVANCED_FACE('',(#52,#32),#39,.T.);
#216=ADVANCED_FACE('',(#53,#33),#40,.T.);
#217=ADVANCED_FACE('',(#54),#203,.F.);
#218=ADVANCED_FACE('',(#55),#204,.T.);
#219=ADVANCED_FACE('',(#56,#34),#41,.T.);
#220=CLOSED_SHELL('',(#205,#206,#207,#208));
#221=CLOSED_SHELL('',(#209,#210,#211));
#222=CLOSED_SHELL('',(#212,#213,#214,#215));
#223=CLOSED_SHELL('',(#216,#217,#218,#219));
#224=AXIS2_PLACEMENT_3D('',#336,#259,#260);
#225=AXIS2_PLACEMENT_3D('',#337,#261,#262);
#226=AXIS2_PLACEMENT_3D('',#339,#263,#264);
#227=AXIS2_PLACEMENT_3D('',#342,#266,#267);
#228=AXIS2_PLACEMENT_3D('',#343,#268,#269);
#229=AXIS2_PLACEMENT_3D('',#345,#270,#271);
#230=AXIS2_PLACEMENT_3D('',#346,#272,#273);
#231=AXIS2_PLACEMENT_3D('',#348,#274,#275);
#232=AXIS2_PLACEMENT_3D('',#350,#277,#278);
#233=AXIS2_PLACEMENT_3D('',#351,#279,#280);
#234=AXIS2_PLACEMENT_3D('',#353,#281,#282);
#235=AXIS2_PLACEMENT_3D('',#357,#284,#285);
#236=AXIS2_PLACEMENT_3D('',#358,#286,#287);
#237=AXIS2_PLACEMENT_3D('',#359,#288,#289);
#238=AXIS2_PLACEMENT_3D('',#361,#290,#291);
#239=AXIS2_PLACEMENT_3D('',#362,#292,#293);
#240=AXIS2_PLACEMENT_3D('',#363,#294,#295);
#241=AXIS2_PLACEMENT_3D('',#364,#296,#297);
#242=AXIS2_PLACEMENT_3D('',#365,#298,#299);
#243=AXIS2_PLACEMENT_3D('',#367,#300,#301);
#244=AXIS2_PLACEMENT_3D('',#370,#303,#304);
#245=AXIS2_PLACEMENT_3D('',#371,#305,#306);
#246=AXIS2_PLACEMENT_3D('',#373,#307,#308);
#247=AXIS2_PLACEMENT_3D('',#376,#310,#311);
#248=AXIS2_PLACEMENT_3D('',#377,#312,#313);
#249=AXIS2_PLACEMENT_3D('',#378,#314,#315);
#250=AXIS2_PLACEMENT_3D('',#379,#316,#317);
#251=AXIS2_PLACEMENT_3D('',#381,#318,#319);
#252=AXIS2_PLACEMENT_3D('',#383,#320,#321);
#253=AXIS2_PLACEMENT_3D('',#384,#322,#323);
#254=AXIS2_PLACEMENT_3D('',#386,#324,#325);
#255=AXIS2_PLACEMENT_3D('',#388,#327,#328);
#256=AXIS2_PLACEMENT_3D('',#391,#330,#331);
#257=AXIS2_PLACEMENT_3D('',#392,#332,#333);
#258=AXIS2_PLACEMENT_3D('',#393,#334,#335);
#259=DIRECTION('axis',(0.,0.,1.));
#260=DIRECTION('refdir',(1.,0.,0.));
#261=DIRECTION('center_axis',(0.,-6.12323399573677E-17,-1.));
#262=DIRECTION('ref_axis',(1.,0.,0.));
#263=DIRECTION('center_axis',(0.,-6.12323399573677E-17,-1.));
#264=DIRECTION('ref_axis',(1.,0.,0.));
#265=DIRECTION('',(0.,6.12323399573677E-17,1.));
#266=DIRECTION('center_axis',(0.,-6.12323399573677E-17,-1.));
#267=DIRECTION('ref_axis',(1.,0.,0.));
#268=DIRECTION('center_axis',(0.,6.12323399573677E-17,1.));
#269=DIRECTION('ref_axis',(0.,-1.,6.12323399573677E-17));
#270=DIRECTION('center_axis',(0.,-6.12323399573677E-17,-1.));
#271=DIRECTION('ref_axis',(1.,0.,0.));
#272=DIRECTION('center_axis',(0.,-6.12323399573677E-17,-1.));
#273=DIRECTION('ref_axis',(1.,0.,0.));
#274=DIRECTION('center_axis',(0.,-6.12323399573677E-17,-1.));
#275=DIRECTION('ref_axis',(1.,0.,0.));
#276=DIRECTION('',(0.,6.12323399573677E-17,1.));
#277=DIRECTION('center_axis',(0.,-6.12323399573677E-17,-1.));
#278=DIRECTION('ref_axis',(0.,1.,-6.12323399573677E-17));
#279=DIRECTION('center_axis',(0.,-6.12323399573677E-17,-1.));
#280=DIRECTION('ref_axis',(1.,0.,0.));
#281=DIRECTION('center_axis',(0.,-6.12323399573677E-17,-1.));
#282=DIRECTION('ref_axis',(1.,0.,0.));
#283=DIRECTION('',(0.,6.12323399573677E-17,1.));
#284=DIRECTION('center_axis',(0.,-6.12323399573677E-17,-1.));
#285=DIRECTION('ref_axis',(1.,0.,0.));
#286=DIRECTION('center_axis',(0.,-6.12323399573677E-17,-1.));
#287=DIRECTION('ref_axis',(1.,0.,0.));
#288=DIRECTION('center_axis',(0.,-6.12323399573677E-17,-1.));
#289=DIRECTION('ref_axis',(0.,1.,0.));
#290=DIRECTION('center_axis',(0.,-6.12323399573677E-17,-1.));
#291=DIRECTION('ref_axis',(1.,0.,0.));
#292=DIRECTION('center_axis',(-1.,0.,0.));
#293=DIRECTION('ref_axis',(0.,-1.,6.12323399573677E-17));
#294=DIRECTION('center_axis',(0.,-6.12323399573677E-17,-1.));
#295=DIRECTION('ref_axis',(0.,1.,-6.12323399573677E-17));
#296=DIRECTION('axis',(0.,0.,1.));
#297=DIRECTION('refdir',(1.,0.,0.));
#298=DIRECTION('center_axis',(0.,-1.22464679914735E-16,-1.));
#299=DIRECTION('ref_axis',(1.,0.,0.));
#300=DIRECTION('center_axis',(0.,-1.22464679914735E-16,-1.));
#301=DIRECTION('ref_axis',(1.,0.,0.));
#302=DIRECTION('',(0.,-1.22464679914735E-16,-1.));
#303=DIRECTION('center_axis',(0.,1.22464679914735E-16,1.));
#304=DIRECTION('ref_axis',(1.,0.,0.));
#305=DIRECTION('center_axis',(0.,-1.22464679914735E-16,-1.));
#306=DIRECTION('ref_axis',(1.,0.,0.));
#307=DIRECTION('center_axis',(0.,-1.22464679914735E-16,-1.));
#308=DIRECTION('ref_axis',(1.,0.,0.));
#309=DIRECTION('',(0.,1.22464679914735E-16,1.));
#310=DIRECTION('center_axis',(0.,1.22464679914735E-16,1.));
#311=DIRECTION('ref_axis',(1.,0.,0.));
#312=DIRECTION('center_axis',(0.,1.22464679914735E-16,1.));
#313=DIRECTION('ref_axis',(-1.,0.,0.));
#314=DIRECTION('center_axis',(0.,-1.22464679914735E-16,-1.));
#315=DIRECTION('ref_axis',(1.,0.,0.));
#316=DIRECTION('center_axis',(0.,-1.22464679914735E-16,-1.));
#317=DIRECTION('ref_axis',(1.,0.,0.));
#318=DIRECTION('center_axis',(0.,-1.22464679914735E-16,-1.));
#319=DIRECTION('ref_axis',(0.,1.,-1.22464679914735E-16));
#320=DIRECTION('center_axis',(0.,1.22464679914735E-16,1.));
#321=DIRECTION('ref_axis',(0.,1.,-1.22464679914735E-16));
#322=DIRECTION('center_axis',(0.,-1.22464679914735E-16,-1.));
#323=DIRECTION('ref_axis',(1.,0.,0.));
#324=DIRECTION('center_axis',(0.,-1.22464679914735E-16,-1.));
#325=DIRECTION('ref_axis',(1.,0.,0.));
#326=DIRECTION('',(0.,-1.22464679914735E-16,-1.));
#327=DIRECTION('center_axis',(0.,-1.22464679914735E-16,-1.));
#328=DIRECTION('ref_axis',(1.,0.,0.));
#329=DIRECTION('',(0.,1.22464679914735E-16,1.));
#330=DIRECTION('center_axis',(0.,1.22464679914735E-16,1.));
#331=DIRECTION('ref_axis',(1.,0.,0.));
#332=DIRECTION('center_axis',(0.,1.22464679914735E-16,1.));
#333=DIRECTION('ref_axis',(-1.,0.,0.));
#334=DIRECTION('',(0.,0.,1.));
#335=DIRECTION('',(1.,0.,0.));
#336=CARTESIAN_POINT('',(0.,0.,0.));
#337=CARTESIAN_POINT('Origin',(0.,5.67247885697374E-14,150.));
#338=CARTESIAN_POINT('',(-157.95,6.68832337686647E-14,0.));
#339=CARTESIAN_POINT('Origin',(0.,4.75399375761323E-14,0.));
#340=CARTESIAN_POINT('',(-157.95,8.52529357558751E-14,300.));
#341=CARTESIAN_POINT('',(-157.95,7.60680847622699E-14,150.));
#342=CARTESIAN_POINT('Origin',(0.,6.59096395633426E-14,300.));
#343=CARTESIAN_POINT('Origin',(161.95,6.59096395633426E-14,300.));
#344=CARTESIAN_POINT('',(-161.95,8.57427944755339E-14,300.));
#345=CARTESIAN_POINT('Origin',(0.,6.59096395633426E-14,300.));
#346=CARTESIAN_POINT('Origin',(0.,5.67247885697374E-14,150.));
#347=CARTESIAN_POINT('',(-161.95,6.73730924883236E-14,0.));
#348=CARTESIAN_POINT('Origin',(0.,4.75399375761323E-14,0.));
#349=CARTESIAN_POINT('',(-161.95,7.65579434819288E-14,150.));
#350=CARTESIAN_POINT('Origin',(157.95,4.75399375761323E-14,0.));
#351=CARTESIAN_POINT('Origin',(0.,5.70003340995456E-14,154.5));
#352=CARTESIAN_POINT('',(-161.95,7.66804081618435E-14,152.));
#353=CARTESIAN_POINT('Origin',(0.,5.68472532496521E-14,152.));
#354=CARTESIAN_POINT('',(-161.95,7.69865698616304E-14,157.));
#355=CARTESIAN_POINT('',(-161.95,7.68334890117369E-14,154.5));
#356=CARTESIAN_POINT('',(0.,-161.95,157.));
#357=CARTESIAN_POINT('Origin',(0.,5.7153414949439E-14,157.));
#358=CARTESIAN_POINT('Origin',(0.,5.7153414949439E-14,157.));
#359=CARTESIAN_POINT('Origin',(0.,5.68472532496521E-14,152.));
#360=CARTESIAN_POINT('',(0.,-166.95,152.));
#361=CARTESIAN_POINT('Origin',(0.,5.68472532496521E-14,152.));
#362=CARTESIAN_POINT('Origin',(0.,-161.95,152.));
#363=CARTESIAN_POINT('Origin',(161.95,5.68472532496521E-14,152.));
#364=CARTESIAN_POINT('',(0.,0.,0.));
#365=CARTESIAN_POINT('Origin',(0.,0.,150.));
#366=CARTESIAN_POINT('',(-163.5,2.02679045258887E-14,152.));
#367=CARTESIAN_POINT('Origin',(0.,2.44929359829471E-16,152.));
#368=CARTESIAN_POINT('',(-163.5,1.97780458062298E-14,148.));
#369=CARTESIAN_POINT('',(-163.5,2.00229751660592E-14,150.));
#370=CARTESIAN_POINT('Origin',(0.,-2.44929359829471E-16,148.));
#371=CARTESIAN_POINT('Origin',(0.,0.,150.));
#372=CARTESIAN_POINT('',(-210.,2.54726534222649E-14,148.));
#373=CARTESIAN_POINT('Origin',(0.,-2.44929359829471E-16,148.));
#374=CARTESIAN_POINT('',(-210.,2.59625121419239E-14,152.));
#375=CARTESIAN_POINT('',(-210.,2.57175827820944E-14,150.));
#376=CARTESIAN_POINT('Origin',(0.,2.44929359829471E-16,152.));
#377=CARTESIAN_POINT('Origin',(0.,2.44929359829471E-16,152.));
#378=CARTESIAN_POINT('Origin',(0.,-2.44929359829471E-16,148.));
#379=CARTESIAN_POINT('Origin',(-4.54747350886464E-13,-7.34788079488412E-16,
140.));
#380=CARTESIAN_POINT('',(-210.,2.4982794702606E-14,140.));
#381=CARTESIAN_POINT('Origin',(0.,-7.34788079488412E-16,140.));
#382=CARTESIAN_POINT('',(-163.5,1.92881870865708E-14,140.));
#383=CARTESIAN_POINT('Origin',(0.,-7.34788079488412E-16,140.));
#384=CARTESIAN_POINT('Origin',(0.,0.,146.));
#385=CARTESIAN_POINT('',(-163.5,2.02679045258887E-14,148.));
#386=CARTESIAN_POINT('Origin',(0.,2.44929359829471E-16,148.));
#387=CARTESIAN_POINT('',(-163.5,2.00229751660592E-14,146.));
#388=CARTESIAN_POINT('Origin',(0.,0.,146.));
#389=CARTESIAN_POINT('',(-210.,2.59625121419239E-14,148.));
#390=CARTESIAN_POINT('',(-210.,2.57175827820944E-14,146.));
#391=CARTESIAN_POINT('Origin',(0.,2.44929359829471E-16,148.));
#392=CARTESIAN_POINT('Origin',(0.,2.44929359829471E-16,148.));
#393=CARTESIAN_POINT('',(0.,0.,0.));
#394=UNCERTAINTY_MEASURE_WITH_UNIT(LENGTH_MEASURE(0.001),#400,
'DISTANCE_ACCURACY_VALUE',
'Maximum model space distance between geometric entities at asserted c
onnectivities');
#395=UNCERTAINTY_MEASURE_WITH_UNIT(LENGTH_MEASURE(0.001),#400,
'DISTANCE_ACCURACY_VALUE',
'Maximum model space distance between geometric entities at asserted c
onnectivities');
#396=UNCERTAINTY_MEASURE_WITH_UNIT(LENGTH_MEASURE(0.001),#400,
'DISTANCE_ACCURACY_VALUE',
'Maximum model space distance between geometric entities at asserted c
onnectivities');
#397=(
GEOMETRIC_REPRESENTATION_CONTEXT(3)
GLOBAL_UNCERTAINTY_ASSIGNED_CONTEXT((#394))
GLOBAL_UNIT_ASSIGNED_CONTEXT((#400,#401,#402))
REPRESENTATION_CONTEXT('','3D')
);
#398=(
GEOMETRIC_REPRESENTATION_CONTEXT(3)
GLOBAL_UNCERTAINTY_ASSIGNED_CONTEXT((#395))
GLOBAL_UNIT_ASSIGNED_CONTEXT((#400,#401,#402))
REPRESENTATION_CONTEXT('','3D')
);
#399=(
GEOMETRIC_REPRESENTATION_CONTEXT(3)
GLOBAL_UNCERTAINTY_ASSIGNED_CONTEXT((#396))
GLOBAL_UNIT_ASSIGNED_CONTEXT((#400,#401,#402))
REPRESENTATION_CONTEXT('','3D')
);
#400=(
LENGTH_UNIT()
NAMED_UNIT(*)
SI_UNIT(.CENTI.,.METRE.)
);
#401=(
NAMED_UNIT(*)
PLANE_ANGLE_UNIT()
SI_UNIT($,.RADIAN.)
);
#402=(
NAMED_UNIT(*)
SI_UNIT($,.STERADIAN.)
SOLID_ANGLE_UNIT()
);
#403=SHAPE_DEFINITION_REPRESENTATION(#405,#408);
#404=SHAPE_DEFINITION_REPRESENTATION(#406,#409);
#405=PRODUCT_DEFINITION_SHAPE('',$,#411);
#406=PRODUCT_DEFINITION_SHAPE('',$,#412);
#407=PRODUCT_DEFINITION_SHAPE($,$,#16);
#408=SHAPE_REPRESENTATION('',(#224,#258),#397);
#409=SHAPE_REPRESENTATION('',(#241),#398);
#410=PRODUCT_DEFINITION_CONTEXT('part definition',#418,'design');
#411=PRODUCT_DEFINITION('Product','Product',#413,#410);
#412=PRODUCT_DEFINITION('*S0','*S0',#414,#410);
#413=PRODUCT_DEFINITION_FORMATION('',$,#420);
#414=PRODUCT_DEFINITION_FORMATION('',$,#421);
#415=PRODUCT_RELATED_PRODUCT_CATEGORY('Product','Product',(#420));
#416=PRODUCT_RELATED_PRODUCT_CATEGORY('*S0','*S0',(#421));
#417=APPLICATION_PROTOCOL_DEFINITION('international standard',
'automotive_design',2009,#418);
#418=APPLICATION_CONTEXT(
'Core Data for Automotive Mechanical Design Process');
#419=PRODUCT_CONTEXT('part definition',#418,'mechanical');
#420=PRODUCT('Product','Product',$,(#419));
#421=PRODUCT('*S0','*S0',$,(#419));
#422=PRESENTATION_STYLE_ASSIGNMENT((#424));
#423=PRESENTATION_STYLE_ASSIGNMENT((#425));
#424=SURFACE_STYLE_USAGE(.BOTH.,#426);
#425=SURFACE_STYLE_USAGE(.BOTH.,#427);
#426=SURFACE_SIDE_STYLE('',(#428));
#427=SURFACE_SIDE_STYLE('',(#429));
#428=SURFACE_STYLE_FILL_AREA(#430);
#429=SURFACE_STYLE_FILL_AREA(#431);
#430=FILL_AREA_STYLE('',(#432));
#431=FILL_AREA_STYLE('',(#433));
#432=FILL_AREA_STYLE_COLOUR('',#434);
#433=FILL_AREA_STYLE_COLOUR('',#435);
#434=COLOUR_RGB('',0.749019607843137,0.749019607843137,0.749019607843137);
#435=COLOUR_RGB('',0.329411764705882,0.329411764705882,0.329411764705882);
ENDSEC;
END-ISO-10303-21;
