ISO-10303-21;
HEADER;
/* Generated by software containing ST-Developer
 * from STEP Tools, Inc. (www.steptools.com) 
 */

FILE_DESCRIPTION(
/* description */ (''),
/* implementation_level */ '2;1');

FILE_NAME(
/* name */ '08225.100C_3D.stp',
/* time_stamp */ '2024-12-11T14:20:25+01:00',
/* author */ ('CAD'),
/* organization */ (''),
/* preprocessor_version */ 'ST-DEVELOPER v20',
/* originating_system */ 'AutoCAD Mechanical',
/* authorisation */ '');

FILE_SCHEMA (('AUTOMOTIVE_DESIGN { 1 0 10303 214 3 1 1 }'));
ENDSEC;

DATA;
#10=MECHANICAL_DESIGN_GEOMETRIC_PRESENTATION_REPRESENTATION('',(#19,#20),
#511);
#11=PRESENTATION_LAYER_ASSIGNMENT('4','ROHR',(#21));
#12=PRESENTATION_LAYER_ASSIGNMENT('5','H\X\DCLSE',(#22));
#13=SHAPE_REPRESENTATION_RELATIONSHIP('SRR','None',#520,#14);
#14=ADVANCED_BREP_SHAPE_REPRESENTATION('',(#21,#22),#509);
#15=ITEM_DEFINED_TRANSFORMATION($,$,#277,#322);
#16=(
REPRESENTATION_RELATIONSHIP($,$,#521,#520)
REPRESENTATION_RELATIONSHIP_WITH_TRANSFORMATION(#15)
SHAPE_REPRESENTATION_RELATIONSHIP()
);
#17=CONTEXT_DEPENDENT_SHAPE_REPRESENTATION(#16,#519);
#18=NEXT_ASSEMBLY_USAGE_OCCURRENCE('B3C','B3C','B3C',#523,#524,'B3C');
#19=STYLED_ITEM('',(#534),#21);
#20=STYLED_ITEM('',(#534),#22);
#21=MANIFOLD_SOLID_BREP('211B',#274);
#22=MANIFOLD_SOLID_BREP('211E',#275);
#23=FACE_BOUND('',#76,.T.);
#24=FACE_BOUND('',#86,.T.);
#25=FACE_BOUND('',#89,.T.);
#26=PLANE('',#289);
#27=PLANE('',#314);
#28=PLANE('',#319);
#29=CYLINDRICAL_SURFACE('',#286,51.5000000000001);
#30=CYLINDRICAL_SURFACE('',#313,50.);
#31=CYLINDRICAL_SURFACE('',#317,64.0999999999999);
#32=CYLINDRICAL_SURFACE('',#321,70.6499999999999);
#33=LINE('',#441,#42);
#34=LINE('',#447,#43);
#35=LINE('',#453,#44);
#36=LINE('',#476,#45);
#37=LINE('',#479,#46);
#38=LINE('',#483,#47);
#39=LINE('',#490,#48);
#40=LINE('',#498,#49);
#41=LINE('',#504,#50);
#42=VECTOR('',#343,50.9788878563878);
#43=VECTOR('',#350,51.5000000000001);
#44=VECTOR('',#357,49.4760229782303);
#45=VECTOR('',#386,58.3390185727156);
#46=VECTOR('',#389,64.6464707516764);
#47=VECTOR('',#394,59.4319600760684);
#48=VECTOR('',#405,50.);
#49=VECTOR('',#414,64.0999999999999);
#50=VECTOR('',#423,70.6499999999999);
#51=CONICAL_SURFACE('',#284,50.9788878563878,0.0872664625997162);
#52=CONICAL_SURFACE('',#291,49.4760229782303,0.0872664625997134);
#53=CONICAL_SURFACE('',#304,58.3390185727155,0.754480183834402);
#54=CONICAL_SURFACE('',#306,64.6464707516764,0.816316142960491);
#55=CONICAL_SURFACE('',#308,59.4319600760684,0.754480183834405);
#56=FACE_OUTER_BOUND('',#72,.T.);
#57=FACE_OUTER_BOUND('',#73,.T.);
#58=FACE_OUTER_BOUND('',#74,.T.);
#59=FACE_OUTER_BOUND('',#75,.T.);
#60=FACE_OUTER_BOUND('',#77,.T.);
#61=FACE_OUTER_BOUND('',#78,.T.);
#62=FACE_OUTER_BOUND('',#79,.T.);
#63=FACE_OUTER_BOUND('',#80,.T.);
#64=FACE_OUTER_BOUND('',#81,.T.);
#65=FACE_OUTER_BOUND('',#82,.T.);
#66=FACE_OUTER_BOUND('',#83,.T.);
#67=FACE_OUTER_BOUND('',#84,.T.);
#68=FACE_OUTER_BOUND('',#85,.T.);
#69=FACE_OUTER_BOUND('',#87,.T.);
#70=FACE_OUTER_BOUND('',#88,.T.);
#71=FACE_OUTER_BOUND('',#90,.T.);
#72=EDGE_LOOP('',(#180,#181,#182,#183,#184,#185));
#73=EDGE_LOOP('',(#186,#187,#188,#189,#190));
#74=EDGE_LOOP('',(#191,#192,#193,#194,#195,#196));
#75=EDGE_LOOP('',(#197));
#76=EDGE_LOOP('',(#198));
#77=EDGE_LOOP('',(#199,#200,#201,#202,#203));
#78=EDGE_LOOP('',(#204,#205,#206,#207,#208,#209));
#79=EDGE_LOOP('',(#210,#211,#212,#213,#214,#215));
#80=EDGE_LOOP('',(#216,#217,#218,#219,#220));
#81=EDGE_LOOP('',(#221,#222,#223,#224));
#82=EDGE_LOOP('',(#225,#226,#227,#228,#229));
#83=EDGE_LOOP('',(#230,#231,#232,#233,#234,#235));
#84=EDGE_LOOP('',(#236,#237,#238,#239,#240,#241));
#85=EDGE_LOOP('',(#242));
#86=EDGE_LOOP('',(#243));
#87=EDGE_LOOP('',(#244,#245,#246,#247));
#88=EDGE_LOOP('',(#248));
#89=EDGE_LOOP('',(#249));
#90=EDGE_LOOP('',(#250,#251,#252,#253));
#91=CIRCLE('',#279,51.4448231223304);
#92=CIRCLE('',#280,51.4448231223304);
#93=CIRCLE('',#281,14.5);
#94=CIRCLE('',#282,51.5000000000001);
#95=CIRCLE('',#283,51.5000000000001);
#96=CIRCLE('',#285,50.4577757127756);
#97=CIRCLE('',#287,51.5000000000001);
#98=CIRCLE('',#288,51.5000000000001);
#99=CIRCLE('',#290,48.9520459564607);
#100=CIRCLE('',#292,49.9619469809174);
#101=CIRCLE('',#293,49.9619469809174);
#102=CIRCLE('',#295,10.);
#103=CIRCLE('',#296,50.);
#104=CIRCLE('',#297,50.);
#105=CIRCLE('',#299,50.0000000000001);
#106=CIRCLE('',#300,9.49999999999977);
#107=CIRCLE('',#301,52.5780371454312);
#108=CIRCLE('',#302,52.5780371454312);
#109=CIRCLE('',#303,50.0000000000001);
#110=CIRCLE('',#305,64.0999999999999);
#111=CIRCLE('',#307,65.1929415033529);
#112=CIRCLE('',#309,53.6709786487841);
#113=CIRCLE('',#310,53.6709786487841);
#114=CIRCLE('',#312,8.00000000000032);
#115=CIRCLE('',#315,70.6499999999999);
#116=CIRCLE('',#316,64.0999999999999);
#117=CIRCLE('',#318,64.0999999999999);
#118=CIRCLE('',#320,70.6499999999999);
#119=VERTEX_POINT('',#429);
#120=VERTEX_POINT('',#430);
#121=VERTEX_POINT('',#433);
#122=VERTEX_POINT('',#435);
#123=VERTEX_POINT('',#439);
#124=VERTEX_POINT('',#443);
#125=VERTEX_POINT('',#444);
#126=VERTEX_POINT('',#449);
#127=VERTEX_POINT('',#452);
#128=VERTEX_POINT('',#454);
#129=VERTEX_POINT('',#458);
#130=VERTEX_POINT('',#460);
#131=VERTEX_POINT('',#464);
#132=VERTEX_POINT('',#465);
#133=VERTEX_POINT('',#467);
#134=VERTEX_POINT('',#469);
#135=VERTEX_POINT('',#474);
#136=VERTEX_POINT('',#478);
#137=VERTEX_POINT('',#482);
#138=VERTEX_POINT('',#484);
#139=VERTEX_POINT('',#492);
#140=VERTEX_POINT('',#494);
#141=VERTEX_POINT('',#497);
#142=VERTEX_POINT('',#501);
#143=EDGE_CURVE('',#119,#120,#91,.T.);
#144=EDGE_CURVE('',#120,#119,#92,.T.);
#145=EDGE_CURVE('',#119,#121,#93,.T.);
#146=EDGE_CURVE('',#121,#122,#94,.T.);
#147=EDGE_CURVE('',#122,#121,#95,.T.);
#148=EDGE_CURVE('',#123,#123,#96,.T.);
#149=EDGE_CURVE('',#123,#120,#33,.T.);
#150=EDGE_CURVE('',#124,#125,#97,.T.);
#151=EDGE_CURVE('',#125,#124,#98,.T.);
#152=EDGE_CURVE('',#124,#122,#34,.T.);
#153=EDGE_CURVE('',#126,#126,#99,.T.);
#154=EDGE_CURVE('',#126,#127,#35,.T.);
#155=EDGE_CURVE('',#128,#127,#100,.T.);
#156=EDGE_CURVE('',#127,#128,#101,.T.);
#157=EDGE_CURVE('',#128,#129,#102,.T.);
#158=EDGE_CURVE('',#129,#130,#103,.T.);
#159=EDGE_CURVE('',#130,#129,#104,.T.);
#160=EDGE_CURVE('',#131,#132,#105,.T.);
#161=EDGE_CURVE('',#132,#133,#106,.T.);
#162=EDGE_CURVE('',#134,#133,#107,.T.);
#163=EDGE_CURVE('',#133,#134,#108,.T.);
#164=EDGE_CURVE('',#132,#131,#109,.T.);
#165=EDGE_CURVE('',#135,#135,#110,.T.);
#166=EDGE_CURVE('',#135,#134,#36,.T.);
#167=EDGE_CURVE('',#135,#136,#37,.T.);
#168=EDGE_CURVE('',#136,#136,#111,.T.);
#169=EDGE_CURVE('',#136,#137,#38,.T.);
#170=EDGE_CURVE('',#138,#137,#112,.T.);
#171=EDGE_CURVE('',#137,#138,#113,.T.);
#172=EDGE_CURVE('',#125,#138,#114,.T.);
#173=EDGE_CURVE('',#131,#130,#39,.T.);
#174=EDGE_CURVE('',#139,#139,#115,.T.);
#175=EDGE_CURVE('',#140,#140,#116,.T.);
#176=EDGE_CURVE('',#140,#141,#40,.T.);
#177=EDGE_CURVE('',#141,#141,#117,.T.);
#178=EDGE_CURVE('',#142,#142,#118,.T.);
#179=EDGE_CURVE('',#139,#142,#41,.T.);
#180=ORIENTED_EDGE('',*,*,#143,.T.);
#181=ORIENTED_EDGE('',*,*,#144,.T.);
#182=ORIENTED_EDGE('',*,*,#145,.T.);
#183=ORIENTED_EDGE('',*,*,#146,.T.);
#184=ORIENTED_EDGE('',*,*,#147,.T.);
#185=ORIENTED_EDGE('',*,*,#145,.F.);
#186=ORIENTED_EDGE('',*,*,#148,.F.);
#187=ORIENTED_EDGE('',*,*,#149,.T.);
#188=ORIENTED_EDGE('',*,*,#143,.F.);
#189=ORIENTED_EDGE('',*,*,#144,.F.);
#190=ORIENTED_EDGE('',*,*,#149,.F.);
#191=ORIENTED_EDGE('',*,*,#150,.T.);
#192=ORIENTED_EDGE('',*,*,#151,.T.);
#193=ORIENTED_EDGE('',*,*,#152,.T.);
#194=ORIENTED_EDGE('',*,*,#146,.F.);
#195=ORIENTED_EDGE('',*,*,#147,.F.);
#196=ORIENTED_EDGE('',*,*,#152,.F.);
#197=ORIENTED_EDGE('',*,*,#148,.T.);
#198=ORIENTED_EDGE('',*,*,#153,.F.);
#199=ORIENTED_EDGE('',*,*,#153,.T.);
#200=ORIENTED_EDGE('',*,*,#154,.T.);
#201=ORIENTED_EDGE('',*,*,#155,.F.);
#202=ORIENTED_EDGE('',*,*,#156,.F.);
#203=ORIENTED_EDGE('',*,*,#154,.F.);
#204=ORIENTED_EDGE('',*,*,#156,.T.);
#205=ORIENTED_EDGE('',*,*,#157,.T.);
#206=ORIENTED_EDGE('',*,*,#158,.T.);
#207=ORIENTED_EDGE('',*,*,#159,.T.);
#208=ORIENTED_EDGE('',*,*,#157,.F.);
#209=ORIENTED_EDGE('',*,*,#155,.T.);
#210=ORIENTED_EDGE('',*,*,#160,.T.);
#211=ORIENTED_EDGE('',*,*,#161,.T.);
#212=ORIENTED_EDGE('',*,*,#162,.F.);
#213=ORIENTED_EDGE('',*,*,#163,.F.);
#214=ORIENTED_EDGE('',*,*,#161,.F.);
#215=ORIENTED_EDGE('',*,*,#164,.T.);
#216=ORIENTED_EDGE('',*,*,#165,.F.);
#217=ORIENTED_EDGE('',*,*,#166,.T.);
#218=ORIENTED_EDGE('',*,*,#162,.T.);
#219=ORIENTED_EDGE('',*,*,#163,.T.);
#220=ORIENTED_EDGE('',*,*,#166,.F.);
#221=ORIENTED_EDGE('',*,*,#165,.T.);
#222=ORIENTED_EDGE('',*,*,#167,.T.);
#223=ORIENTED_EDGE('',*,*,#168,.F.);
#224=ORIENTED_EDGE('',*,*,#167,.F.);
#225=ORIENTED_EDGE('',*,*,#168,.T.);
#226=ORIENTED_EDGE('',*,*,#169,.T.);
#227=ORIENTED_EDGE('',*,*,#170,.F.);
#228=ORIENTED_EDGE('',*,*,#171,.F.);
#229=ORIENTED_EDGE('',*,*,#169,.F.);
#230=ORIENTED_EDGE('',*,*,#150,.F.);
#231=ORIENTED_EDGE('',*,*,#151,.F.);
#232=ORIENTED_EDGE('',*,*,#172,.T.);
#233=ORIENTED_EDGE('',*,*,#170,.T.);
#234=ORIENTED_EDGE('',*,*,#171,.T.);
#235=ORIENTED_EDGE('',*,*,#172,.F.);
#236=ORIENTED_EDGE('',*,*,#160,.F.);
#237=ORIENTED_EDGE('',*,*,#173,.T.);
#238=ORIENTED_EDGE('',*,*,#158,.F.);
#239=ORIENTED_EDGE('',*,*,#159,.F.);
#240=ORIENTED_EDGE('',*,*,#173,.F.);
#241=ORIENTED_EDGE('',*,*,#164,.F.);
#242=ORIENTED_EDGE('',*,*,#174,.T.);
#243=ORIENTED_EDGE('',*,*,#175,.F.);
#244=ORIENTED_EDGE('',*,*,#175,.T.);
#245=ORIENTED_EDGE('',*,*,#176,.T.);
#246=ORIENTED_EDGE('',*,*,#177,.F.);
#247=ORIENTED_EDGE('',*,*,#176,.F.);
#248=ORIENTED_EDGE('',*,*,#178,.F.);
#249=ORIENTED_EDGE('',*,*,#177,.T.);
#250=ORIENTED_EDGE('',*,*,#174,.F.);
#251=ORIENTED_EDGE('',*,*,#179,.T.);
#252=ORIENTED_EDGE('',*,*,#178,.T.);
#253=ORIENTED_EDGE('',*,*,#179,.F.);
#254=TOROIDAL_SURFACE('',#278,37.0000000000001,14.5);
#255=TOROIDAL_SURFACE('',#294,40.,10.);
#256=TOROIDAL_SURFACE('',#298,59.4999999999999,9.49999999999977);
#257=TOROIDAL_SURFACE('',#311,59.5000000000005,8.00000000000032);
#258=ADVANCED_FACE('',(#56),#254,.T.);
#259=ADVANCED_FACE('',(#57),#51,.T.);
#260=ADVANCED_FACE('',(#58),#29,.T.);
#261=ADVANCED_FACE('',(#59,#23),#26,.T.);
#262=ADVANCED_FACE('',(#60),#52,.F.);
#263=ADVANCED_FACE('',(#61),#255,.F.);
#264=ADVANCED_FACE('',(#62),#256,.T.);
#265=ADVANCED_FACE('',(#63),#53,.F.);
#266=ADVANCED_FACE('',(#64),#54,.T.);
#267=ADVANCED_FACE('',(#65),#55,.T.);
#268=ADVANCED_FACE('',(#66),#257,.F.);
#269=ADVANCED_FACE('',(#67),#30,.F.);
#270=ADVANCED_FACE('',(#68,#24),#27,.T.);
#271=ADVANCED_FACE('',(#69),#31,.F.);
#272=ADVANCED_FACE('',(#70,#25),#28,.T.);
#273=ADVANCED_FACE('',(#71),#32,.T.);
#274=CLOSED_SHELL('',(#258,#259,#260,#261,#262,#263,#264,#265,#266,#267,
#268,#269));
#275=CLOSED_SHELL('',(#270,#271,#272,#273));
#276=AXIS2_PLACEMENT_3D('',#426,#323,#324);
#277=AXIS2_PLACEMENT_3D('',#427,#325,#326);
#278=AXIS2_PLACEMENT_3D('',#428,#327,#328);
#279=AXIS2_PLACEMENT_3D('',#431,#329,#330);
#280=AXIS2_PLACEMENT_3D('',#432,#331,#332);
#281=AXIS2_PLACEMENT_3D('',#434,#333,#334);
#282=AXIS2_PLACEMENT_3D('',#436,#335,#336);
#283=AXIS2_PLACEMENT_3D('',#437,#337,#338);
#284=AXIS2_PLACEMENT_3D('',#438,#339,#340);
#285=AXIS2_PLACEMENT_3D('',#440,#341,#342);
#286=AXIS2_PLACEMENT_3D('',#442,#344,#345);
#287=AXIS2_PLACEMENT_3D('',#445,#346,#347);
#288=AXIS2_PLACEMENT_3D('',#446,#348,#349);
#289=AXIS2_PLACEMENT_3D('',#448,#351,#352);
#290=AXIS2_PLACEMENT_3D('',#450,#353,#354);
#291=AXIS2_PLACEMENT_3D('',#451,#355,#356);
#292=AXIS2_PLACEMENT_3D('',#455,#358,#359);
#293=AXIS2_PLACEMENT_3D('',#456,#360,#361);
#294=AXIS2_PLACEMENT_3D('',#457,#362,#363);
#295=AXIS2_PLACEMENT_3D('',#459,#364,#365);
#296=AXIS2_PLACEMENT_3D('',#461,#366,#367);
#297=AXIS2_PLACEMENT_3D('',#462,#368,#369);
#298=AXIS2_PLACEMENT_3D('',#463,#370,#371);
#299=AXIS2_PLACEMENT_3D('',#466,#372,#373);
#300=AXIS2_PLACEMENT_3D('',#468,#374,#375);
#301=AXIS2_PLACEMENT_3D('',#470,#376,#377);
#302=AXIS2_PLACEMENT_3D('',#471,#378,#379);
#303=AXIS2_PLACEMENT_3D('',#472,#380,#381);
#304=AXIS2_PLACEMENT_3D('',#473,#382,#383);
#305=AXIS2_PLACEMENT_3D('',#475,#384,#385);
#306=AXIS2_PLACEMENT_3D('',#477,#387,#388);
#307=AXIS2_PLACEMENT_3D('',#480,#390,#391);
#308=AXIS2_PLACEMENT_3D('',#481,#392,#393);
#309=AXIS2_PLACEMENT_3D('',#485,#395,#396);
#310=AXIS2_PLACEMENT_3D('',#486,#397,#398);
#311=AXIS2_PLACEMENT_3D('',#487,#399,#400);
#312=AXIS2_PLACEMENT_3D('',#488,#401,#402);
#313=AXIS2_PLACEMENT_3D('',#489,#403,#404);
#314=AXIS2_PLACEMENT_3D('',#491,#406,#407);
#315=AXIS2_PLACEMENT_3D('',#493,#408,#409);
#316=AXIS2_PLACEMENT_3D('',#495,#410,#411);
#317=AXIS2_PLACEMENT_3D('',#496,#412,#413);
#318=AXIS2_PLACEMENT_3D('',#499,#415,#416);
#319=AXIS2_PLACEMENT_3D('',#500,#417,#418);
#320=AXIS2_PLACEMENT_3D('',#502,#419,#420);
#321=AXIS2_PLACEMENT_3D('',#503,#421,#422);
#322=AXIS2_PLACEMENT_3D('',#505,#424,#425);
#323=DIRECTION('axis',(0.,0.,1.));
#324=DIRECTION('refdir',(1.,0.,0.));
#325=DIRECTION('axis',(0.,0.,1.));
#326=DIRECTION('refdir',(1.,0.,0.));
#327=DIRECTION('center_axis',(0.,0.,-1.));
#328=DIRECTION('ref_axis',(0.,1.,0.));
#329=DIRECTION('center_axis',(0.,0.,1.));
#330=DIRECTION('ref_axis',(-1.,-5.52469766740575E-16,0.));
#331=DIRECTION('center_axis',(0.,0.,1.));
#332=DIRECTION('ref_axis',(-1.,-5.52469766740575E-16,0.));
#333=DIRECTION('center_axis',(-1.,0.,0.));
#334=DIRECTION('ref_axis',(0.,-1.,0.));
#335=DIRECTION('center_axis',(0.,0.,-1.));
#336=DIRECTION('ref_axis',(-1.,-5.51877853017554E-16,0.));
#337=DIRECTION('center_axis',(0.,0.,-1.));
#338=DIRECTION('ref_axis',(-1.,-5.51877853017554E-16,0.));
#339=DIRECTION('center_axis',(0.,0.,1.));
#340=DIRECTION('ref_axis',(1.,0.,0.));
#341=DIRECTION('center_axis',(0.,0.,-1.));
#342=DIRECTION('ref_axis',(1.,0.,0.));
#343=DIRECTION('',(-0.0871557427476579,1.06735001383229E-17,0.996194698091746));
#344=DIRECTION('center_axis',(0.,0.,-1.));
#345=DIRECTION('ref_axis',(1.,0.,0.));
#346=DIRECTION('center_axis',(0.,0.,-1.));
#347=DIRECTION('ref_axis',(1.,0.,0.));
#348=DIRECTION('center_axis',(0.,0.,-1.));
#349=DIRECTION('ref_axis',(1.,0.,0.));
#350=DIRECTION('',(0.,0.,-1.));
#351=DIRECTION('center_axis',(0.,0.,-1.));
#352=DIRECTION('ref_axis',(0.,1.,0.));
#353=DIRECTION('center_axis',(0.,0.,-1.));
#354=DIRECTION('ref_axis',(1.,0.,0.));
#355=DIRECTION('center_axis',(0.,0.,1.));
#356=DIRECTION('ref_axis',(1.,0.,0.));
#357=DIRECTION('',(-0.0871557427476551,1.06735001383226E-17,0.996194698091746));
#358=DIRECTION('center_axis',(0.,0.,-1.));
#359=DIRECTION('ref_axis',(-1.,2.28758497998061E-16,0.));
#360=DIRECTION('center_axis',(0.,0.,-1.));
#361=DIRECTION('ref_axis',(-1.,2.28758497998061E-16,0.));
#362=DIRECTION('center_axis',(0.,0.,-1.));
#363=DIRECTION('ref_axis',(0.,1.,0.));
#364=DIRECTION('center_axis',(-1.,0.,0.));
#365=DIRECTION('ref_axis',(0.,-1.,0.));
#366=DIRECTION('center_axis',(0.,0.,1.));
#367=DIRECTION('ref_axis',(-1.,8.08762071946524E-17,0.));
#368=DIRECTION('center_axis',(0.,0.,1.));
#369=DIRECTION('ref_axis',(-1.,8.08762071946524E-17,0.));
#370=DIRECTION('center_axis',(0.,0.,1.));
#371=DIRECTION('ref_axis',(0.,1.,0.));
#372=DIRECTION('center_axis',(0.,0.,-1.));
#373=DIRECTION('ref_axis',(1.,0.,0.));
#374=DIRECTION('center_axis',(1.,0.,0.));
#375=DIRECTION('ref_axis',(0.,-1.,0.));
#376=DIRECTION('center_axis',(0.,0.,-1.));
#377=DIRECTION('ref_axis',(1.,0.,0.));
#378=DIRECTION('center_axis',(0.,0.,-1.));
#379=DIRECTION('ref_axis',(1.,0.,0.));
#380=DIRECTION('center_axis',(0.,0.,-1.));
#381=DIRECTION('ref_axis',(1.,0.,0.));
#382=DIRECTION('center_axis',(0.,0.,1.));
#383=DIRECTION('ref_axis',(1.,0.,0.));
#384=DIRECTION('center_axis',(0.,0.,-1.));
#385=DIRECTION('ref_axis',(1.,0.,0.));
#386=DIRECTION('',(0.684910008767884,-8.38772849941575E-17,-0.72862766890201));
#387=DIRECTION('center_axis',(0.,0.,-1.));
#388=DIRECTION('ref_axis',(1.,0.,0.));
#389=DIRECTION('',(-0.728627668902007,8.92311542491041E-17,-0.684910008767887));
#390=DIRECTION('center_axis',(0.,0.,-1.));
#391=DIRECTION('ref_axis',(1.,0.,0.));
#392=DIRECTION('center_axis',(0.,0.,1.));
#393=DIRECTION('ref_axis',(1.,0.,0.));
#394=DIRECTION('',(0.684910008767886,-8.38772849941577E-17,-0.728627668902008));
#395=DIRECTION('center_axis',(0.,0.,-1.));
#396=DIRECTION('ref_axis',(1.,0.,0.));
#397=DIRECTION('center_axis',(0.,0.,-1.));
#398=DIRECTION('ref_axis',(1.,0.,0.));
#399=DIRECTION('center_axis',(0.,0.,1.));
#400=DIRECTION('ref_axis',(0.,1.,0.));
#401=DIRECTION('center_axis',(1.,0.,0.));
#402=DIRECTION('ref_axis',(0.,-1.,0.));
#403=DIRECTION('center_axis',(0.,0.,-1.));
#404=DIRECTION('ref_axis',(1.,0.,0.));
#405=DIRECTION('',(0.,0.,-1.));
#406=DIRECTION('center_axis',(0.,0.,-1.));
#407=DIRECTION('ref_axis',(0.,1.,0.));
#408=DIRECTION('center_axis',(0.,0.,-1.));
#409=DIRECTION('ref_axis',(1.,0.,0.));
#410=DIRECTION('center_axis',(0.,0.,-1.));
#411=DIRECTION('ref_axis',(1.,0.,0.));
#412=DIRECTION('center_axis',(0.,0.,-1.));
#413=DIRECTION('ref_axis',(1.,0.,0.));
#414=DIRECTION('',(0.,0.,1.));
#415=DIRECTION('center_axis',(0.,0.,-1.));
#416=DIRECTION('ref_axis',(1.,0.,0.));
#417=DIRECTION('center_axis',(0.,0.,1.));
#418=DIRECTION('ref_axis',(0.,-1.,0.));
#419=DIRECTION('center_axis',(0.,0.,-1.));
#420=DIRECTION('ref_axis',(1.,0.,0.));
#421=DIRECTION('center_axis',(0.,0.,-1.));
#422=DIRECTION('ref_axis',(1.,0.,0.));
#423=DIRECTION('',(0.,0.,1.));
#424=DIRECTION('',(0.,0.,1.));
#425=DIRECTION('',(1.,0.,0.));
#426=CARTESIAN_POINT('',(0.,0.,0.));
#427=CARTESIAN_POINT('',(0.,0.,0.));
#428=CARTESIAN_POINT('Origin',(129.797305419129,97.193933037028,-272.489306468731));
#429=CARTESIAN_POINT('',(129.797305419129,45.7491099146976,-273.753064738572));
#430=CARTESIAN_POINT('',(78.3524822967985,97.193933037028,-273.753064738572));
#431=CARTESIAN_POINT('Origin',(129.797305419129,97.193933037028,-273.753064738572));
#432=CARTESIAN_POINT('Origin',(129.797305419129,97.193933037028,-273.753064738572));
#433=CARTESIAN_POINT('',(129.797305419129,45.6939330370279,-272.489306468731));
#434=CARTESIAN_POINT('Origin',(129.797305419129,60.1939330370279,-272.489306468731));
#435=CARTESIAN_POINT('',(78.2973054191287,97.193933037028,-272.489306468731));
#436=CARTESIAN_POINT('Origin',(129.797305419129,97.193933037028,-272.489306468731));
#437=CARTESIAN_POINT('Origin',(129.797305419129,97.193933037028,-272.489306468731));
#438=CARTESIAN_POINT('Origin',(129.797305419129,97.193933037028,-279.078729197997));
#439=CARTESIAN_POINT('',(79.3395297063532,97.193933037028,-285.035068255088));
#440=CARTESIAN_POINT('Origin',(129.797305419129,97.193933037028,-285.035068255088));
#441=CARTESIAN_POINT('',(78.818417562741,97.193933037028,-279.078729197997));
#442=CARTESIAN_POINT('Origin',(129.797305419129,97.193933037028,-176.812432694168));
#443=CARTESIAN_POINT('',(78.2973054191287,97.193933037028,-168.799120630478));
#444=CARTESIAN_POINT('',(129.797305419129,45.6939330370279,-168.799120630478));
#445=CARTESIAN_POINT('Origin',(129.797305419129,97.193933037028,-168.799120630478));
#446=CARTESIAN_POINT('Origin',(129.797305419129,97.193933037028,-168.799120630478));
#447=CARTESIAN_POINT('',(78.2973054191287,97.193933037028,-176.812432694168));
#448=CARTESIAN_POINT('Origin',(178.74935137559,97.193933037028,-285.035068255088));
#449=CARTESIAN_POINT('',(80.8452594626682,97.193933037028,-285.035068255088));
#450=CARTESIAN_POINT('Origin',(129.797305419129,97.193933037028,-285.035068255088));
#451=CARTESIAN_POINT('Origin',(129.797305419129,97.193933037028,-279.045983490816));
#452=CARTESIAN_POINT('',(79.8353584382114,97.193933037028,-273.491846724934));
#453=CARTESIAN_POINT('',(80.3212824408986,97.193933037028,-279.045983490816));
#454=CARTESIAN_POINT('',(129.797305419129,47.2319860561105,-273.491846724934));
#455=CARTESIAN_POINT('Origin',(129.797305419129,97.193933037028,-273.491846724934));
#456=CARTESIAN_POINT('Origin',(129.797305419129,97.193933037028,-273.491846724934));
#457=CARTESIAN_POINT('Origin',(129.797305419129,97.193933037028,-272.620289297457));
#458=CARTESIAN_POINT('',(129.797305419129,47.193933037028,-272.620289297457));
#459=CARTESIAN_POINT('Origin',(129.797305419129,57.193933037028,-272.620289297457));
#460=CARTESIAN_POINT('',(79.7973054191289,97.193933037028,-272.620289297457));
#461=CARTESIAN_POINT('Origin',(129.797305419129,97.193933037028,-272.620289297457));
#462=CARTESIAN_POINT('Origin',(129.797305419129,97.193933037028,-272.620289297457));
#463=CARTESIAN_POINT('Origin',(129.797305419129,97.193933037028,-168.799120630477));
#464=CARTESIAN_POINT('',(79.7973054191289,97.193933037028,-168.799120630478));
#465=CARTESIAN_POINT('',(129.797305419129,47.1939330370279,-168.799120630477));
#466=CARTESIAN_POINT('Origin',(129.797305419129,97.193933037028,-168.799120630478));
#467=CARTESIAN_POINT('',(129.797305419129,44.6158958915969,-162.292475547183));
#468=CARTESIAN_POINT('Origin',(129.797305419129,37.6939330370281,-168.799120630477));
#469=CARTESIAN_POINT('',(77.2192682736977,97.193933037028,-162.292475547183));
#470=CARTESIAN_POINT('Origin',(129.797305419129,97.193933037028,-162.292475547183));
#471=CARTESIAN_POINT('Origin',(129.797305419129,97.193933037028,-162.292475547183));
#472=CARTESIAN_POINT('Origin',(129.797305419129,97.193933037028,-168.799120630478));
#473=CARTESIAN_POINT('Origin',(129.797305419129,97.193933037028,-156.163771901135));
#474=CARTESIAN_POINT('',(65.697305419129,97.193933037028,-150.035068255088));
#475=CARTESIAN_POINT('Origin',(129.797305419129,97.193933037028,-150.035068255088));
#476=CARTESIAN_POINT('',(71.4582868464133,97.193933037028,-156.163771901135));
#477=CARTESIAN_POINT('Origin',(129.797305419129,97.193933037028,-150.548750761664));
#478=CARTESIAN_POINT('',(64.6043639157759,97.193933037028,-151.06243326824));
#479=CARTESIAN_POINT('',(65.1508346674525,97.193933037028,-150.548750761664));
#480=CARTESIAN_POINT('Origin',(129.797305419129,97.193933037028,-151.06243326824));
#481=CARTESIAN_POINT('Origin',(129.797305419129,97.193933037028,-157.191136914287));
#482=CARTESIAN_POINT('',(76.1263267703448,97.193933037028,-163.319840560334));
#483=CARTESIAN_POINT('',(70.3653453430604,97.193933037028,-157.191136914287));
#484=CARTESIAN_POINT('',(129.797305419129,43.522954388244,-163.319840560334));
#485=CARTESIAN_POINT('Origin',(129.797305419129,97.193933037028,-163.319840560334));
#486=CARTESIAN_POINT('Origin',(129.797305419129,97.193933037028,-163.319840560334));
#487=CARTESIAN_POINT('Origin',(129.797305419129,97.193933037028,-168.799120630478));
#488=CARTESIAN_POINT('Origin',(129.797305419129,37.6939330370276,-168.799120630478));
#489=CARTESIAN_POINT('Origin',(129.797305419129,97.193933037028,-176.80862639733));
#490=CARTESIAN_POINT('',(79.7973054191289,97.193933037028,-176.80862639733));
#491=CARTESIAN_POINT('Origin',(193.897305419129,97.193933037028,-150.035068255088));
#492=CARTESIAN_POINT('',(59.147305419129,97.193933037028,-150.035068255088));
#493=CARTESIAN_POINT('Origin',(129.797305419129,97.193933037028,-150.035068255088));
#494=CARTESIAN_POINT('',(65.697305419129,97.193933037028,-150.035068255088));
#495=CARTESIAN_POINT('Origin',(129.797305419129,97.193933037028,-150.035068255088));
#496=CARTESIAN_POINT('Origin',(129.797305419129,97.193933037028,-100.035068255088));
#497=CARTESIAN_POINT('',(65.697305419129,97.193933037028,-50.0350682550879));
#498=CARTESIAN_POINT('',(65.697305419129,97.193933037028,-100.035068255088));
#499=CARTESIAN_POINT('Origin',(129.797305419129,97.193933037028,-50.0350682550879));
#500=CARTESIAN_POINT('Origin',(200.447305419129,97.193933037028,-50.0350682550879));
#501=CARTESIAN_POINT('',(59.147305419129,97.193933037028,-50.0350682550879));
#502=CARTESIAN_POINT('Origin',(129.797305419129,97.193933037028,-50.0350682550879));
#503=CARTESIAN_POINT('Origin',(129.797305419129,97.193933037028,-100.035068255088));
#504=CARTESIAN_POINT('',(59.147305419129,97.193933037028,-100.035068255088));
#505=CARTESIAN_POINT('',(0.,0.,0.));
#506=UNCERTAINTY_MEASURE_WITH_UNIT(LENGTH_MEASURE(0.001),#512,
'DISTANCE_ACCURACY_VALUE',
'Maximum model space distance between geometric entities at asserted c
onnectivities');
#507=UNCERTAINTY_MEASURE_WITH_UNIT(LENGTH_MEASURE(0.001),#512,
'DISTANCE_ACCURACY_VALUE',
'Maximum model space distance between geometric entities at asserted c
onnectivities');
#508=UNCERTAINTY_MEASURE_WITH_UNIT(LENGTH_MEASURE(0.001),#512,
'DISTANCE_ACCURACY_VALUE',
'Maximum model space distance between geometric entities at asserted c
onnectivities');
#509=(
GEOMETRIC_REPRESENTATION_CONTEXT(3)
GLOBAL_UNCERTAINTY_ASSIGNED_CONTEXT((#506))
GLOBAL_UNIT_ASSIGNED_CONTEXT((#512,#513,#514))
REPRESENTATION_CONTEXT('','3D')
);
#510=(
GEOMETRIC_REPRESENTATION_CONTEXT(3)
GLOBAL_UNCERTAINTY_ASSIGNED_CONTEXT((#507))
GLOBAL_UNIT_ASSIGNED_CONTEXT((#512,#513,#514))
REPRESENTATION_CONTEXT('','3D')
);
#511=(
GEOMETRIC_REPRESENTATION_CONTEXT(3)
GLOBAL_UNCERTAINTY_ASSIGNED_CONTEXT((#508))
GLOBAL_UNIT_ASSIGNED_CONTEXT((#512,#513,#514))
REPRESENTATION_CONTEXT('','3D')
);
#512=(
LENGTH_UNIT()
NAMED_UNIT(*)
SI_UNIT(.CENTI.,.METRE.)
);
#513=(
NAMED_UNIT(*)
PLANE_ANGLE_UNIT()
SI_UNIT($,.RADIAN.)
);
#514=(
NAMED_UNIT(*)
SI_UNIT($,.STERADIAN.)
SOLID_ANGLE_UNIT()
);
#515=SHAPE_DEFINITION_REPRESENTATION(#517,#520);
#516=SHAPE_DEFINITION_REPRESENTATION(#518,#521);
#517=PRODUCT_DEFINITION_SHAPE('',$,#523);
#518=PRODUCT_DEFINITION_SHAPE('',$,#524);
#519=PRODUCT_DEFINITION_SHAPE($,$,#18);
#520=SHAPE_REPRESENTATION('',(#276,#322),#509);
#521=SHAPE_REPRESENTATION('',(#277),#510);
#522=PRODUCT_DEFINITION_CONTEXT('part definition',#530,'design');
#523=PRODUCT_DEFINITION('Product','Product',#525,#522);
#524=PRODUCT_DEFINITION('*S0','*S0',#526,#522);
#525=PRODUCT_DEFINITION_FORMATION('',$,#532);
#526=PRODUCT_DEFINITION_FORMATION('',$,#533);
#527=PRODUCT_RELATED_PRODUCT_CATEGORY('Product','Product',(#532));
#528=PRODUCT_RELATED_PRODUCT_CATEGORY('*S0','*S0',(#533));
#529=APPLICATION_PROTOCOL_DEFINITION('international standard',
'automotive_design',2009,#530);
#530=APPLICATION_CONTEXT(
'Core Data for Automotive Mechanical Design Process');
#531=PRODUCT_CONTEXT('part definition',#530,'mechanical');
#532=PRODUCT('Product','Product',$,(#531));
#533=PRODUCT('*S0','*S0',$,(#531));
#534=PRESENTATION_STYLE_ASSIGNMENT((#535));
#535=SURFACE_STYLE_USAGE(.BOTH.,#536);
#536=SURFACE_SIDE_STYLE('',(#537));
#537=SURFACE_STYLE_FILL_AREA(#538);
#538=FILL_AREA_STYLE('',(#539));
#539=FILL_AREA_STYLE_COLOUR('',#540);
#540=COLOUR_RGB('',0.866666666666667,0.866666666666667,0.866666666666667);
ENDSEC;
END-ISO-10303-21;
